  0
SECTION
  2
HEADER
  9
$ACADVER
  1
AC1004
  9
$EXTMIN
 10
0.0
 20
0.0
  9
$EXTMAX
 10
390.000000000000000
 20
270.000000000000000
  9
$LIMMIN
 10
0.0
 20
0.0
  9
$LIMMAX
 10
390.000000000000000
 20
270.000000000000000
  9
$CLAYER
  8
PT2-Opis5
  0
ENDSEC
  0
SECTION
  2
TABLES
  0
TABLE
  2
LTYPE
 70
11
  0
LTYPE
  2
CONTINUOUS
 70
     0
  3
Solid line
 72
    65
 73
     0
 40
     0.0
  0
LTYPE
  2
GESTRICHELT
 70
     0
  3
__ __ __ __ __ __ __ __ __ __ __ __ __ __ __
 72
    65
 73
     2
 40
     0.75
 49
0.5
 49
-0.25
  0
LTYPE
  2
VERDECKT
 70
     0
  3
_ _ _ _ _ _ _ _ _ _ _ _ _ _ _ _ _ _ _ _ _ _
 72
    65
 73
     2
 40
     0.25
 49
0.125
 49
-0.125
  0
LTYPE
  2
MITTELLINIE
 70
     0
  3
____ _ ____ _ ____ _ ____ _ ____ _ ____ _ __
 72
    65
 73
     4
 40
     2.0
 49
1.25
 49
-0.25
 49
0.25
 49
-0.25
  0
LTYPE
  2
PHANTOM
 70
     0
  3
_____ _ _ _____ _ _ _____ _ _ _____ _ _ ____
 72
    65
 73
     6
 40
     2.5
 49
1.25
 49
-0.25
 49
0.25
 49
-0.25
 49
0.25
 49
-0.25
  0
LTYPE
  2
PUNKTIERT
 70
     0
  3
............................................
 72
    65
 73
     2
 40
     0.25
 49
0.0
 49
-0.25
  0
LTYPE
  2
STRICHPUNKTIERT
 70
     0
  3
__ . __ . __ . __ . __ . __ . __ . __ . __ .
 72
    65
 73
     4
 40
     1.0
 49
0.5
 49
-0.25
 49
0.0
 49
-0.25
  0
LTYPE
  2
RAND
 70
     0
  3
__ __ . __ __ . __ __ . __ __ . __ __ . __ _
 72
    65
 73
     6
 40
     1.75
 49
0.5
 49
-0.25
 49
0.5
 49
-0.25
 49
0.0
 49
-0.25
  0
LTYPE
  2
TRENNLINIE
 70
     0
  3
__ . . __ . . __ . . __ . . __ . . __ . . __
 72
    65
 73
     6
 40
     1.25
 49
0.5
 49
-0.25
 49
0.0
 49
-0.25
 49
0.0
 49
-0.25
  0
LTYPE
  2
ENG_PUNKTIERT
 70
     0
  3
Schließen
 72
    65
 73
     2
 40
     0.1
 49
0.05
 49
-0.05
  0
LTYPE
  2
CLOSE
 70
     0
  3

 72
    65
 73
     0
 40
     0.0
  0
ENDTAB
  0
TABLE
  2
LAYER
 70
   11
  0
LAYER
  2
PT1-Tabelka_rysu1
 70
     0
 62
    -7
  6
CONTINUOUS
  0
LAYER
  2
PT2-Krawędzie_pr2
 70
     0
 62
     7
  6
CONTINUOUS
  0
LAYER
  2
PT2-Linie_przekr3
 70
     0
 62
     7
  6
CONTINUOUS
  0
LAYER
  2
PT2-Kreskowanie4
 70
     0
 62
     7
  6
CONTINUOUS
  0
LAYER
  2
PT2-Opis5
 70
     0
 62
     7
  6
CONTINUOUS
  0
LAYER
  2
PT2-Wymiarowanie6
 70
     0
 62
     7
  6
CONTINUOUS
  0
LAYER
  2
PT2-Krawędzie_wy7
 70
     0
 62
     7
  6
CONTINUOUS
  0
LAYER
  2
PT2-Linie_wyposa8
 70
     0
 62
     7
  6
CONTINUOUS
  0
LAYER
  2
PT2-Kreskowanie_9
 70
     0
 62
     7
  6
CONTINUOUS
  0
LAYER
  2
PT2-Linie_pomocn10
 70
     0
 62
     7
  6
CONTINUOUS
  0
LAYER
  2
PT2-Grafika_2D11
 70
     0
 62
     7
  6
CONTINUOUS
  0
ENDTAB
  0
TABLE
  2
STYLE
 70
    1
  0
STYLE
  2
STANDARD
 70
    0
 40
0.0
 41
1.0
 50
0.0
71
     0
 42
0.2
  3
txt
  4

  0
ENDTAB
  0
ENDSEC
  0
SECTION
  2
ENTITIES
  0
POLYLINE
  8
PT1-Tabelka_rysu1
  6
CONTINUOUS
 62
     7
 66
     1
 70
     1
  0
VERTEX
  8
PT1-Tabelka_rysu1
 10
381.3043
 20
9.641200000000026
  0
VERTEX
  8
PT1-Tabelka_rysu1
 10
382.3626
 20
9.641200000000026
  0
VERTEX
  8
PT1-Tabelka_rysu1
 10
382.3626
 20
70.671699999999987
  0
VERTEX
  8
PT1-Tabelka_rysu1
 10
381.3043
 20
70.671699999999987
  0
SEQEND
  8
PT1-Tabelka_rysu1
  0
LINE
  8
PT1-Tabelka_rysu1
  6
CONTINUOUS
 62
     7
 10
381.3043
 20
10.699500000000000
 11
381.3043
 21
71.730099999999993
  0
LINE
  8
PT1-Tabelka_rysu1
  6
CONTINUOUS
 62
     7
 10
381.3043
 20
71.730099999999993
 11
309.3376
 21
71.730099999999993
  0
LINE
  8
PT1-Tabelka_rysu1
  6
CONTINUOUS
 62
     7
 10
309.3376
 20
10.699500000000000
 11
309.3376
 21
71.730099999999993
  0
POLYLINE
  8
PT2-Kreskowanie4
  6
CONTINUOUS
 62
     7
 66
     1
 70
     1
  0
VERTEX
  8
PT2-Kreskowanie4
 10
163.4179
 20
121.680900000000010
  0
VERTEX
  8
PT2-Kreskowanie4
 10
367.9034
 20
121.680900000000010
  0
VERTEX
  8
PT2-Kreskowanie4
 10
367.9034
 20
123.080900000000010
  0
VERTEX
  8
PT2-Kreskowanie4
 10
163.7145
 20
123.080900000000010
  0
VERTEX
  8
PT2-Kreskowanie4
 10
163.4179
 20
122.276999999999990
  0
SEQEND
  8
PT2-Kreskowanie4
  0
LINE
  8
PT2-Krawędzie_pr2
  6
CONTINUOUS
 62
     7
 10
367.9034
 20
123.080900000000010
 11
163.4179
 21
123.080900000000010
  0
LINE
  8
PT2-Krawędzie_pr2
  6
CONTINUOUS
 62
     7
 10
159.4179
 20
121.680900000000010
 11
367.9034
 21
121.680900000000010
  0
LINE
  8
PT2-Krawędzie_pr2
  6
CONTINUOUS
 62
     7
 10
155.4179
 20
129.204199999999990
 11
155.4179
 21
107.498799999999990
  0
LINE
  8
PT2-Krawędzie_pr2
  6
CONTINUOUS
 62
     7
 10
163.4179
 20
134.399499999999990
 11
155.4179
 21
129.204199999999990
  0
POLYLINE
  8
PT2-Kreskowanie4
  6
CONTINUOUS
 62
     7
 66
     1
 70
     1
  0
VERTEX
  8
PT2-Kreskowanie4
 10
335.9055
 20
121.680900000000010
  0
VERTEX
  8
PT2-Kreskowanie4
 10
338.3056
 20
121.680900000000010
  0
VERTEX
  8
PT2-Kreskowanie4
 10
338.3056
 20
176.480900000000020
  0
VERTEX
  8
PT2-Kreskowanie4
 10
335.9055
 20
176.480900000000020
  0
SEQEND
  8
PT2-Kreskowanie4
  0
LINE
  8
PT2-Krawędzie_pr2
  6
CONTINUOUS
 62
     7
 10
335.9055
 20
176.480900000000020
 11
335.9055
 21
121.680900000000010
  0
LINE
  8
PT2-Krawędzie_pr2
  6
CONTINUOUS
 62
     7
 10
338.3056
 20
121.680900000000010
 11
338.3056
 21
176.480900000000020
  0
LINE
  8
PT2-Krawędzie_pr2
  6
CONTINUOUS
 62
     7
 10
335.9055
 20
121.680900000000010
 11
338.3056
 21
121.680900000000010
  0
LINE
  8
PT2-Krawędzie_pr2
  6
CONTINUOUS
 62
     7
 10
269.1781
 20
203.080899999999990
 11
268.8701
 21
202.880900000000000
  0
LINE
  8
PT2-Linie_przekr3
  6
CONTINUOUS
 62
     7
 10
338.3021
 20
176.480900000000020
 11
338.3021
 21
123.080900000000010
  0
LINE
  8
PT2-Linie_przekr3
  6
CONTINUOUS
 62
     7
 10
285.3136
 20
170.280900000000000
 11
285.3136
 21
167.080899999999990
  0
LINE
  8
PT2-Linie_przekr3
  6
CONTINUOUS
 62
     7
 10
163.418
 20
129.650000000000010
 11
163.418
 21
123.080900000000010
  0
LINE
  8
PT2-Linie_przekr3
  6
CONTINUOUS
 62
     7
 10
285.3133
 20
123.080900000000010
 11
285.3133
 21
202.900899999999980
  0
LINE
  8
PT2-Linie_przekr3
  6
CONTINUOUS
 62
     7
 10
285.3133
 20
202.880900000000000
 11
285.3133
 21
123.080900000000010
  0
LINE
  8
PT2-Linie_przekr3
  6
CONTINUOUS
 62
     7
 10
338.2993
 20
176.480900000000020
 11
338.2993
 21
123.080900000000010
  0
LINE
  8
PT2-Krawędzie_pr2
  6
CONTINUOUS
 62
     7
 10
163.418
 20
131.060800000000000
 11
163.418
 21
129.630000000000000
  0
LINE
  8
PT2-Linie_przekr3
  6
CONTINUOUS
 62
     7
 10
292.9246
 20
163.080899999999990
 11
314.271
 21
163.080899999999990
  0
LINE
  8
PT2-Linie_przekr3
  6
CONTINUOUS
 62
     7
 10
314.271
 20
163.080899999999990
 11
312.5221
 21
161.499300000000010
  0
LINE
  8
PT2-Linie_przekr3
  6
CONTINUOUS
 62
     7
 10
292.9246
 20
162.393300000000010
 11
294.375
 21
161.081700000000010
  0
LINE
  8
PT2-Linie_przekr3
  6
CONTINUOUS
 62
     7
 10
294.375
 20
161.081700000000010
 11
294.375
 21
157.069000000000020
  0
LINE
  8
PT2-Linie_przekr3
  6
CONTINUOUS
 62
     7
 10
292.9246
 20
123.097000000000010
 11
294.375
 21
123.097000000000010
  0
LINE
  8
PT2-Linie_przekr3
  6
CONTINUOUS
 62
     7
 10
294.375
 20
123.097000000000010
 11
294.375
 21
127.096900000000010
  0
LINE
  8
PT2-Linie_przekr3
  6
CONTINUOUS
 62
     7
 10
293.2189
 20
123.097000000000010
 11
294.2976
 21
123.097000000000010
  0
LINE
  8
PT2-Linie_przekr3
  6
CONTINUOUS
 62
     7
 10
294.2976
 20
123.097000000000010
 11
294.2976
 21
123.080900000000010
  0
LINE
  8
PT2-Linie_przekr3
  6
CONTINUOUS
 62
     7
 10
294.2976
 20
123.080900000000010
 11
294.6998
 21
123.080900000000010
  0
LINE
  8
PT2-Linie_przekr3
  6
CONTINUOUS
 62
     7
 10
294.6998
 20
123.080900000000010
 11
294.6998
 21
123.094400000000010
  0
LINE
  8
PT2-Linie_przekr3
  6
CONTINUOUS
 62
     7
 10
294.375
 20
161.081700000000010
 11
294.4777
 21
161.081700000000010
  0
LINE
  8
PT2-Linie_przekr3
  6
CONTINUOUS
 62
     7
 10
294.375
 20
160.731499999999980
 11
294.4777
 21
160.731499999999980
  0
LINE
  8
PT2-Linie_przekr3
  6
CONTINUOUS
 62
     7
 10
294.375
 20
155.665400000000010
 11
294.375
 21
128.500499999999990
  0
LINE
  8
PT2-Linie_przekr3
  6
CONTINUOUS
 62
     7
 10
311.6941
 20
123.094400000000010
 11
311.6941
 21
123.080900000000010
  0
LINE
  8
PT2-Linie_przekr3
  6
CONTINUOUS
 62
     7
 10
311.6941
 20
123.080900000000010
 11
312.0963
 21
123.080900000000010
  0
LINE
  8
PT2-Linie_przekr3
  6
CONTINUOUS
 62
     7
 10
312.0963
 20
123.080900000000010
 11
312.0963
 21
123.094400000000010
  0
LINE
  8
PT2-Linie_przekr3
  6
CONTINUOUS
 62
     7
 10
312.6692
 20
123.097000000000010
 11
313.2179
 21
123.097000000000010
  0
LINE
  8
PT2-Linie_przekr3
  6
CONTINUOUS
 62
     7
 10
314.271
 20
163.080899999999990
 11
314.271
 21
123.097000000000010
  0
LINE
  8
PT2-Linie_przekr3
  6
CONTINUOUS
 62
     7
 10
314.271
 20
123.097000000000010
 11
312.6692
 21
123.097000000000010
  0
LINE
  8
PT2-Linie_przekr3
  6
CONTINUOUS
 62
     7
 10
312.5551
 20
123.094400000000010
 11
312.6692
 21
123.094400000000010
  0
LINE
  8
PT2-Linie_przekr3
  6
CONTINUOUS
 62
     7
 10
312.6692
 20
123.094400000000010
 11
312.6692
 21
161.499300000000010
  0
LINE
  8
PT2-Linie_przekr3
  6
CONTINUOUS
 62
     7
 10
311.6731
 20
144.401900000000010
 11
311.6921
 21
144.445300000000000
  0
LINE
  8
PT2-Linie_przekr3
  6
CONTINUOUS
 62
     7
 10
311.6921
 20
144.445300000000000
 11
310.6724
 21
144.549800000000000
  0
LINE
  8
PT2-Linie_przekr3
  6
CONTINUOUS
 62
     7
 10
311.654
 20
144.192200000000010
 11
311.6731
 21
144.297000000000000
  0
LINE
  8
PT2-Linie_przekr3
  6
CONTINUOUS
 62
     7
 10
311.3134
 20
144.484399999999990
 11
311.3134
 21
145.024400000000010
  0
LINE
  8
PT2-Linie_przekr3
  6
CONTINUOUS
 62
     7
 10
311.3134
 20
145.024400000000010
 11
311.2006
 21
145.196000000000000
  0
LINE
  8
PT2-Linie_przekr3
  6
CONTINUOUS
 62
     7
 10
293.955
 20
157.069000000000020
 11
293.955
 21
155.665400000000010
  0
LINE
  8
PT2-Linie_przekr3
  6
CONTINUOUS
 62
     7
 10
293.955
 20
155.665400000000010
 11
294.0029
 21
155.665400000000010
  0
LINE
  8
PT2-Linie_przekr3
  6
CONTINUOUS
 62
     7
 10
294.0029
 20
155.665400000000010
 11
294.0029
 21
157.069000000000020
  0
LINE
  8
PT2-Linie_przekr3
  6
CONTINUOUS
 62
     7
 10
294.0029
 20
157.069000000000020
 11
293.955
 21
157.069000000000020
  0
LINE
  8
PT2-Linie_przekr3
  6
CONTINUOUS
 62
     7
 10
293.955
 20
128.500499999999990
 11
293.955
 21
127.096900000000010
  0
LINE
  8
PT2-Linie_przekr3
  6
CONTINUOUS
 62
     7
 10
293.955
 20
127.096900000000010
 11
294.0029
 21
127.096900000000010
  0
LINE
  8
PT2-Linie_przekr3
  6
CONTINUOUS
 62
     7
 10
294.0029
 20
127.096900000000010
 11
294.0029
 21
128.500499999999990
  0
LINE
  8
PT2-Linie_przekr3
  6
CONTINUOUS
 62
     7
 10
294.0029
 20
128.500499999999990
 11
293.955
 21
128.500499999999990
  0
LINE
  8
PT2-Linie_przekr3
  6
CONTINUOUS
 62
     7
 10
294.0029
 20
157.069000000000020
 11
294.1416
 21
157.069000000000020
  0
LINE
  8
PT2-Linie_przekr3
  6
CONTINUOUS
 62
     7
 10
294.1416
 20
157.069000000000020
 11
294.1416
 21
155.665400000000010
  0
LINE
  8
PT2-Linie_przekr3
  6
CONTINUOUS
 62
     7
 10
294.1416
 20
155.665400000000010
 11
294.0029
 21
155.665400000000010
  0
LINE
  8
PT2-Linie_przekr3
  6
CONTINUOUS
 62
     7
 10
294.0029
 20
128.500499999999990
 11
294.1416
 21
128.500499999999990
  0
LINE
  8
PT2-Linie_przekr3
  6
CONTINUOUS
 62
     7
 10
294.1416
 20
128.500499999999990
 11
294.1416
 21
127.096900000000010
  0
LINE
  8
PT2-Linie_przekr3
  6
CONTINUOUS
 62
     7
 10
294.1416
 20
127.096900000000010
 11
294.0029
 21
127.096900000000010
  0
LINE
  8
PT2-Linie_przekr3
  6
CONTINUOUS
 62
     7
 10
294.1416
 20
157.069000000000020
 11
294.3179
 21
157.069000000000020
  0
LINE
  8
PT2-Linie_przekr3
  6
CONTINUOUS
 62
     7
 10
294.3179
 20
157.069000000000020
 11
294.3179
 21
155.665400000000010
  0
LINE
  8
PT2-Linie_przekr3
  6
CONTINUOUS
 62
     7
 10
294.3179
 20
155.665400000000010
 11
294.1416
 21
155.665400000000010
  0
LINE
  8
PT2-Linie_przekr3
  6
CONTINUOUS
 62
     7
 10
294.1416
 20
128.500499999999990
 11
294.3179
 21
128.500499999999990
  0
LINE
  8
PT2-Linie_przekr3
  6
CONTINUOUS
 62
     7
 10
294.3179
 20
128.500499999999990
 11
294.3179
 21
127.096900000000010
  0
LINE
  8
PT2-Linie_przekr3
  6
CONTINUOUS
 62
     7
 10
294.3179
 20
127.096900000000010
 11
294.1416
 21
127.096900000000010
  0
LINE
  8
PT2-Linie_przekr3
  6
CONTINUOUS
 62
     7
 10
294.3179
 20
157.069000000000020
 11
294.4647
 21
157.069000000000020
  0
LINE
  8
PT2-Linie_przekr3
  6
CONTINUOUS
 62
     7
 10
294.4647
 20
157.069000000000020
 11
294.4647
 21
161.499300000000010
  0
LINE
  8
PT2-Linie_przekr3
  6
CONTINUOUS
 62
     7
 10
294.4647
 20
161.499300000000010
 11
294.5825
 21
161.400899999999980
  0
LINE
  8
PT2-Linie_przekr3
  6
CONTINUOUS
 62
     7
 10
294.5825
 20
161.400899999999980
 11
294.5825
 21
123.094400000000010
  0
LINE
  8
PT2-Linie_przekr3
  6
CONTINUOUS
 62
     7
 10
294.5825
 20
123.094400000000010
 11
294.4647
 21
123.094400000000010
  0
LINE
  8
PT2-Linie_przekr3
  6
CONTINUOUS
 62
     7
 10
294.4647
 20
123.094400000000010
 11
294.4647
 21
127.096900000000010
  0
LINE
  8
PT2-Linie_przekr3
  6
CONTINUOUS
 62
     7
 10
294.4647
 20
127.096900000000010
 11
294.3179
 21
127.096900000000010
  0
LINE
  8
PT2-Linie_przekr3
  6
CONTINUOUS
 62
     7
 10
294.3179
 20
155.665400000000010
 11
294.4647
 21
155.665400000000010
  0
LINE
  8
PT2-Linie_przekr3
  6
CONTINUOUS
 62
     7
 10
294.4647
 20
155.665400000000010
 11
294.4647
 21
157.069000000000020
  0
LINE
  8
PT2-Linie_przekr3
  6
CONTINUOUS
 62
     7
 10
294.4647
 20
157.069000000000020
 11
294.5257
 21
157.069000000000020
  0
LINE
  8
PT2-Linie_przekr3
  6
CONTINUOUS
 62
     7
 10
294.5257
 20
157.069000000000020
 11
294.5257
 21
155.665400000000010
  0
LINE
  8
PT2-Linie_przekr3
  6
CONTINUOUS
 62
     7
 10
294.5257
 20
155.665400000000010
 11
294.4647
 21
155.665400000000010
  0
LINE
  8
PT2-Linie_przekr3
  6
CONTINUOUS
 62
     7
 10
294.4647
 20
155.665400000000010
 11
294.4647
 21
128.500499999999990
  0
LINE
  8
PT2-Linie_przekr3
  6
CONTINUOUS
 62
     7
 10
294.4647
 20
128.500499999999990
 11
294.3179
 21
128.500499999999990
  0
LINE
  8
PT2-Linie_przekr3
  6
CONTINUOUS
 62
     7
 10
294.4647
 20
161.499300000000010
 11
297.8276
 21
161.499300000000010
  0
LINE
  8
PT2-Linie_przekr3
  6
CONTINUOUS
 62
     7
 10
294.4647
 20
128.500499999999990
 11
294.4647
 21
127.096900000000010
  0
LINE
  8
PT2-Linie_przekr3
  6
CONTINUOUS
 62
     7
 10
294.4647
 20
127.096900000000010
 11
294.5257
 21
127.096900000000010
  0
LINE
  8
PT2-Linie_przekr3
  6
CONTINUOUS
 62
     7
 10
294.5257
 20
127.096900000000010
 11
294.5257
 21
128.500499999999990
  0
LINE
  8
PT2-Linie_przekr3
  6
CONTINUOUS
 62
     7
 10
294.5257
 20
128.500499999999990
 11
294.4647
 21
128.500499999999990
  0
LINE
  8
PT2-Linie_przekr3
  6
CONTINUOUS
 62
     7
 10
294.5825
 20
161.400899999999980
 11
297.8465
 21
161.392400000000010
  0
LINE
  8
PT2-Linie_przekr3
  6
CONTINUOUS
 62
     7
 10
297.8465
 20
161.392400000000010
 11
297.8465
 21
161.240900000000010
  0
LINE
  8
PT2-Linie_przekr3
  6
CONTINUOUS
 62
     7
 10
294.5825
 20
123.094400000000010
 11
297.8465
 21
123.094400000000010
  0
LINE
  8
PT2-Linie_przekr3
  6
CONTINUOUS
 62
     7
 10
297.8465
 20
123.094400000000010
 11
297.8465
 21
128.873200000000000
  0
LINE
  8
PT2-Linie_przekr3
  6
CONTINUOUS
 62
     7
 10
297.6238
 20
157.700600000000010
 11
297.6238
 21
142.891599999999980
  0
LINE
  8
PT2-Linie_przekr3
  6
CONTINUOUS
 62
     7
 10
297.6238
 20
142.891599999999980
 11
298.0624
 21
142.893500000000020
  0
LINE
  8
PT2-Linie_przekr3
  6
CONTINUOUS
 62
     7
 10
297.6238
 20
139.288900000000010
 11
297.6238
 21
128.873200000000000
  0
LINE
  8
PT2-Linie_przekr3
  6
CONTINUOUS
 62
     7
 10
297.6238
 20
128.873200000000000
 11
298.0624
 21
128.874699999999990
  0
LINE
  8
PT2-Linie_przekr3
  6
CONTINUOUS
 62
     7
 10
297.8276
 20
161.507800000000000
 11
297.8276
 21
161.392400000000010
  0
LINE
  8
PT2-Linie_przekr3
  6
CONTINUOUS
 62
     7
 10
297.8276
 20
161.401500000000000
 11
309.3002
 21
161.401500000000000
  0
LINE
  8
PT2-Linie_przekr3
  6
CONTINUOUS
 62
     7
 10
309.3002
 20
161.401500000000000
 11
309.3002
 21
161.507800000000000
  0
LINE
  8
PT2-Linie_przekr3
  6
CONTINUOUS
 62
     7
 10
309.3002
 20
161.507800000000000
 11
297.8276
 21
161.507800000000000
  0
LINE
  8
PT2-Linie_przekr3
  6
CONTINUOUS
 62
     7
 10
297.8276
 20
123.094400000000010
 11
297.8276
 21
123.080900000000010
  0
LINE
  8
PT2-Linie_przekr3
  6
CONTINUOUS
 62
     7
 10
297.8276
 20
123.080900000000010
 11
309.3268
 21
123.080900000000010
  0
LINE
  8
PT2-Linie_przekr3
  6
CONTINUOUS
 62
     7
 10
309.3268
 20
123.080900000000010
 11
309.3268
 21
123.094400000000010
  0
LINE
  8
PT2-Linie_przekr3
  6
CONTINUOUS
 62
     7
 10
297.8465
 20
161.392400000000010
 11
297.8465
 21
157.700600000000010
  0
LINE
  8
PT2-Linie_przekr3
  6
CONTINUOUS
 62
     7
 10
297.8465
 20
142.891599999999980
 11
297.8465
 21
139.288900000000010
  0
LINE
  8
PT2-Linie_przekr3
  6
CONTINUOUS
 62
     7
 10
298.0412
 20
157.702200000000000
 11
297.6238
 21
157.700600000000010
  0
LINE
  8
PT2-Linie_przekr3
  6
CONTINUOUS
 62
     7
 10
298.0412
 20
157.702200000000000
 11
309.076
 21
157.702200000000000
  0
LINE
  8
PT2-Linie_przekr3
  6
CONTINUOUS
 62
     7
 10
309.076
 20
157.702200000000000
 11
309.076
 21
157.299100000000010
  0
LINE
  8
PT2-Linie_przekr3
  6
CONTINUOUS
 62
     7
 10
309.076
 20
157.299100000000010
 11
298.0412
 21
157.299100000000010
  0
LINE
  8
PT2-Linie_przekr3
  6
CONTINUOUS
 62
     7
 10
298.0412
 20
157.299100000000010
 11
298.0412
 21
157.702200000000000
  0
LINE
  8
PT2-Linie_przekr3
  6
CONTINUOUS
 62
     7
 10
298.0412
 20
143.296499999999980
 11
298.0412
 21
142.893500000000020
  0
LINE
  8
PT2-Linie_przekr3
  6
CONTINUOUS
 62
     7
 10
298.0412
 20
142.893500000000020
 11
309.076
 21
142.893500000000020
  0
LINE
  8
PT2-Linie_przekr3
  6
CONTINUOUS
 62
     7
 10
309.076
 20
142.893500000000020
 11
309.076
 21
144.198700000000000
  0
LINE
  8
PT2-Linie_przekr3
  6
CONTINUOUS
 62
     7
 10
298.0412
 20
139.293000000000010
 11
298.0412
 21
138.889900000000010
  0
LINE
  8
PT2-Linie_przekr3
  6
CONTINUOUS
 62
     7
 10
298.0412
 20
138.889900000000010
 11
309.076
 21
138.889900000000010
  0
LINE
  8
PT2-Linie_przekr3
  6
CONTINUOUS
 62
     7
 10
309.076
 20
138.889900000000010
 11
309.076
 21
139.293000000000010
  0
LINE
  8
PT2-Linie_przekr3
  6
CONTINUOUS
 62
     7
 10
309.076
 20
139.293000000000010
 11
298.0412
 21
139.293000000000010
  0
LINE
  8
PT2-Linie_przekr3
  6
CONTINUOUS
 62
     7
 10
298.0412
 20
139.288900000000010
 11
297.6238
 21
139.288900000000010
  0
LINE
  8
PT2-Linie_przekr3
  6
CONTINUOUS
 62
     7
 10
298.0412
 20
129.277700000000010
 11
298.0412
 21
128.874699999999990
  0
LINE
  8
PT2-Linie_przekr3
  6
CONTINUOUS
 62
     7
 10
298.0412
 20
128.874699999999990
 11
309.076
 21
128.874699999999990
  0
LINE
  8
PT2-Linie_przekr3
  6
CONTINUOUS
 62
     7
 10
309.076
 20
128.874699999999990
 11
309.076
 21
129.277700000000010
  0
LINE
  8
PT2-Linie_przekr3
  6
CONTINUOUS
 62
     7
 10
309.076
 20
129.277700000000010
 11
298.0412
 21
129.277700000000010
  0
LINE
  8
PT2-Linie_przekr3
  6
CONTINUOUS
 62
     7
 10
298.0624
 20
157.299100000000010
 11
298.0624
 21
143.296499999999980
  0
LINE
  8
PT2-Linie_przekr3
  6
CONTINUOUS
 62
     7
 10
298.0624
 20
138.889900000000010
 11
298.0624
 21
129.277700000000010
  0
LINE
  8
PT2-Linie_przekr3
  6
CONTINUOUS
 62
     7
 10
308.5971
 20
144.434200000000000
 11
308.5971
 21
144.391000000000020
  0
LINE
  8
PT2-Linie_przekr3
  6
CONTINUOUS
 62
     7
 10
308.5971
 20
144.391000000000020
 11
308.622
 21
144.286700000000000
  0
LINE
  8
PT2-Linie_przekr3
  6
CONTINUOUS
 62
     7
 10
308.622
 20
144.286700000000000
 11
308.6397
 21
144.182400000000000
  0
LINE
  8
PT2-Linie_przekr3
  6
CONTINUOUS
 62
     7
 10
308.6397
 20
144.182400000000000
 11
308.6397
 21
144.139099999999980
  0
LINE
  8
PT2-Linie_przekr3
  6
CONTINUOUS
 62
     7
 10
308.6397
 20
144.139099999999980
 11
309.3899
 21
144.241600000000010
  0
LINE
  8
PT2-Linie_przekr3
  6
CONTINUOUS
 62
     7
 10
309.3899
 20
144.241600000000010
 11
310.6566
 21
144.251700000000000
  0
LINE
  8
PT2-Linie_przekr3
  6
CONTINUOUS
 62
     7
 10
310.6566
 20
144.251700000000000
 11
310.7466
 21
144.243100000000000
  0
LINE
  8
PT2-Linie_przekr3
  6
CONTINUOUS
 62
     7
 10
308.5971
 20
144.391000000000020
 11
309.3674
 21
144.495499999999990
  0
LINE
  8
PT2-Linie_przekr3
  6
CONTINUOUS
 62
     7
 10
309.3674
 20
144.495499999999990
 11
310.6724
 21
144.506100000000000
  0
LINE
  8
PT2-Linie_przekr3
  6
CONTINUOUS
 62
     7
 10
310.6724
 20
144.506100000000000
 11
311.6731
 21
144.401900000000010
  0
LINE
  8
PT2-Linie_przekr3
  6
CONTINUOUS
 62
     7
 10
311.6731
 20
144.401900000000010
 11
311.6731
 21
144.297000000000000
  0
LINE
  8
PT2-Linie_przekr3
  6
CONTINUOUS
 62
     7
 10
311.6731
 20
144.297000000000000
 11
310.6724
 21
144.400700000000000
  0
LINE
  8
PT2-Linie_przekr3
  6
CONTINUOUS
 62
     7
 10
310.6724
 20
144.400700000000000
 11
309.3674
 21
144.390300000000000
  0
LINE
  8
PT2-Linie_przekr3
  6
CONTINUOUS
 62
     7
 10
309.3674
 20
144.390300000000000
 11
308.622
 21
144.286700000000000
  0
LINE
  8
PT2-Linie_przekr3
  6
CONTINUOUS
 62
     7
 10
308.6397
 20
144.182400000000000
 11
309.3899
 21
144.285200000000000
  0
LINE
  8
PT2-Linie_przekr3
  6
CONTINUOUS
 62
     7
 10
309.3899
 20
144.285200000000000
 11
310.6566
 21
144.295300000000000
  0
LINE
  8
PT2-Linie_przekr3
  6
CONTINUOUS
 62
     7
 10
310.6566
 20
144.295300000000000
 11
310.8031
 21
144.281099999999980
  0
LINE
  8
PT2-Linie_przekr3
  6
CONTINUOUS
 62
     7
 10
309.076
 20
157.702200000000000
 11
309.076
 21
144.500200000000010
  0
LINE
  8
PT2-Linie_przekr3
  6
CONTINUOUS
 62
     7
 10
309.076
 20
143.296499999999980
 11
298.0412
 21
143.296499999999980
  0
LINE
  8
PT2-Linie_przekr3
  6
CONTINUOUS
 62
     7
 10
309.076
 20
142.893500000000020
 11
309.076
 21
143.296499999999980
  0
LINE
  8
PT2-Linie_przekr3
  6
CONTINUOUS
 62
     7
 10
309.076
 20
139.288900000000010
 11
309.5192
 21
139.288900000000010
  0
LINE
  8
PT2-Linie_przekr3
  6
CONTINUOUS
 62
     7
 10
309.5192
 20
139.288900000000010
 11
309.5192
 21
128.873200000000000
  0
LINE
  8
PT2-Linie_przekr3
  6
CONTINUOUS
 62
     7
 10
309.5192
 20
128.873200000000000
 11
309.076
 21
128.874699999999990
  0
LINE
  8
PT2-Linie_przekr3
  6
CONTINUOUS
 62
     7
 10
309.076
 20
138.889900000000010
 11
309.076
 21
129.277700000000010
  0
LINE
  8
PT2-Linie_przekr3
  6
CONTINUOUS
 62
     7
 10
309.3002
 20
161.499300000000010
 11
312.6692
 21
161.499300000000010
  0
LINE
  8
PT2-Linie_przekr3
  6
CONTINUOUS
 62
     7
 10
312.6692
 20
161.499300000000010
 11
312.5551
 21
161.392000000000000
  0
LINE
  8
PT2-Linie_przekr3
  6
CONTINUOUS
 62
     7
 10
312.5551
 20
161.392000000000000
 11
309.3002
 21
161.392900000000000
  0
LINE
  8
PT2-Linie_przekr3
  6
CONTINUOUS
 62
     7
 10
309.3002
 20
161.392900000000000
 11
309.3002
 21
161.401500000000000
  0
LINE
  8
PT2-Linie_przekr3
  6
CONTINUOUS
 62
     7
 10
309.3002
 20
161.392900000000000
 11
309.3002
 21
157.700600000000010
  0
LINE
  8
PT2-Linie_przekr3
  6
CONTINUOUS
 62
     7
 10
309.3002
 20
142.891599999999980
 11
309.3002
 21
139.288900000000010
  0
LINE
  8
PT2-Linie_przekr3
  6
CONTINUOUS
 62
     7
 10
309.3002
 20
128.873200000000000
 11
309.3002
 21
123.094400000000010
  0
LINE
  8
PT2-Linie_przekr3
  6
CONTINUOUS
 62
     7
 10
309.3002
 20
123.094400000000010
 11
312.5551
 21
123.094400000000010
  0
LINE
  8
PT2-Linie_przekr3
  6
CONTINUOUS
 62
     7
 10
312.5551
 20
123.094400000000010
 11
312.5551
 21
161.392000000000000
  0
LINE
  8
PT2-Linie_przekr3
  6
CONTINUOUS
 62
     7
 10
309.3674
 20
144.539100000000020
 11
308.5971
 21
144.434200000000000
  0
LINE
  8
PT2-Linie_przekr3
  6
CONTINUOUS
 62
     7
 10
309.5192
 20
157.700600000000010
 11
309.076
 21
157.702200000000000
  0
LINE
  8
PT2-Linie_przekr3
  6
CONTINUOUS
 62
     7
 10
309.5192
 20
144.540400000000010
 11
309.5192
 21
157.700600000000010
  0
LINE
  8
PT2-Linie_przekr3
  6
CONTINUOUS
 62
     7
 10
309.5192
 20
144.242599999999980
 11
309.5192
 21
142.891599999999980
  0
LINE
  8
PT2-Linie_przekr3
  6
CONTINUOUS
 62
     7
 10
309.5192
 20
142.891599999999980
 11
309.076
 21
142.893500000000020
  0
LINE
  8
PT2-Linie_przekr3
  6
CONTINUOUS
 62
     7
 10
310.4488
 20
145.024400000000010
 11
310.4488
 21
144.547900000000000
  0
LINE
  8
PT2-Linie_przekr3
  6
CONTINUOUS
 62
     7
 10
310.4488
 20
144.250000000000000
 11
310.4488
 21
141.138800000000000
  0
LINE
  8
PT2-Linie_przekr3
  6
CONTINUOUS
 62
     7
 10
310.4488
 20
141.138800000000000
 11
310.5616
 21
140.967299999999990
  0
LINE
  8
PT2-Linie_przekr3
  6
CONTINUOUS
 62
     7
 10
310.5616
 20
140.967299999999990
 11
310.7646
 21
140.881599999999990
  0
LINE
  8
PT2-Linie_przekr3
  6
CONTINUOUS
 62
     7
 10
310.7646
 20
140.881599999999990
 11
310.9976
 21
140.881599999999990
  0
LINE
  8
PT2-Linie_przekr3
  6
CONTINUOUS
 62
     7
 10
310.9976
 20
140.881599999999990
 11
311.2006
 21
140.967299999999990
  0
LINE
  8
PT2-Linie_przekr3
  6
CONTINUOUS
 62
     7
 10
311.2006
 20
140.967299999999990
 11
311.3134
 21
141.138800000000000
  0
LINE
  8
PT2-Linie_przekr3
  6
CONTINUOUS
 62
     7
 10
311.3134
 20
141.138800000000000
 11
311.3134
 21
144.184200000000000
  0
LINE
  8
PT2-Linie_przekr3
  6
CONTINUOUS
 62
     7
 10
310.5616
 20
145.196000000000000
 11
310.4488
 21
145.024400000000010
  0
LINE
  8
PT2-Linie_przekr3
  6
CONTINUOUS
 62
     7
 10
310.6266
 20
144.162199999999980
 11
310.6566
 21
143.938400000000000
  0
LINE
  8
PT2-Linie_przekr3
  6
CONTINUOUS
 62
     7
 10
310.6566
 20
143.938400000000000
 11
310.8872
 21
143.849899999999990
  0
LINE
  8
PT2-Linie_przekr3
  6
CONTINUOUS
 62
     7
 10
310.8872
 20
143.849899999999990
 11
311.088
 21
143.985099999999990
  0
LINE
  8
PT2-Linie_przekr3
  6
CONTINUOUS
 62
     7
 10
311.088
 20
143.985099999999990
 11
311.0511
 21
144.211400000000000
  0
LINE
  8
PT2-Linie_przekr3
  6
CONTINUOUS
 62
     7
 10
311.0511
 20
144.211400000000000
 11
311.654
 21
144.148799999999990
  0
LINE
  8
PT2-Linie_przekr3
  6
CONTINUOUS
 62
     7
 10
311.654
 20
144.148799999999990
 11
311.654
 21
144.192200000000010
  0
LINE
  8
PT2-Linie_przekr3
  6
CONTINUOUS
 62
     7
 10
311.654
 20
144.192200000000010
 11
310.8872
 21
144.271700000000010
  0
LINE
  8
PT2-Linie_przekr3
  6
CONTINUOUS
 62
     7
 10
310.6724
 20
144.549800000000000
 11
309.3674
 21
144.539100000000020
  0
LINE
  8
PT2-Linie_przekr3
  6
CONTINUOUS
 62
     7
 10
310.7646
 20
145.281700000000000
 11
310.5616
 21
145.196000000000000
  0
LINE
  8
PT2-Linie_przekr3
  6
CONTINUOUS
 62
     7
 10
310.7859
 20
142.523399999999980
 11
310.7859
 21
142.106499999999980
  0
LINE
  8
PT2-Linie_przekr3
  6
CONTINUOUS
 62
     7
 10
310.7859
 20
142.106499999999980
 11
310.9585
 21
142.106499999999980
  0
LINE
  8
PT2-Linie_przekr3
  6
CONTINUOUS
 62
     7
 10
310.9585
 20
142.106499999999980
 11
310.9585
 21
142.523399999999980
  0
LINE
  8
PT2-Linie_przekr3
  6
CONTINUOUS
 62
     7
 10
310.9585
 20
142.523399999999980
 11
310.7859
 21
142.523399999999980
  0
LINE
  8
PT2-Linie_przekr3
  6
CONTINUOUS
 62
     7
 10
310.8272
 20
144.297399999999980
 11
310.6266
 21
144.162199999999980
  0
LINE
  8
PT2-Linie_przekr3
  6
CONTINUOUS
 62
     7
 10
310.9976
 20
145.281700000000000
 11
310.7646
 21
145.281700000000000
  0
LINE
  8
PT2-Linie_przekr3
  6
CONTINUOUS
 62
     7
 10
311.2006
 20
145.196000000000000
 11
310.9976
 21
145.281700000000000
  0
LINE
  8
PT2-Linie_przekr3
  6
CONTINUOUS
 62
     7
 10
235.8179
 20
181.477399999999990
 11
235.9336
 21
181.299300000000020
  0
LINE
  8
PT2-Linie_przekr3
  6
CONTINUOUS
 62
     7
 10
235.7263
 20
184.033500000000000
 11
235.763
 21
184.057300000000000
  0
LINE
  8
PT2-Linie_przekr3
  6
CONTINUOUS
 62
     7
 10
235.4722
 20
181.433100000000000
 11
235.6743
 21
181.130900000000000
  0
LINE
  8
PT2-Linie_przekr3
  6
CONTINUOUS
 62
     7
 10
235.6743
 20
181.130900000000000
 11
235.9336
 21
181.299300000000020
  0
LINE
  8
PT2-Linie_przekr3
  6
CONTINUOUS
 62
     7
 10
235.9336
 20
181.299300000000020
 11
235.7263
 21
181.603999999999980
  0
LINE
  8
PT2-Linie_przekr3
  6
CONTINUOUS
 62
     7
 10
234.9359
 20
183.541000000000000
 11
235.5748
 21
182.557199999999990
  0
LINE
  8
PT2-Linie_przekr3
  6
CONTINUOUS
 62
     7
 10
234.887
 20
182.321000000000000
 11
235.1401
 21
181.932599999999980
  0
LINE
  8
PT2-Linie_przekr3
  6
CONTINUOUS
 62
     7
 10
235.1401
 20
181.932599999999980
 11
235.4111
 21
182.103500000000000
  0
LINE
  8
PT2-Linie_przekr3
  6
CONTINUOUS
 62
     7
 10
235.4111
 20
182.103500000000000
 11
235.7263
 21
181.603999999999980
  0
LINE
  8
PT2-Linie_przekr3
  6
CONTINUOUS
 62
     7
 10
235.7263
 20
181.603999999999980
 11
235.4722
 21
181.433100000000000
  0
LINE
  8
PT2-Linie_przekr3
  6
CONTINUOUS
 62
     7
 10
235.4722
 20
181.433100000000000
 11
235.1401
 21
181.932599999999980
  0
LINE
  8
PT2-Linie_przekr3
  6
CONTINUOUS
 62
     7
 10
235.1401
 20
181.932599999999980
 11
235.7263
 21
182.318299999999990
  0
LINE
  8
PT2-Linie_przekr3
  6
CONTINUOUS
 62
     7
 10
233.9623
 20
182.436399999999990
 11
234.2011
 21
182.591500000000000
  0
LINE
  8
PT2-Linie_przekr3
  6
CONTINUOUS
 62
     7
 10
233.8617
 20
183.530900000000000
 11
234.1745
 21
183.049199999999980
  0
LINE
  8
PT2-Linie_przekr3
  6
CONTINUOUS
 62
     7
 10
234.1745
 20
183.049199999999980
 11
235.7033
 21
184.050000000000010
  0
LINE
  8
PT2-Linie_przekr3
  6
CONTINUOUS
 62
     7
 10
235.7033
 20
184.050000000000010
 11
236.8066
 21
182.370099999999980
  0
LINE
  8
PT2-Linie_przekr3
  6
CONTINUOUS
 62
     7
 10
236.8066
 20
182.370099999999980
 11
235.7033
 21
181.653599999999980
  0
LINE
  8
PT2-Linie_przekr3
  6
CONTINUOUS
 62
     7
 10
218.7463
 20
173.029900000000000
 11
225.8346
 21
177.633199999999990
  0
LINE
  8
PT2-Linie_przekr3
  6
CONTINUOUS
 62
     7
 10
225.8346
 20
177.633199999999990
 11
225.7173
 21
177.813800000000010
  0
LINE
  8
PT2-Linie_przekr3
  6
CONTINUOUS
 62
     7
 10
225.7173
 20
177.813800000000010
 11
234.0572
 21
183.229800000000010
  0
LINE
  8
PT2-Linie_przekr3
  6
CONTINUOUS
 62
     7
 10
234.0572
 20
183.229800000000010
 11
234.1745
 21
183.038200000000020
  0
LINE
  8
PT2-Linie_przekr3
  6
CONTINUOUS
 62
     7
 10
234.1745
 20
183.038200000000020
 11
233.6673
 21
182.710399999999990
  0
LINE
  8
PT2-Linie_przekr3
  6
CONTINUOUS
 62
     7
 10
218.1525
 20
171.446500000000010
 11
218.1525
 21
171.442299999999990
  0
LINE
  8
PT2-Linie_przekr3
  6
CONTINUOUS
 62
     7
 10
217.8008
 20
172.415899999999990
 11
233.6673
 21
182.719699999999990
  0
LINE
  8
PT2-Linie_przekr3
  6
CONTINUOUS
 62
     7
 10
233.6673
 20
182.719699999999990
 11
234.4146
 21
182.002000000000010
  0
LINE
  8
PT2-Linie_przekr3
  6
CONTINUOUS
 62
     7
 10
234.4146
 20
182.002000000000010
 11
218.1525
 21
171.446500000000010
  0
LINE
  8
PT2-Linie_przekr3
  6
CONTINUOUS
 62
     7
 10
218.1525
 20
171.446500000000010
 11
217.8008
 21
172.415899999999990
  0
LINE
  8
PT2-Linie_przekr3
  6
CONTINUOUS
 62
     7
 10
217.8008
 20
172.415899999999990
 11
216.047
 21
171.276999999999990
  0
LINE
  8
PT2-Linie_przekr3
  6
CONTINUOUS
 62
     7
 10
217.6022
 20
171.811899999999980
 11
217.9428
 21
172.033099999999990
  0
LINE
  8
PT2-Linie_przekr3
  6
CONTINUOUS
 62
     7
 10
217.0914
 20
171.465399999999990
 11
217.4108
 21
170.973500000000000
  0
LINE
  8
PT2-Linie_przekr3
  6
CONTINUOUS
 62
     7
 10
216.8259
 20
171.780300000000010
 11
217.4648
 21
170.796400000000010
  0
LINE
  8
PT2-Linie_przekr3
  6
CONTINUOUS
 62
     7
 10
216.047
 20
171.276999999999990
 11
217.1314
 21
169.597100000000010
  0
LINE
  8
PT2-Linie_przekr3
  6
CONTINUOUS
 62
     7
 10
217.1314
 20
169.597100000000010
 11
235.4401
 21
181.482699999999990
  0
LINE
  8
PT2-Linie_przekr3
  6
CONTINUOUS
 62
     7
 10
215.8718
 20
171.381300000000010
 11
215.9914
 21
171.196900000000000
  0
LINE
  8
PT2-Linie_przekr3
  6
CONTINUOUS
 62
     7
 10
215.9914
 20
171.196900000000000
 11
217.5814
 21
172.229500000000000
  0
LINE
  8
PT2-Linie_przekr3
  6
CONTINUOUS
 62
     7
 10
215.8471
 20
171.404000000000000
 11
215.945
 21
171.245999999999980
  0
LINE
  8
PT2-Linie_przekr3
  6
CONTINUOUS
 62
     7
 10
215.945
 20
171.245999999999980
 11
225.82
 21
177.655800000000000
  0
LINE
  8
PT2-Linie_przekr3
  6
CONTINUOUS
 62
     7
 10
225.82
 20
177.655800000000000
 11
225.7173
 21
177.813800000000010
  0
LINE
  8
PT2-Linie_przekr3
  6
CONTINUOUS
 62
     7
 10
225.7173
 20
177.813800000000010
 11
215.8471
 21
171.404000000000000
  0
LINE
  8
PT2-Linie_przekr3
  6
CONTINUOUS
 62
     7
 10
191.2092
 20
155.404000000000000
 11
191.3072
 21
155.245999999999980
  0
LINE
  8
PT2-Linie_przekr3
  6
CONTINUOUS
 62
     7
 10
191.3072
 20
155.245999999999980
 11
191.3072
 21
155.250499999999990
  0
LINE
  8
PT2-Linie_przekr3
  6
CONTINUOUS
 62
     7
 10
191.3072
 20
155.250499999999990
 11
191.3536
 21
155.197000000000000
  0
LINE
  8
PT2-Linie_przekr3
  6
CONTINUOUS
 62
     7
 10
191.3536
 20
155.197000000000000
 11
191.4261
 21
155.244000000000000
  0
LINE
  8
PT2-Linie_przekr3
  6
CONTINUOUS
 62
     7
 10
191.3072
 20
155.245999999999980
 11
201.1821
 21
161.655800000000000
  0
LINE
  8
PT2-Linie_przekr3
  6
CONTINUOUS
 62
     7
 10
201.1821
 20
161.655800000000000
 11
192.9087
 21
156.283000000000020
  0
LINE
  8
PT2-Linie_przekr3
  6
CONTINUOUS
 62
     7
 10
192.9087
 20
156.283000000000020
 11
192.9234
 21
156.260400000000000
  0
LINE
  8
PT2-Linie_przekr3
  6
CONTINUOUS
 62
     7
 10
191.406
 20
155.276999999999990
 11
192.4936
 21
153.602300000000010
  0
LINE
  8
PT2-Linie_przekr3
  6
CONTINUOUS
 62
     7
 10
192.4936
 20
153.602300000000010
 11
192.4936
 21
153.597100000000010
  0
LINE
  8
PT2-Linie_przekr3
  6
CONTINUOUS
 62
     7
 10
192.4936
 20
153.597100000000010
 11
191.406
 21
155.276999999999990
  0
LINE
  8
PT2-Linie_przekr3
  6
CONTINUOUS
 62
     7
 10
201.0795
 20
161.813800000000010
 11
201.1969
 21
161.633199999999990
  0
LINE
  8
PT2-Linie_przekr3
  6
CONTINUOUS
 62
     7
 10
209.2238
 20
167.530900000000000
 11
209.5367
 21
167.049199999999980
  0
LINE
  8
PT2-Linie_przekr3
  6
CONTINUOUS
 62
     7
 10
210.8017
 20
168.555499999999990
 11
209.2238
 21
167.530900000000000
  0
LINE
  8
PT2-Linie_przekr3
  6
CONTINUOUS
 62
     7
 10
211.0885
 20
168.033500000000000
 11
211.1252
 21
168.057300000000000
  0
LINE
  8
PT2-Linie_przekr3
  6
CONTINUOUS
 62
     7
 10
211.1252
 20
168.057300000000000
 11
210.8017
 21
168.555499999999990
  0
LINE
  8
PT2-Linie_przekr3
  6
CONTINUOUS
 62
     7
 10
209.0295
 20
166.710399999999990
 11
209.5367
 21
167.038200000000020
  0
LINE
  8
PT2-Linie_przekr3
  6
CONTINUOUS
 62
     7
 10
209.5367
 20
167.038200000000020
 11
209.4194
 21
167.229800000000010
  0
LINE
  8
PT2-Linie_przekr3
  6
CONTINUOUS
 62
     7
 10
209.4194
 20
167.229800000000010
 11
201.0795
 21
161.813800000000010
  0
LINE
  8
PT2-Linie_przekr3
  6
CONTINUOUS
 62
     7
 10
201.0795
 20
161.813800000000010
 11
201.1969
 21
161.633199999999990
  0
LINE
  8
PT2-Linie_przekr3
  6
CONTINUOUS
 62
     7
 10
201.1969
 20
161.633199999999990
 11
191.4091
 21
155.276999999999990
  0
LINE
  8
PT2-Linie_przekr3
  6
CONTINUOUS
 62
     7
 10
193.5147
 20
155.446500000000010
 11
209.7768
 21
166.002000000000010
  0
LINE
  8
PT2-Linie_przekr3
  6
CONTINUOUS
 62
     7
 10
209.7768
 20
166.002000000000010
 11
209.0295
 21
166.719699999999990
  0
LINE
  8
PT2-Linie_przekr3
  6
CONTINUOUS
 62
     7
 10
209.0295
 20
166.719699999999990
 11
193.163
 21
156.415899999999990
  0
LINE
  8
PT2-Linie_przekr3
  6
CONTINUOUS
 62
     7
 10
193.163
 20
156.415899999999990
 11
193.5147
 21
155.442299999999990
  0
LINE
  8
PT2-Linie_przekr3
  6
CONTINUOUS
 62
     7
 10
192.9644
 20
155.811899999999980
 11
193.305
 21
156.033099999999990
  0
LINE
  8
PT2-Linie_przekr3
  6
CONTINUOUS
 62
     7
 10
192.4536
 20
155.465399999999990
 11
192.7729
 21
154.973500000000000
  0
LINE
  8
PT2-Linie_przekr3
  6
CONTINUOUS
 62
     7
 10
192.1881
 20
155.780300000000010
 11
192.827
 21
154.796400000000010
  0
LINE
  8
PT2-Linie_przekr3
  6
CONTINUOUS
 62
     7
 10
191.4091
 20
155.276999999999990
 11
192.4936
 21
153.597100000000010
  0
LINE
  8
PT2-Linie_przekr3
  6
CONTINUOUS
 62
     7
 10
192.4936
 20
153.597100000000010
 11
210.8023
 21
165.482699999999990
  0
LINE
  8
PT2-Linie_przekr3
  6
CONTINUOUS
 62
     7
 10
191.234
 20
155.381300000000010
 11
191.3536
 21
155.197000000000000
  0
LINE
  8
PT2-Linie_przekr3
  6
CONTINUOUS
 62
     7
 10
191.3536
 20
155.197000000000000
 11
192.9436
 21
156.229500000000000
  0
LINE
  8
PT2-Linie_przekr3
  6
CONTINUOUS
 62
     7
 10
191.2092
 20
155.404000000000000
 11
191.3072
 21
155.245999999999980
  0
LINE
  8
PT2-Linie_przekr3
  6
CONTINUOUS
 62
     7
 10
191.3072
 20
155.245999999999980
 11
201.1821
 21
161.655800000000000
  0
LINE
  8
PT2-Linie_przekr3
  6
CONTINUOUS
 62
     7
 10
201.1821
 20
161.655800000000000
 11
201.0795
 21
161.813800000000010
  0
LINE
  8
PT2-Linie_przekr3
  6
CONTINUOUS
 62
     7
 10
201.0795
 20
161.813800000000010
 11
191.2092
 21
155.404000000000000
  0
LINE
  8
PT2-Linie_przekr3
  6
CONTINUOUS
 62
     7
 10
209.2238
 20
167.530900000000000
 11
209.5367
 21
167.049199999999980
  0
LINE
  8
PT2-Linie_przekr3
  6
CONTINUOUS
 62
     7
 10
209.5367
 20
167.049199999999980
 11
211.0655
 21
168.050000000000010
  0
LINE
  8
PT2-Linie_przekr3
  6
CONTINUOUS
 62
     7
 10
211.0655
 20
168.050000000000010
 11
212.1688
 21
166.370099999999980
  0
LINE
  8
PT2-Linie_przekr3
  6
CONTINUOUS
 62
     7
 10
212.1688
 20
166.370099999999980
 11
211.0655
 21
165.653599999999980
  0
LINE
  8
PT2-Linie_przekr3
  6
CONTINUOUS
 62
     7
 10
209.3245
 20
166.436399999999990
 11
209.5633
 21
166.591500000000000
  0
LINE
  8
PT2-Linie_przekr3
  6
CONTINUOUS
 62
     7
 10
210.2492
 20
166.320899999999990
 11
210.5023
 21
165.932599999999980
  0
LINE
  8
PT2-Linie_przekr3
  6
CONTINUOUS
 62
     7
 10
210.5023
 20
165.932599999999980
 11
210.7733
 21
166.103500000000000
  0
LINE
  8
PT2-Linie_przekr3
  6
CONTINUOUS
 62
     7
 10
210.7733
 20
166.103500000000000
 11
211.0885
 21
165.603999999999980
  0
LINE
  8
PT2-Linie_przekr3
  6
CONTINUOUS
 62
     7
 10
211.0885
 20
165.603999999999980
 11
210.8345
 21
165.433100000000000
  0
LINE
  8
PT2-Linie_przekr3
  6
CONTINUOUS
 62
     7
 10
210.8345
 20
165.433100000000000
 11
210.5023
 21
165.932599999999980
  0
LINE
  8
PT2-Linie_przekr3
  6
CONTINUOUS
 62
     7
 10
210.5023
 20
165.932599999999980
 11
211.0885
 21
166.318299999999990
  0
LINE
  8
PT2-Linie_przekr3
  6
CONTINUOUS
 62
     7
 10
210.2981
 20
167.541100000000000
 11
210.937
 21
166.557199999999990
  0
LINE
  8
PT2-Linie_przekr3
  6
CONTINUOUS
 62
     7
 10
210.8345
 20
165.433100000000000
 11
211.0365
 21
165.130900000000000
  0
LINE
  8
PT2-Linie_przekr3
  6
CONTINUOUS
 62
     7
 10
211.0365
 20
165.130900000000000
 11
211.2958
 21
165.299300000000020
  0
LINE
  8
PT2-Linie_przekr3
  6
CONTINUOUS
 62
     7
 10
211.2958
 20
165.299300000000020
 11
211.0885
 21
165.603999999999980
  0
LINE
  8
PT2-Linie_przekr3
  6
CONTINUOUS
 62
     7
 10
211.0885
 20
168.033500000000000
 11
211.1252
 21
168.057300000000000
  0
LINE
  8
PT2-Linie_przekr3
  6
CONTINUOUS
 62
     7
 10
211.1801
 20
165.477399999999990
 11
211.2958
 21
165.299300000000020
  0
LINE
  8
PT2-Linie_przekr3
  6
CONTINUOUS
 62
     7
 10
335.0291
 20
219.074999999999990
 11
367.9034
 21
197.726000000000000
  0
LINE
  8
PT2-Linie_przekr3
  6
CONTINUOUS
 62
     7
 10
328.5463
 20
223.285000000000000
 11
331.3553
 21
221.460700000000000
  0
LINE
  8
PT2-Linie_przekr3
  6
CONTINUOUS
 62
     7
 10
314.418
 20
233.460000000000010
 11
367.9034
 21
198.726000000000000
  0
LINE
  8
PT2-Linie_przekr3
  6
CONTINUOUS
 62
     7
 10
314.418
 20
233.460000000000010
 11
331.3553
 21
222.460700000000000
  0
LINE
  8
PT2-Linie_przekr3
  6
CONTINUOUS
 62
     7
 10
260.5092
 20
197.451200000000000
 11
269.4502
 21
203.257499999999990
  0
LINE
  8
PT2-Linie_przekr3
  6
CONTINUOUS
 62
     7
 10
244.1207
 20
186.808499999999980
 11
314.418
 21
232.460000000000010
  0
LINE
  8
PT2-Linie_przekr3
  6
CONTINUOUS
 62
     7
 10
314.418
 20
232.460000000000010
 11
314.418
 21
232.860000000000010
  0
LINE
  8
PT2-Linie_przekr3
  6
CONTINUOUS
 62
     7
 10
314.418
 20
232.860000000000010
 11
367.9034
 21
198.126100000000010
  0
LINE
  8
PT2-Linie_przekr3
  6
CONTINUOUS
 62
     7
 10
236.8218
 20
182.068400000000000
 11
238.5268
 21
183.175700000000010
  0
LINE
  8
PT2-Linie_przekr3
  6
CONTINUOUS
 62
     7
 10
236.7627
 20
182.341600000000000
 11
236.905
 21
182.122500000000000
  0
LINE
  8
PT2-Linie_przekr3
  6
CONTINUOUS
 62
     7
 10
236.7627
 20
182.432300000000000
 11
314.418
 21
232.860000000000010
  0
LINE
  8
PT2-Linie_przekr3
  6
CONTINUOUS
 62
     7
 10
314.418
 20
232.860000000000010
 11
314.418
 21
233.460000000000010
  0
LINE
  8
PT2-Linie_przekr3
  6
CONTINUOUS
 62
     7
 10
314.418
 20
233.460000000000010
 11
260.1919
 21
198.245200000000010
  0
LINE
  8
PT2-Linie_przekr3
  6
CONTINUOUS
 62
     7
 10
236.4921
 20
182.854400000000000
 11
314.418
 21
233.460000000000010
  0
LINE
  8
PT2-Linie_przekr3
  6
CONTINUOUS
 62
     7
 10
314.418
 20
233.460000000000010
 11
243.7065
 21
187.539500000000000
  0
LINE
  8
PT2-Linie_przekr3
  6
CONTINUOUS
 62
     7
 10
236.37
 20
182.775100000000010
 11
236.414
 21
182.803600000000020
  0
LINE
  8
PT2-Linie_przekr3
  6
CONTINUOUS
 62
     7
 10
236.8218
 20
182.068400000000000
 11
236.8708
 21
182.100300000000000
  0
LINE
  8
PT2-Linie_przekr3
  6
CONTINUOUS
 62
     7
 10
217.3567
 20
169.427700000000020
 11
236.8218
 21
182.068400000000000
  0
LINE
  8
PT2-Linie_przekr3
  6
CONTINUOUS
 62
     7
 10
236.8218
 20
182.068400000000000
 11
236.6795
 21
182.287600000000000
  0
LINE
  8
PT2-Linie_przekr3
  6
CONTINUOUS
 62
     7
 10
217.307
 20
169.395899999999980
 11
217.3567
 21
169.427700000000020
  0
LINE
  8
PT2-Linie_przekr3
  6
CONTINUOUS
 62
     7
 10
216.851
 20
170.099300000000000
 11
216.8945
 21
170.127500000000000
  0
LINE
  8
PT2-Linie_przekr3
  6
CONTINUOUS
 62
     7
 10
216.8168
 20
170.077000000000000
 11
217.2736
 21
169.373699999999990
  0
LINE
  8
PT2-Linie_przekr3
  6
CONTINUOUS
 62
     7
 10
212.2671
 20
166.122500000000000
 11
213.5458
 21
166.952800000000000
  0
LINE
  8
PT2-Linie_przekr3
  6
CONTINUOUS
 62
     7
 10
212.1248
 20
166.341600000000000
 11
212.2671
 21
166.122500000000000
  0
LINE
  8
PT2-Linie_przekr3
  6
CONTINUOUS
 62
     7
 10
212.2671
 20
166.122500000000000
 11
212.1839
 21
166.068400000000000
  0
LINE
  8
PT2-Linie_przekr3
  6
CONTINUOUS
 62
     7
 10
212.1839
 20
166.068400000000000
 11
217.3567
 21
169.427700000000020
  0
LINE
  8
PT2-Linie_przekr3
  6
CONTINUOUS
 62
     7
 10
217.3567
 20
169.427700000000020
 11
217.2144
 21
169.646799999999980
  0
LINE
  8
PT2-Linie_przekr3
  6
CONTINUOUS
 62
     7
 10
211.8543
 20
166.854400000000000
 11
216.8168
 21
170.081400000000000
  0
LINE
  8
PT2-Linie_przekr3
  6
CONTINUOUS
 62
     7
 10
216.8168
 20
170.081400000000000
 11
216.8168
 21
170.077000000000000
  0
LINE
  8
PT2-Linie_przekr3
  6
CONTINUOUS
 62
     7
 10
216.8168
 20
170.077000000000000
 11
211.8543
 21
166.854400000000000
  0
LINE
  8
PT2-Linie_przekr3
  6
CONTINUOUS
 62
     7
 10
211.7322
 20
166.775100000000010
 11
211.7761
 21
166.803600000000020
  0
LINE
  8
PT2-Linie_przekr3
  6
CONTINUOUS
 62
     7
 10
212.1839
 20
166.068400000000000
 11
212.2329
 21
166.100300000000000
  0
LINE
  8
PT2-Linie_przekr3
  6
CONTINUOUS
 62
     7
 10
192.7189
 20
153.427700000000020
 11
212.1839
 21
166.068400000000000
  0
LINE
  8
PT2-Linie_przekr3
  6
CONTINUOUS
 62
     7
 10
212.1839
 20
166.068400000000000
 11
212.0416
 21
166.287499999999990
  0
LINE
  8
PT2-Linie_przekr3
  6
CONTINUOUS
 62
     7
 10
192.67
 20
153.395899999999980
 11
192.7189
 21
153.427700000000020
  0
LINE
  8
PT2-Krawędzie_pr2
  6
CONTINUOUS
 62
     7
 10
192.7189
 20
153.427700000000020
 11
194.5706
 21
150.576200000000000
  0
LINE
  8
PT2-Linie_przekr3
  6
CONTINUOUS
 62
     7
 10
192.6357
 20
153.373699999999990
 11
192.6949
 21
153.412100000000010
  0
LINE
  8
PT2-Linie_przekr3
  6
CONTINUOUS
 62
     7
 10
192.2132
 20
154.099300000000000
 11
192.2566
 21
154.127500000000000
  0
LINE
  8
PT2-Linie_przekr3
  6
CONTINUOUS
 62
     7
 10
187.4331
 20
149.995000000000000
 11
192.7189
 21
153.427700000000020
  0
LINE
  8
PT2-Linie_przekr3
  6
CONTINUOUS
 62
     7
 10
192.7189
 20
153.427700000000020
 11
192.5766
 21
153.646799999999980
  0
LINE
  8
PT2-Linie_przekr3
  6
CONTINUOUS
 62
     7
 10
179.6382
 20
144.932999999999990
 11
192.6357
 21
153.373699999999990
  0
LINE
  8
PT2-Linie_przekr3
  6
CONTINUOUS
 62
     7
 10
192.6357
 20
153.373699999999990
 11
192.1789
 21
154.077000000000000
  0
LINE
  8
PT2-Linie_przekr3
  6
CONTINUOUS
 62
     7
 10
179.4096
 20
145.784600000000010
 11
192.1789
 21
154.077000000000000
  0
LINE
  8
PT2-Linie_przekr3
  6
CONTINUOUS
 62
     7
 10
192.1789
 20
154.077000000000000
 11
192.1789
 21
154.081400000000000
  0
LINE
  8
PT2-Linie_przekr3
  6
CONTINUOUS
 62
     7
 10
175.7979
 20
143.439100000000000
 11
192.1789
 21
154.081400000000000
  0
LINE
  8
PT2-Linie_przekr3
  6
CONTINUOUS
 62
     7
 10
192.1789
 20
154.081400000000000
 11
187.0688
 21
150.758500000000000
  0
LINE
  8
PT2-Linie_przekr3
  6
CONTINUOUS
 62
     7
 10
160.3995
 20
132.439300000000000
 11
180.3749
 21
145.411400000000010
  0
LINE
  8
PT2-Linie_przekr3
  6
CONTINUOUS
 62
     7
 10
160.3247
 20
133.390700000000010
 11
192.1789
 21
154.081400000000000
  0
LINE
  8
PT2-Linie_przekr3
  6
CONTINUOUS
 62
     7
 10
192.1789
 20
154.081400000000000
 11
175.7589
 21
143.413700000000010
  0
LINE
  8
PT2-Linie_przekr3
  6
CONTINUOUS
 62
     7
 10
153.1
 20
128.698900000000010
 11
192.1789
 21
154.081400000000000
  0
LINE
  8
PT2-Linie_przekr3
  6
CONTINUOUS
 62
     7
 10
192.1789
 20
154.081400000000000
 11
157.1404
 21
131.322700000000000
  0
LINE
  8
PT2-Linie_przekr3
  6
CONTINUOUS
 62
     7
 10
152.9633
 20
127.610099999999990
 11
153.3121
 21
127.836600000000000
  0
LINE
  8
PT2-Linie_przekr3
  6
CONTINUOUS
 62
     7
 10
146.4802
 20
124.399900000000000
 11
153.4732
 21
128.941200000000010
  0
LINE
  8
PT2-Krawędzie_pr2
  6
CONTINUOUS
 62
     7
 10
163.418
 20
131.060800000000000
 11
194.2438
 21
151.079400000000020
  0
LINE
  8
PT2-Linie_przekr3
  6
CONTINUOUS
 62
     7
 10
145.8179
 20
122.969900000000000
 11
192.7189
 21
153.427700000000020
  0
LINE
  8
PT2-Linie_przekr3
  6
CONTINUOUS
 62
     7
 10
192.7189
 20
153.427700000000020
 11
190.7149
 21
152.126300000000010
  0
LINE
  8
PT2-Linie_przekr3
  6
CONTINUOUS
 62
     7
 10
174.3837
 20
141.520700000000010
 11
190.0631
 21
151.703000000000000
  0
LINE
  8
PT2-Linie_przekr3
  6
CONTINUOUS
 62
     7
 10
324.118
 20
221.694799999999990
 11
324.118
 21
179.080899999999990
  0
LINE
  8
PT2-Linie_przekr3
  6
CONTINUOUS
 62
     7
 10
322.7179
 20
222.603999999999980
 11
324.118
 21
221.694799999999990
  0
LINE
  8
PT2-Linie_przekr3
  6
CONTINUOUS
 62
     7
 10
324.118
 20
221.694799999999990
 11
324.118
 21
221.903700000000010
  0
LINE
  8
PT2-Linie_przekr3
  6
CONTINUOUS
 62
     7
 10
322.7179
 20
222.812900000000010
 11
324.118
 21
221.903700000000010
  0
LINE
  8
PT2-Linie_przekr3
  6
CONTINUOUS
 62
     7
 10
324.118
 20
221.903700000000010
 11
324.118
 21
222.620399999999990
  0
LINE
  8
PT2-Linie_przekr3
  6
CONTINUOUS
 62
     7
 10
322.7179
 20
223.529600000000020
 11
322.7179
 21
179.080899999999990
  0
LINE
  8
PT2-Linie_przekr3
  6
CONTINUOUS
 62
     7
 10
315.8322
 20
231.541600000000020
 11
314.418
 21
232.460000000000010
  0
LINE
  8
PT2-Linie_przekr3
  6
CONTINUOUS
 62
     7
 10
314.3406
 20
229.071100000000000
 11
367.9034
 21
194.372200000000020
  0
LINE
  8
PT2-Linie_przekr3
  6
CONTINUOUS
 62
     7
 10
314.418
 20
232.460000000000010
 11
367.9034
 21
197.726000000000000
  0
LINE
  8
PT2-Linie_przekr3
  6
CONTINUOUS
 62
     7
 10
314.418
 20
232.460000000000010
 11
314.418
 21
229.121399999999990
  0
LINE
  8
PT2-Linie_przekr3
  6
CONTINUOUS
 62
     7
 10
314.418
 20
229.121399999999990
 11
314.5857
 21
228.912399999999990
  0
LINE
  8
PT2-Linie_przekr3
  6
CONTINUOUS
 62
     7
 10
306.1179
 20
222.603999999999980
 11
306.1179
 21
179.080899999999990
  0
LINE
  8
PT2-Linie_przekr3
  6
CONTINUOUS
 62
     7
 10
304.718
 20
221.694799999999990
 11
306.1179
 21
222.603999999999980
  0
LINE
  8
PT2-Linie_przekr3
  6
CONTINUOUS
 62
     7
 10
306.1179
 20
222.603999999999980
 11
306.1179
 21
222.812900000000010
  0
LINE
  8
PT2-Linie_przekr3
  6
CONTINUOUS
 62
     7
 10
304.718
 20
221.903700000000010
 11
306.1179
 21
222.812900000000010
  0
LINE
  8
PT2-Linie_przekr3
  6
CONTINUOUS
 62
     7
 10
306.1179
 20
222.812900000000010
 11
306.1179
 21
223.529600000000020
  0
LINE
  8
PT2-Linie_przekr3
  6
CONTINUOUS
 62
     7
 10
314.418
 20
228.919700000000010
 11
314.418
 21
229.121399999999990
  0
LINE
  8
PT2-Linie_przekr3
  6
CONTINUOUS
 62
     7
 10
304.718
 20
222.620399999999990
 11
304.718
 21
179.080899999999990
  0
LINE
  8
PT2-Linie_przekr3
  6
CONTINUOUS
 62
     7
 10
238.3468
 20
179.720200000000010
 11
314.3406
 21
229.071100000000000
  0
LINE
  8
PT2-Linie_przekr3
  6
CONTINUOUS
 62
     7
 10
237.7436
 20
182.667100000000000
 11
237.771
 21
182.684900000000000
  0
LINE
  8
PT2-Linie_przekr3
  6
CONTINUOUS
 62
     7
 10
236.8218
 20
182.068500000000000
 11
314.418
 21
232.460000000000010
  0
LINE
  8
PT2-Linie_przekr3
  6
CONTINUOUS
 62
     7
 10
314.418
 20
232.460000000000010
 11
236.8218
 21
182.068500000000000
  0
LINE
  8
PT2-Linie_przekr3
  6
CONTINUOUS
 62
     7
 10
236.8218
 20
182.068500000000000
 11
256.2037
 21
194.655199999999980
  0
LINE
  8
PT2-Linie_przekr3
  6
CONTINUOUS
 62
     7
 10
217.9204
 20
166.455100000000020
 11
217.9599
 21
166.480799999999990
  0
LINE
  8
PT2-Linie_przekr3
  6
CONTINUOUS
 62
     7
 10
213.9068
 20
167.187299999999990
 11
214.2799
 21
167.429599999999990
  0
LINE
  8
PT2-Krawędzie_pr2
  6
CONTINUOUS
 62
     7
 10
213.7089
 20
163.720200000000010
 11
218.8817
 21
167.079400000000020
  0
LINE
  8
PT2-Linie_przekr3
  6
CONTINUOUS
 62
     7
 10
212.1839
 20
166.068400000000000
 11
217.3567
 21
169.427700000000020
  0
LINE
  8
PT2-Linie_przekr3
  6
CONTINUOUS
 62
     7
 10
190.9773
 20
152.296699999999990
 11
190.6229
 21
152.066500000000020
  0
LINE
  8
PT2-Linie_przekr3
  6
CONTINUOUS
 62
     7
 10
190.6229
 20
152.066500000000020
 11
145.8179
 21
122.969900000000000
  0
LINE
  8
PT2-Linie_przekr3
  6
CONTINUOUS
 62
     7
 10
216.0439
 20
171.276999999999990
 11
217.1314
 21
169.602300000000010
  0
LINE
  8
PT2-Linie_przekr3
  6
CONTINUOUS
 62
     7
 10
217.1314
 20
169.602300000000010
 11
217.1314
 21
169.597100000000010
  0
LINE
  8
PT2-Linie_przekr3
  6
CONTINUOUS
 62
     7
 10
217.1314
 20
169.597100000000010
 11
216.0439
 21
171.276999999999990
  0
LINE
  8
PT2-Linie_przekr3
  6
CONTINUOUS
 62
     7
 10
215.945
 20
171.245999999999980
 11
225.82
 21
177.655800000000000
  0
LINE
  8
PT2-Linie_przekr3
  6
CONTINUOUS
 62
     7
 10
225.82
 20
177.655800000000000
 11
217.5466
 21
172.283000000000020
  0
LINE
  8
PT2-Linie_przekr3
  6
CONTINUOUS
 62
     7
 10
217.5466
 20
172.283000000000020
 11
217.5614
 21
172.260400000000000
  0
LINE
  8
PT2-Linie_przekr3
  6
CONTINUOUS
 62
     7
 10
215.8471
 20
171.404000000000000
 11
215.945
 21
171.245999999999980
  0
LINE
  8
PT2-Linie_przekr3
  6
CONTINUOUS
 62
     7
 10
215.945
 20
171.245999999999980
 11
215.945
 21
171.250499999999990
  0
LINE
  8
PT2-Linie_przekr3
  6
CONTINUOUS
 62
     7
 10
215.945
 20
171.250499999999990
 11
215.9914
 21
171.196900000000000
  0
LINE
  8
PT2-Linie_przekr3
  6
CONTINUOUS
 62
     7
 10
215.9914
 20
171.196900000000000
 11
216.064
 21
171.244000000000000
  0
LINE
  8
PT2-Linie_przekr3
  6
CONTINUOUS
 62
     7
 10
235.7263
 20
184.033500000000000
 11
235.763
 21
184.057300000000000
  0
LINE
  8
PT2-Linie_przekr3
  6
CONTINUOUS
 62
     7
 10
235.763
 20
184.057300000000000
 11
235.4395
 21
184.555499999999990
  0
LINE
  8
PT2-Linie_przekr3
  6
CONTINUOUS
 62
     7
 10
235.4395
 20
184.555499999999990
 11
233.8617
 21
183.530900000000000
  0
LINE
  8
PT2-Linie_przekr3
  6
CONTINUOUS
 62
     7
 10
233.8617
 20
183.530900000000000
 11
234.1745
 21
183.049199999999980
  0
LINE
  8
PT2-Linie_przekr3
  6
CONTINUOUS
 62
     7
 10
225.7173
 20
177.813800000000010
 11
225.8346
 21
177.633199999999990
  0
LINE
  8
PT2-Linie_przekr3
  6
CONTINUOUS
 62
     7
 10
216.3244
 20
171.457200000000000
 11
216.8247
 21
171.782100000000010
  0
POLYLINE
  8
PT2-Kreskowanie4
  6
CONTINUOUS
 62
     7
 66
     1
 70
     1
  0
VERTEX
  8
PT2-Kreskowanie4
 10
193.5224
 20
155.458900000000000
  0
VERTEX
  8
PT2-Kreskowanie4
 10
193.1668
 20
156.418499999999990
  0
VERTEX
  8
PT2-Kreskowanie4
 10
192.2298
 20
155.809900000000000
  0
VERTEX
  8
PT2-Kreskowanie4
 10
192.7735
 20
154.972600000000000
  0
VERTEX
  8
PT2-Kreskowanie4
 10
193.2143
 20
155.258800000000010
  0
SEQEND
  8
PT2-Kreskowanie4
  0
POLYLINE
  8
PT2-Kreskowanie4
  6
CONTINUOUS
 62
     7
 66
     1
 70
     1
  0
VERTEX
  8
PT2-Kreskowanie4
 10
211.1252
 20
168.057300000000000
  0
VERTEX
  8
PT2-Kreskowanie4
 10
210.8016
 20
168.555499999999990
  0
VERTEX
  8
PT2-Kreskowanie4
 10
209.2238
 20
167.530900000000000
  0
VERTEX
  8
PT2-Kreskowanie4
 10
209.5474
 20
167.032700000000010
  0
SEQEND
  8
PT2-Kreskowanie4
  0
POLYLINE
  8
PT2-Kreskowanie4
  6
CONTINUOUS
 62
     7
 66
     1
 70
     1
  0
VERTEX
  8
PT2-Kreskowanie4
 10
191.3536
 20
155.197000000000000
  0
VERTEX
  8
PT2-Kreskowanie4
 10
192.9436
 20
156.229500000000000
  0
VERTEX
  8
PT2-Kreskowanie4
 10
192.8239
 20
156.413799999999980
  0
VERTEX
  8
PT2-Kreskowanie4
 10
191.2339
 20
155.381300000000010
  0
VERTEX
  8
PT2-Kreskowanie4
 10
191.3055
 20
155.271099999999990
  0
SEQEND
  8
PT2-Kreskowanie4
  0
POLYLINE
  8
PT2-Kreskowanie4
  6
CONTINUOUS
 62
     7
 66
     1
 70
     1
  0
VERTEX
  8
PT2-Kreskowanie4
 10
211.0995
 20
165.601299999999980
  0
VERTEX
  8
PT2-Kreskowanie4
 10
210.8402
 20
165.432999999999990
  0
VERTEX
  8
PT2-Kreskowanie4
 10
211.0364
 20
165.130900000000000
  0
VERTEX
  8
PT2-Kreskowanie4
 10
211.2957
 20
165.299300000000020
  0
SEQEND
  8
PT2-Kreskowanie4
  0
LINE
  8
PT2-Krawędzie_pr2
  6
CONTINUOUS
 62
     7
 10
192.7735
 20
154.972600000000000
 11
193.5224
 21
155.458900000000000
  0
LINE
  8
PT2-Krawędzie_pr2
  6
CONTINUOUS
 62
     7
 10
192.2298
 20
155.809900000000000
 11
192.7735
 21
154.972600000000000
  0
LINE
  8
PT2-Krawędzie_pr2
  6
CONTINUOUS
 62
     7
 10
193.1668
 20
156.418499999999990
 11
192.2298
 21
155.809900000000000
  0
LINE
  8
PT2-Krawędzie_pr2
  6
CONTINUOUS
 62
     7
 10
193.5224
 20
155.458900000000000
 11
193.1668
 21
156.418499999999990
  0
LINE
  8
PT2-Krawędzie_pr2
  6
CONTINUOUS
 62
     7
 10
209.5474
 20
167.032700000000010
 11
211.1252
 21
168.057300000000000
  0
LINE
  8
PT2-Krawędzie_pr2
  6
CONTINUOUS
 62
     7
 10
209.2238
 20
167.530900000000000
 11
209.5474
 21
167.032700000000010
  0
LINE
  8
PT2-Krawędzie_pr2
  6
CONTINUOUS
 62
     7
 10
210.8016
 20
168.555499999999990
 11
209.2238
 21
167.530900000000000
  0
LINE
  8
PT2-Krawędzie_pr2
  6
CONTINUOUS
 62
     7
 10
211.1252
 20
168.057300000000000
 11
210.8016
 21
168.555499999999990
  0
LINE
  8
PT2-Krawędzie_pr2
  6
CONTINUOUS
 62
     7
 10
191.2339
 20
155.381300000000010
 11
191.3536
 21
155.197000000000000
  0
LINE
  8
PT2-Krawędzie_pr2
  6
CONTINUOUS
 62
     7
 10
192.8239
 20
156.413799999999980
 11
191.2339
 21
155.381300000000010
  0
LINE
  8
PT2-Krawędzie_pr2
  6
CONTINUOUS
 62
     7
 10
192.9436
 20
156.229500000000000
 11
192.8239
 21
156.413799999999980
  0
LINE
  8
PT2-Krawędzie_pr2
  6
CONTINUOUS
 62
     7
 10
191.3536
 20
155.197000000000000
 11
192.9436
 21
156.229500000000000
  0
LINE
  8
PT2-Krawędzie_pr2
  6
CONTINUOUS
 62
     7
 10
211.2957
 20
165.299300000000020
 11
211.0995
 21
165.601299999999980
  0
LINE
  8
PT2-Krawędzie_pr2
  6
CONTINUOUS
 62
     7
 10
211.0364
 20
165.130900000000000
 11
211.2957
 21
165.299300000000020
  0
LINE
  8
PT2-Krawędzie_pr2
  6
CONTINUOUS
 62
     7
 10
210.8402
 20
165.432999999999990
 11
211.0364
 21
165.130900000000000
  0
LINE
  8
PT2-Krawędzie_pr2
  6
CONTINUOUS
 62
     7
 10
211.0995
 20
165.601299999999980
 11
210.8402
 21
165.432999999999990
  0
LINE
  8
PT2-Krawędzie_pr2
  6
CONTINUOUS
 62
     7
 10
212.1653
 20
166.375299999999980
 11
211.0778
 21
168.050000000000010
  0
LINE
  8
PT2-Krawędzie_pr2
  6
CONTINUOUS
 62
     7
 10
211.3844
 20
165.868200000000000
 11
212.1653
 21
166.375299999999980
  0
LINE
  8
PT2-Krawędzie_pr2
  6
CONTINUOUS
 62
     7
 10
210.2969
 20
167.542800000000000
 11
211.3844
 21
165.868200000000000
  0
LINE
  8
PT2-Krawędzie_pr2
  6
CONTINUOUS
 62
     7
 10
191.406
 20
155.275000000000010
 11
191.8656
 21
155.573399999999990
  0
LINE
  8
PT2-Krawędzie_pr2
  6
CONTINUOUS
 62
     7
 10
192.4935
 20
153.600300000000000
 11
191.406
 21
155.275000000000010
  0
LINE
  8
PT2-Krawędzie_pr2
  6
CONTINUOUS
 62
     7
 10
193.2744
 20
154.107399999999980
 11
192.4935
 21
153.600300000000000
  0
LINE
  8
PT2-Krawędzie_pr2
  6
CONTINUOUS
 62
     7
 10
192.1869
 20
155.782100000000010
 11
193.2744
 21
154.107399999999980
  0
LINE
  8
PT2-Krawędzie_pr2
  6
CONTINUOUS
 62
     7
 10
209.7731
 20
166.012200000000010
 11
210.5096
 21
166.490500000000000
  0
LINE
  8
PT2-Krawędzie_pr2
  6
CONTINUOUS
 62
     7
 10
209.0288
 20
166.719300000000000
 11
209.7731
 21
166.012200000000010
  0
LINE
  8
PT2-Krawędzie_pr2
  6
CONTINUOUS
 62
     7
 10
209.9658
 20
167.327900000000000
 11
209.0288
 21
166.719300000000000
  0
LINE
  8
PT2-Krawędzie_pr2
  6
CONTINUOUS
 62
     7
 10
210.5022
 20
165.931299999999990
 11
211.0982
 21
166.318299999999990
  0
LINE
  8
PT2-Krawędzie_pr2
  6
CONTINUOUS
 62
     7
 10
210.2492
 20
166.321000000000000
 11
210.5022
 21
165.931299999999990
  0
LINE
  8
PT2-Krawędzie_pr2
  6
CONTINUOUS
 62
     7
 10
192.9643
 20
155.812000000000010
 11
209.5633
 21
166.591500000000000
  0
LINE
  8
PT2-Krawędzie_pr2
  6
CONTINUOUS
 62
     7
 10
209.3464
 20
166.925600000000000
 11
192.7473
 21
156.146000000000020
  0
LINE
  8
PT2-Krawędzie_pr2
  6
CONTINUOUS
 62
     7
 10
209.4338
 20
166.790899999999990
 11
209.3464
 21
166.925600000000000
  0
POLYLINE
  8
PT2-Kreskowanie4
  6
CONTINUOUS
 62
     7
 66
     1
 70
     1
  0
VERTEX
  8
PT2-Kreskowanie4
 10
218.1602
 20
171.458900000000000
  0
VERTEX
  8
PT2-Kreskowanie4
 10
217.8047
 20
172.418499999999990
  0
VERTEX
  8
PT2-Kreskowanie4
 10
216.8676
 20
171.809900000000000
  0
VERTEX
  8
PT2-Kreskowanie4
 10
217.4114
 20
170.972600000000000
  0
VERTEX
  8
PT2-Kreskowanie4
 10
217.8521
 20
171.258800000000010
  0
SEQEND
  8
PT2-Kreskowanie4
  0
POLYLINE
  8
PT2-Kreskowanie4
  6
CONTINUOUS
 62
     7
 66
     1
 70
     1
  0
VERTEX
  8
PT2-Kreskowanie4
 10
235.763
 20
184.057300000000000
  0
VERTEX
  8
PT2-Kreskowanie4
 10
235.4395
 20
184.555499999999990
  0
VERTEX
  8
PT2-Kreskowanie4
 10
233.8617
 20
183.530900000000000
  0
VERTEX
  8
PT2-Kreskowanie4
 10
234.1852
 20
183.032700000000010
  0
SEQEND
  8
PT2-Kreskowanie4
  0
POLYLINE
  8
PT2-Kreskowanie4
  6
CONTINUOUS
 62
     7
 66
     1
 70
     1
  0
VERTEX
  8
PT2-Kreskowanie4
 10
215.9915
 20
171.197000000000000
  0
VERTEX
  8
PT2-Kreskowanie4
 10
217.5814
 20
172.229500000000000
  0
VERTEX
  8
PT2-Kreskowanie4
 10
217.4617
 20
172.413799999999980
  0
VERTEX
  8
PT2-Kreskowanie4
 10
215.8718
 20
171.381300000000010
  0
VERTEX
  8
PT2-Kreskowanie4
 10
215.9433
 20
171.271099999999990
  0
SEQEND
  8
PT2-Kreskowanie4
  0
POLYLINE
  8
PT2-Kreskowanie4
  6
CONTINUOUS
 62
     7
 66
     1
 70
     1
  0
VERTEX
  8
PT2-Kreskowanie4
 10
235.7374
 20
181.601299999999980
  0
VERTEX
  8
PT2-Kreskowanie4
 10
235.4781
 20
181.432999999999990
  0
VERTEX
  8
PT2-Kreskowanie4
 10
235.6743
 20
181.130900000000000
  0
VERTEX
  8
PT2-Kreskowanie4
 10
235.9336
 20
181.299300000000020
  0
SEQEND
  8
PT2-Kreskowanie4
  0
LINE
  8
PT2-Krawędzie_pr2
  6
CONTINUOUS
 62
     7
 10
217.4114
 20
170.972600000000000
 11
218.1602
 21
171.458900000000000
  0
LINE
  8
PT2-Krawędzie_pr2
  6
CONTINUOUS
 62
     7
 10
216.8676
 20
171.809900000000000
 11
217.4114
 21
170.972600000000000
  0
LINE
  8
PT2-Krawędzie_pr2
  6
CONTINUOUS
 62
     7
 10
217.8047
 20
172.418499999999990
 11
216.8676
 21
171.809900000000000
  0
LINE
  8
PT2-Krawędzie_pr2
  6
CONTINUOUS
 62
     7
 10
218.1602
 20
171.458900000000000
 11
217.8047
 21
172.418499999999990
  0
LINE
  8
PT2-Krawędzie_pr2
  6
CONTINUOUS
 62
     7
 10
234.1852
 20
183.032700000000010
 11
235.763
 21
184.057300000000000
  0
LINE
  8
PT2-Krawędzie_pr2
  6
CONTINUOUS
 62
     7
 10
233.8617
 20
183.530900000000000
 11
234.1852
 21
183.032700000000010
  0
LINE
  8
PT2-Krawędzie_pr2
  6
CONTINUOUS
 62
     7
 10
235.4395
 20
184.555499999999990
 11
233.8617
 21
183.530900000000000
  0
LINE
  8
PT2-Krawędzie_pr2
  6
CONTINUOUS
 62
     7
 10
235.763
 20
184.057300000000000
 11
235.4395
 21
184.555499999999990
  0
LINE
  8
PT2-Krawędzie_pr2
  6
CONTINUOUS
 62
     7
 10
215.8718
 20
171.381300000000010
 11
215.9915
 21
171.197000000000000
  0
LINE
  8
PT2-Krawędzie_pr2
  6
CONTINUOUS
 62
     7
 10
217.4617
 20
172.413799999999980
 11
215.8718
 21
171.381300000000010
  0
LINE
  8
PT2-Krawędzie_pr2
  6
CONTINUOUS
 62
     7
 10
217.5814
 20
172.229500000000000
 11
217.4617
 21
172.413799999999980
  0
LINE
  8
PT2-Krawędzie_pr2
  6
CONTINUOUS
 62
     7
 10
215.9915
 20
171.197000000000000
 11
217.5814
 21
172.229500000000000
  0
LINE
  8
PT2-Krawędzie_pr2
  6
CONTINUOUS
 62
     7
 10
235.9336
 20
181.299300000000020
 11
235.7374
 21
181.601299999999980
  0
LINE
  8
PT2-Krawędzie_pr2
  6
CONTINUOUS
 62
     7
 10
235.6743
 20
181.130900000000000
 11
235.9336
 21
181.299300000000020
  0
LINE
  8
PT2-Krawędzie_pr2
  6
CONTINUOUS
 62
     7
 10
235.4781
 20
181.432999999999990
 11
235.6743
 21
181.130900000000000
  0
LINE
  8
PT2-Krawędzie_pr2
  6
CONTINUOUS
 62
     7
 10
235.7374
 20
181.601299999999980
 11
235.4781
 21
181.432999999999990
  0
LINE
  8
PT2-Krawędzie_pr2
  6
CONTINUOUS
 62
     7
 10
236.8032
 20
182.375299999999980
 11
235.7156
 21
184.050000000000010
  0
LINE
  8
PT2-Krawędzie_pr2
  6
CONTINUOUS
 62
     7
 10
236.0223
 20
181.868200000000000
 11
236.8032
 21
182.375299999999980
  0
LINE
  8
PT2-Krawędzie_pr2
  6
CONTINUOUS
 62
     7
 10
234.9347
 20
183.542900000000000
 11
236.0223
 21
181.868200000000000
  0
LINE
  8
PT2-Krawędzie_pr2
  6
CONTINUOUS
 62
     7
 10
216.0438
 20
171.275000000000010
 11
216.5034
 21
171.573399999999990
  0
LINE
  8
PT2-Krawędzie_pr2
  6
CONTINUOUS
 62
     7
 10
217.1314
 20
169.600300000000000
 11
216.0438
 21
171.275000000000010
  0
LINE
  8
PT2-Krawędzie_pr2
  6
CONTINUOUS
 62
     7
 10
217.9123
 20
170.107399999999980
 11
217.1314
 21
169.600300000000000
  0
LINE
  8
PT2-Krawędzie_pr2
  6
CONTINUOUS
 62
     7
 10
216.8247
 20
171.782100000000010
 11
217.9123
 21
170.107399999999980
  0
LINE
  8
PT2-Krawędzie_pr2
  6
CONTINUOUS
 62
     7
 10
234.411
 20
182.012200000000010
 11
235.1475
 21
182.490500000000000
  0
LINE
  8
PT2-Krawędzie_pr2
  6
CONTINUOUS
 62
     7
 10
233.6666
 20
182.719300000000000
 11
234.411
 21
182.012200000000010
  0
LINE
  8
PT2-Krawędzie_pr2
  6
CONTINUOUS
 62
     7
 10
234.6037
 20
183.327900000000000
 11
233.6666
 21
182.719300000000000
  0
LINE
  8
PT2-Krawędzie_pr2
  6
CONTINUOUS
 62
     7
 10
235.1401
 20
181.931299999999990
 11
235.736
 21
182.318299999999990
  0
LINE
  8
PT2-Krawędzie_pr2
  6
CONTINUOUS
 62
     7
 10
234.887
 20
182.321000000000000
 11
235.1401
 21
181.931299999999990
  0
LINE
  8
PT2-Krawędzie_pr2
  6
CONTINUOUS
 62
     7
 10
217.6022
 20
171.812000000000010
 11
234.2012
 21
182.591500000000000
  0
LINE
  8
PT2-Krawędzie_pr2
  6
CONTINUOUS
 62
     7
 10
233.9842
 20
182.925600000000000
 11
217.3852
 21
172.146000000000020
  0
LINE
  8
PT2-Krawędzie_pr2
  6
CONTINUOUS
 62
     7
 10
234.0717
 20
182.790899999999990
 11
233.9842
 21
182.925600000000000
  0
POLYLINE
  8
PT2-Kreskowanie4
  6
CONTINUOUS
 62
     7
 66
     1
 70
     1
  0
VERTEX
  8
PT2-Kreskowanie4
 10
483.135
 20
122.710100000000010
  0
VERTEX
  8
PT2-Kreskowanie4
 10
481.7208
 20
121.295899999999990
  0
VERTEX
  8
PT2-Kreskowanie4
 10
481.7208
 20
121.013100000000010
  0
VERTEX
  8
PT2-Kreskowanie4
 10
483.4179
 20
122.710100000000010
  0
VERTEX
  8
PT2-Kreskowanie4
 10
483.2286
 20
122.710100000000010
  0
SEQEND
  8
PT2-Kreskowanie4
  0
POLYLINE
  8
PT2-Kreskowanie4
  6
CONTINUOUS
 62
     7
 66
     1
 70
     1
  0
VERTEX
  8
PT2-Kreskowanie4
 10
147.115
 20
121.100699999999990
  0
VERTEX
  8
PT2-Kreskowanie4
 10
147.115
 20
121.013100000000010
  0
VERTEX
  8
PT2-Kreskowanie4
 10
155.4179
 20
125.810100000000010
  0
VERTEX
  8
PT2-Kreskowanie4
 10
155.4179
 20
126.010099999999990
  0
VERTEX
  8
PT2-Kreskowanie4
 10
147.115
 20
121.213100000000000
  0
SEQEND
  8
PT2-Kreskowanie4
  0
POLYLINE
  8
PT2-Kreskowanie4
  6
CONTINUOUS
 62
     7
 66
     1
 70
     1
  0
VERTEX
  8
PT2-Kreskowanie4
 10
145.5407
 20
122.710100000000010
  0
VERTEX
  8
PT2-Kreskowanie4
 10
145.4179
 20
122.710100000000010
  0
VERTEX
  8
PT2-Kreskowanie4
 10
147.115
 20
121.013100000000010
  0
VERTEX
  8
PT2-Kreskowanie4
 10
147.115
 20
121.295899999999990
  0
VERTEX
  8
PT2-Kreskowanie4
 10
145.7008
 20
122.710100000000010
  0
SEQEND
  8
PT2-Kreskowanie4
  0
POLYLINE
  8
PT2-Kreskowanie4
  6
CONTINUOUS
 62
     7
 66
     1
 70
     1
  0
VERTEX
  8
PT2-Kreskowanie4
 10
486.0179
 20
122.910100000000000
  0
VERTEX
  8
PT2-Kreskowanie4
 10
485.8179
 20
122.910100000000000
  0
VERTEX
  8
PT2-Kreskowanie4
 10
485.525
 20
122.203000000000000
  0
VERTEX
  8
PT2-Kreskowanie4
 10
484.8179
 20
121.910100000000000
  0
VERTEX
  8
PT2-Kreskowanie4
 10
484.1108
 20
122.203000000000000
  0
VERTEX
  8
PT2-Kreskowanie4
 10
483.8179
 20
122.910100000000000
  0
VERTEX
  8
PT2-Kreskowanie4
 10
483.6179
 20
122.910100000000000
  0
VERTEX
  8
PT2-Kreskowanie4
 10
483.9694
 20
122.061600000000000
  0
VERTEX
  8
PT2-Kreskowanie4
 10
484.8179
 20
121.710100000000010
  0
VERTEX
  8
PT2-Kreskowanie4
 10
485.6665
 20
122.061600000000000
  0
SEQEND
  8
PT2-Kreskowanie4
  0
POLYLINE
  8
PT2-Kreskowanie4
  6
CONTINUOUS
 62
     7
 66
     1
 70
     1
  0
VERTEX
  8
PT2-Kreskowanie4
 10
143.1694
 20
122.061600000000000
  0
VERTEX
  8
PT2-Kreskowanie4
 10
144.0179
 20
121.710100000000010
  0
VERTEX
  8
PT2-Kreskowanie4
 10
144.8664
 20
122.061600000000000
  0
VERTEX
  8
PT2-Kreskowanie4
 10
145.2179
 20
122.910100000000000
  0
VERTEX
  8
PT2-Kreskowanie4
 10
145.0179
 20
122.910100000000000
  0
VERTEX
  8
PT2-Kreskowanie4
 10
144.725
 20
122.203000000000000
  0
VERTEX
  8
PT2-Kreskowanie4
 10
144.0179
 20
121.910100000000000
  0
VERTEX
  8
PT2-Kreskowanie4
 10
143.3108
 20
122.203000000000000
  0
VERTEX
  8
PT2-Kreskowanie4
 10
143.0179
 20
122.910100000000000
  0
VERTEX
  8
PT2-Kreskowanie4
 10
142.8179
 20
122.910100000000000
  0
SEQEND
  8
PT2-Kreskowanie4
  0
LINE
  8
PT2-Krawędzie_pr2
  6
CONTINUOUS
 62
     7
 10
147.115
 20
121.213100000000000
 11
147.115
 21
121.100699999999990
  0
LINE
  8
PT2-Krawędzie_pr2
  6
CONTINUOUS
 62
     7
 10
155.4179
 20
126.010099999999990
 11
147.115
 21
121.213100000000000
  0
LINE
  8
PT2-Krawędzie_pr2
  6
CONTINUOUS
 62
     7
 10
155.4179
 20
125.810100000000010
 11
155.4179
 21
126.010099999999990
  0
LINE
  8
PT2-Krawędzie_pr2
  6
CONTINUOUS
 62
     7
 10
147.115
 20
121.013100000000010
 11
155.4179
 21
125.810100000000010
  0
LINE
  8
PT2-Krawędzie_pr2
  6
CONTINUOUS
 62
     7
 10
147.115
 20
121.100699999999990
 11
147.115
 21
121.013100000000010
  0
LINE
  8
PT2-Krawędzie_pr2
  6
CONTINUOUS
 62
     7
 10
145.7008
 20
122.710100000000010
 11
145.5407
 21
122.710100000000010
  0
LINE
  8
PT2-Krawędzie_pr2
  6
CONTINUOUS
 62
     7
 10
147.115
 20
121.295899999999990
 11
145.7008
 21
122.710100000000010
  0
LINE
  8
PT2-Krawędzie_pr2
  6
CONTINUOUS
 62
     7
 10
147.115
 20
121.013100000000010
 11
147.115
 21
121.295899999999990
  0
LINE
  8
PT2-Krawędzie_pr2
  6
CONTINUOUS
 62
     7
 10
145.4179
 20
122.710100000000010
 11
147.115
 21
121.013100000000010
  0
LINE
  8
PT2-Krawędzie_pr2
  6
CONTINUOUS
 62
     7
 10
145.5407
 20
122.710100000000010
 11
145.4179
 21
122.710100000000010
  0
LINE
  8
PT2-Krawędzie_pr2
  6
CONTINUOUS
 62
     7
 10
142.8179
 20
122.910100000000000
 11
143.1694
 21
122.061600000000000
  0
LINE
  8
PT2-Krawędzie_pr2
  6
CONTINUOUS
 62
     7
 10
143.0179
 20
122.910100000000000
 11
142.8179
 21
122.910100000000000
  0
LINE
  8
PT2-Krawędzie_pr2
  6
CONTINUOUS
 62
     7
 10
143.3108
 20
122.203000000000000
 11
143.0179
 21
122.910100000000000
  0
LINE
  8
PT2-Krawędzie_pr2
  6
CONTINUOUS
 62
     7
 10
144.0179
 20
121.910100000000000
 11
143.3108
 21
122.203000000000000
  0
LINE
  8
PT2-Krawędzie_pr2
  6
CONTINUOUS
 62
     7
 10
144.725
 20
122.203000000000000
 11
144.0179
 21
121.910100000000000
  0
LINE
  8
PT2-Krawędzie_pr2
  6
CONTINUOUS
 62
     7
 10
145.0179
 20
122.910100000000000
 11
144.725
 21
122.203000000000000
  0
LINE
  8
PT2-Krawędzie_pr2
  6
CONTINUOUS
 62
     7
 10
145.2179
 20
122.910100000000000
 11
145.0179
 21
122.910100000000000
  0
LINE
  8
PT2-Krawędzie_pr2
  6
CONTINUOUS
 62
     7
 10
144.8664
 20
122.061600000000000
 11
145.2179
 21
122.910100000000000
  0
LINE
  8
PT2-Krawędzie_pr2
  6
CONTINUOUS
 62
     7
 10
144.0179
 20
121.710100000000010
 11
144.8664
 21
122.061600000000000
  0
LINE
  8
PT2-Krawędzie_pr2
  6
CONTINUOUS
 62
     7
 10
143.1694
 20
122.061600000000000
 11
144.0179
 21
121.710100000000010
  0
LINE
  8
PT2-Krawędzie_pr2
  6
CONTINUOUS
 62
     7
 10
314.4179
 20
233.460000000000010
 11
367.9034
 21
198.726100000000000
  0
LINE
  8
PT2-Krawędzie_pr2
  6
CONTINUOUS
 62
     7
 10
314.4179
 20
232.860000000000010
 11
314.4179
 21
233.460000000000010
  0
LINE
  8
PT2-Krawędzie_pr2
  6
CONTINUOUS
 62
     7
 10
314.4179
 20
233.460000000000010
 11
236.414
 21
182.803600000000020
  0
LINE
  8
PT2-Krawędzie_pr2
  6
CONTINUOUS
 62
     7
 10
314.4179
 20
232.860000000000010
 11
314.4179
 21
233.460000000000010
  0
LINE
  8
PT2-Krawędzie_pr2
  6
CONTINUOUS
 62
     7
 10
145.4179
 20
123.710100000000010
 11
192.2132
 21
154.099300000000000
  0
LINE
  8
PT2-Krawędzie_pr2
  6
CONTINUOUS
 62
     7
 10
145.4179
 20
123.110099999999990
 11
145.4179
 21
123.710100000000010
  0
LINE
  8
PT2-Krawędzie_pr2
  6
CONTINUOUS
 62
     7
 10
216.851
 20
170.099300000000000
 11
211.7761
 21
166.803600000000020
  0
LINE
  8
PT2-Krawędzie_pr2
  6
CONTINUOUS
 62
     7
 10
314.4179
 20
232.460000000000010
 11
367.9034
 21
197.726100000000000
  0
LINE
  8
PT2-Krawędzie_pr2
  6
CONTINUOUS
 62
     7
 10
314.4179
 20
232.860000000000010
 11
314.4179
 21
232.460000000000010
  0
LINE
  8
PT2-Krawędzie_pr2
  6
CONTINUOUS
 62
     7
 10
314.4179
 20
232.460000000000010
 11
236.8707
 21
182.100300000000000
  0
LINE
  8
PT2-Krawędzie_pr2
  6
CONTINUOUS
 62
     7
 10
314.4179
 20
232.860000000000010
 11
314.4179
 21
232.460000000000010
  0
LINE
  8
PT2-Krawędzie_pr2
  6
CONTINUOUS
 62
     7
 10
145.4179
 20
122.710100000000010
 11
192.6699
 21
153.395899999999980
  0
LINE
  8
PT2-Krawędzie_pr2
  6
CONTINUOUS
 62
     7
 10
145.4179
 20
123.110099999999990
 11
145.4179
 21
122.710100000000010
  0
LINE
  8
PT2-Krawędzie_pr2
  6
CONTINUOUS
 62
     7
 10
217.3078
 20
169.395899999999980
 11
212.2329
 21
166.100300000000000
  0
LINE
  8
PT2-Krawędzie_pr2
  6
CONTINUOUS
 62
     7
 10
212.2329
 20
166.100300000000000
 11
214.0847
 21
163.248800000000020
  0
LINE
  8
PT2-Krawędzie_pr2
  6
CONTINUOUS
 62
     7
 10
211.7761
 20
166.803600000000020
 11
212.2329
 21
166.100300000000000
  0
LINE
  8
PT2-Krawędzie_pr2
  6
CONTINUOUS
 62
     7
 10
192.2132
 20
154.099300000000000
 11
192.6699
 21
153.395899999999980
  0
LINE
  8
PT2-Krawędzie_pr2
  6
CONTINUOUS
 62
     7
 10
236.8707
 20
182.100300000000000
 11
237.627
 21
180.935700000000000
  0
LINE
  8
PT2-Krawędzie_pr2
  6
CONTINUOUS
 62
     7
 10
217.3078
 20
169.395899999999980
 11
219.1595
 21
166.544500000000000
  0
LINE
  8
PT2-Krawędzie_pr2
  6
CONTINUOUS
 62
     7
 10
236.414
 20
182.803600000000020
 11
236.8707
 21
182.100300000000000
  0
LINE
  8
PT2-Krawędzie_pr2
  6
CONTINUOUS
 62
     7
 10
216.851
 20
170.099300000000000
 11
217.3078
 21
169.395899999999980
  0
LINE
  8
PT2-Krawędzie_pr2
  6
CONTINUOUS
 62
     7
 10
214.6308
 20
164.318800000000010
 11
215.8049
 21
165.081300000000000
  0
LINE
  8
PT2-Krawędzie_pr2
  6
CONTINUOUS
 62
     7
 10
213.1058
 20
166.667100000000000
 11
214.6308
 21
164.318800000000010
  0
LINE
  8
PT2-Krawędzie_pr2
  6
CONTINUOUS
 62
     7
 10
214.2799
 20
167.429599999999990
 11
213.1058
 21
166.667100000000000
  0
LINE
  8
PT2-Krawędzie_pr2
  6
CONTINUOUS
 62
     7
 10
215.8049
 20
165.081300000000000
 11
214.2799
 21
167.429599999999990
  0
LINE
  8
PT2-Krawędzie_pr2
  6
CONTINUOUS
 62
     7
 10
190.6229
 20
152.066500000000020
 11
192.1478
 21
149.718300000000000
  0
LINE
  8
PT2-Krawędzie_pr2
  6
CONTINUOUS
 62
     7
 10
191.797
 20
152.829000000000010
 11
190.6229
 21
152.066500000000020
  0
LINE
  8
PT2-Krawędzie_pr2
  6
CONTINUOUS
 62
     7
 10
193.322
 20
150.480799999999990
 11
191.797
 21
152.829000000000010
  0
LINE
  8
PT2-Krawędzie_pr2
  6
CONTINUOUS
 62
     7
 10
239.2686
 20
180.318800000000010
 11
240.4427
 21
181.081300000000000
  0
LINE
  8
PT2-Krawędzie_pr2
  6
CONTINUOUS
 62
     7
 10
237.7436
 20
182.667100000000000
 11
239.2686
 21
180.318800000000010
  0
LINE
  8
PT2-Krawędzie_pr2
  6
CONTINUOUS
 62
     7
 10
238.9177
 20
183.429599999999990
 11
237.7436
 21
182.667100000000000
  0
LINE
  8
PT2-Krawędzie_pr2
  6
CONTINUOUS
 62
     7
 10
240.4427
 20
181.081300000000000
 11
238.9177
 21
183.429599999999990
  0
LINE
  8
PT2-Krawędzie_pr2
  6
CONTINUOUS
 62
     7
 10
216.7857
 20
165.718300000000000
 11
217.9598
 21
166.480799999999990
  0
LINE
  8
PT2-Krawędzie_pr2
  6
CONTINUOUS
 62
     7
 10
215.2607
 20
168.066500000000020
 11
216.7857
 21
165.718300000000000
  0
LINE
  8
PT2-Krawędzie_pr2
  6
CONTINUOUS
 62
     7
 10
216.4348
 20
168.829099999999980
 11
215.2607
 21
168.066500000000020
  0
LINE
  8
PT2-Krawędzie_pr2
  6
CONTINUOUS
 62
     7
 10
217.9598
 20
166.480799999999990
 11
216.4348
 21
168.829099999999980
  0
LINE
  8
PT2-Krawędzie_pr2
  6
CONTINUOUS
 62
     7
 10
160.599
 20
130.491899999999990
 11
160.599
 21
127.691900000000000
  0
LINE
  8
PT2-Krawędzie_pr2
  6
CONTINUOUS
 62
     7
 10
163.399
 20
130.491899999999990
 11
160.599
 21
130.491899999999990
  0
LINE
  8
PT2-Krawędzie_pr2
  6
CONTINUOUS
 62
     7
 10
163.399
 20
127.691900000000000
 11
163.399
 21
130.491899999999990
  0
LINE
  8
PT2-Krawędzie_pr2
  6
CONTINUOUS
 62
     7
 10
160.599
 20
127.691900000000000
 11
163.399
 21
127.691900000000000
  0
LINE
  8
PT2-Krawędzie_pr2
  6
CONTINUOUS
 62
     7
 10
238.227
 20
179.880900000000000
 11
238.227
 21
177.080899999999990
  0
LINE
  8
PT2-Krawędzie_pr2
  6
CONTINUOUS
 62
     7
 10
241.027
 20
179.880900000000000
 11
238.227
 21
179.880900000000000
  0
LINE
  8
PT2-Krawędzie_pr2
  6
CONTINUOUS
 62
     7
 10
241.027
 20
177.080899999999990
 11
241.027
 21
179.880900000000000
  0
LINE
  8
PT2-Krawędzie_pr2
  6
CONTINUOUS
 62
     7
 10
238.227
 20
177.080899999999990
 11
241.027
 21
177.080899999999990
  0
LINE
  8
PT2-Wymiarowanie6
  6
CONTINUOUS
 62
     7
 10
259.8523
 20
123.080900000000010
 11
261.8523
 21
126.544999999999990
  0
LINE
  8
PT2-Wymiarowanie6
  6
CONTINUOUS
 62
     7
 10
261.8523
 20
126.544999999999990
 11
257.8523
 21
126.544999999999990
  0
LINE
  8
PT2-Wymiarowanie6
  6
CONTINUOUS
 62
     7
 10
259.8523
 20
123.080900000000010
 11
257.8523
 21
126.544999999999990
  0
TEXT
  8
PT2-Wymiarowanie6
  6
CONTINUOUS
 62
     7
 10
257.517299999999980
 20
127.993399999999980
 40
1.800000000000000
  1
+ 7.15
  0
LINE
  8
PT2-Wymiarowanie6
  6
CONTINUOUS
 62
     7
 10
259.8523
 20
123.080900000000010
 11
256.9843
 21
123.080900000000010
  0
LINE
  8
PT2-Wymiarowanie6
  6
CONTINUOUS
 62
     7
 10
250.4178
 20
176.466600000000000
 11
252.4178
 21
173.002500000000000
  0
LINE
  8
PT2-Wymiarowanie6
  6
CONTINUOUS
 62
     7
 10
252.4238
 20
173.043600000000000
 11
248.4238
 21
173.043600000000000
  0
LINE
  8
PT2-Wymiarowanie6
  6
CONTINUOUS
 62
     7
 10
250.4154
 20
176.465100000000010
 11
248.4154
 21
173.001000000000000
  0
TEXT
  8
PT2-Wymiarowanie6
  6
CONTINUOUS
 62
     7
 10
248.729199999999990
 20
170.725300000000000
 40
1.800000000000000
  1
+ 9.82
  0
LINE
  8
PT2-Wymiarowanie6
  6
CONTINUOUS
 62
     7
 10
250.4238
 20
177.080899999999990
 11
241.027
 21
177.080899999999990
  0
LINE
  8
PT2-Krawędzie_pr2
  6
CONTINUOUS
 62
     7
 10
160.6179
 20
127.680900000000010
 11
163.4179
 21
127.680900000000010
  0
LINE
  8
PT2-Krawędzie_pr2
  6
CONTINUOUS
 62
     7
 10
160.6179
 20
127.680900000000010
 11
160.6179
 21
132.581099999999990
  0
LINE
  8
PT2-Krawędzie_pr2
  6
CONTINUOUS
 62
     7
 10
159.4179
 20
121.680900000000010
 11
159.4179
 21
114.880900000000000
  0
LINE
  8
PT2-Krawędzie_pr2
  6
CONTINUOUS
 62
     7
 10
159.4179
 20
114.880900000000000
 11
367.9034
 21
114.880900000000000
  0
LINE
  8
PT2-Krawędzie_pr2
  6
CONTINUOUS
 62
     7
 10
163.4179
 20
107.498799999999990
 11
163.4179
 21
114.880900000000000
  0
LINE
  8
PT2-Krawędzie_pr2
  6
CONTINUOUS
 62
     7
 10
163.4179
 20
121.680900000000010
 11
163.4179
 21
127.680900000000010
  0
LINE
  8
PT2-Krawędzie_pr2
  6
GESTRICHELT
 62
     7
 10
149.8887
 20
107.498799999999990
 11
374.0249
 21
107.498799999999990
  0
LINE
  8
PT2-Krawędzie_pr2
  6
GESTRICHELT
 62
     7
 10
367.9034
 20
203.785000000000000
 11
367.9034
 21
102.897200000000000
  0
LINE
  8
PT2-Krawędzie_pr2
  6
CONTINUOUS
 62
     7
 10
238.2526
 20
177.080899999999990
 11
367.9034
 21
177.080899999999990
  0
LINE
  8
PT2-Krawędzie_pr2
  6
CONTINUOUS
 62
     7
 10
237.627
 20
176.480900000000020
 11
367.9034
 21
176.480900000000020
  0
LINE
  8
PT2-Krawędzie_pr2
  6
CONTINUOUS
 62
     7
 10
237.927
 20
176.780900000000000
 11
367.9055
 21
176.780900000000000
  0
LINE
  8
PT2-Krawędzie_pr2
  6
CONTINUOUS
 62
     7
 10
237.627
 20
180.935700000000000
 11
237.627
 21
176.480900000000020
  0
LINE
  8
PT2-Krawędzie_pr2
  6
CONTINUOUS
 62
     7
 10
237.1223
 20
182.263700000000000
 11
237.927
 21
181.024600000000020
  0
LINE
  8
PT2-Krawędzie_pr2
  6
CONTINUOUS
 62
     7
 10
237.927
 20
181.024600000000020
 11
237.927
 21
176.780900000000000
  0
LINE
  8
PT2-Krawędzie_pr2
  6
CONTINUOUS
 62
     7
 10
237.3739
 20
182.427100000000000
 11
238.227
 21
181.113400000000010
  0
LINE
  8
PT2-Krawędzie_pr2
  6
CONTINUOUS
 62
     7
 10
238.227
 20
177.088500000000010
 11
238.227
 21
181.113400000000010
  0
LINE
  8
PT2-Krawędzie_pr2
  6
CONTINUOUS
 62
     7
 10
241.1233
 20
177.871700000000000
 11
241.0182
 21
178.084200000000010
  0
LINE
  8
PT2-Krawędzie_pr2
  6
CONTINUOUS
 62
     7
 10
241.0182
 20
178.084200000000010
 11
241.0182
 21
177.084200000000010
  0
LINE
  8
PT2-Krawędzie_pr2
  6
CONTINUOUS
 62
     7
 10
241.0182
 20
177.084200000000010
 11
242.6182
 21
177.084200000000010
  0
LINE
  8
PT2-Krawędzie_pr2
  6
CONTINUOUS
 62
     7
 10
242.6182
 20
177.084200000000010
 11
242.6182
 21
178.084200000000010
  0
LINE
  8
PT2-Krawędzie_pr2
  6
CONTINUOUS
 62
     7
 10
242.6182
 20
178.084200000000010
 11
242.5233
 21
177.871700000000000
  0
LINE
  8
PT2-Krawędzie_pr2
  6
CONTINUOUS
 62
     7
 10
251.1233
 20
177.871700000000000
 11
251.0182
 21
178.084200000000010
  0
LINE
  8
PT2-Krawędzie_pr2
  6
CONTINUOUS
 62
     7
 10
251.0182
 20
178.084200000000010
 11
251.0182
 21
177.084200000000010
  0
LINE
  8
PT2-Krawędzie_pr2
  6
CONTINUOUS
 62
     7
 10
251.0182
 20
177.084200000000010
 11
252.6182
 21
177.084200000000010
  0
LINE
  8
PT2-Krawędzie_pr2
  6
CONTINUOUS
 62
     7
 10
252.6182
 20
177.084200000000010
 11
252.6182
 21
178.084200000000010
  0
LINE
  8
PT2-Krawędzie_pr2
  6
CONTINUOUS
 62
     7
 10
252.6182
 20
178.084200000000010
 11
252.5233
 21
177.871700000000000
  0
LINE
  8
PT2-Krawędzie_pr2
  6
CONTINUOUS
 62
     7
 10
261.1233
 20
177.871700000000000
 11
261.0182
 21
178.084200000000010
  0
LINE
  8
PT2-Krawędzie_pr2
  6
CONTINUOUS
 62
     7
 10
261.0182
 20
178.084200000000010
 11
261.0182
 21
177.084200000000010
  0
LINE
  8
PT2-Krawędzie_pr2
  6
CONTINUOUS
 62
     7
 10
261.0182
 20
177.084200000000010
 11
262.6182
 21
177.084200000000010
  0
LINE
  8
PT2-Krawędzie_pr2
  6
CONTINUOUS
 62
     7
 10
262.6182
 20
177.084200000000010
 11
262.6182
 21
178.084200000000010
  0
LINE
  8
PT2-Krawędzie_pr2
  6
CONTINUOUS
 62
     7
 10
262.6182
 20
178.084200000000010
 11
262.5233
 21
177.871700000000000
  0
LINE
  8
PT2-Krawędzie_pr2
  6
CONTINUOUS
 62
     7
 10
271.1233
 20
177.871700000000000
 11
271.0182
 21
178.084200000000010
  0
LINE
  8
PT2-Krawędzie_pr2
  6
CONTINUOUS
 62
     7
 10
271.0182
 20
178.084200000000010
 11
271.0182
 21
177.084200000000010
  0
LINE
  8
PT2-Krawędzie_pr2
  6
CONTINUOUS
 62
     7
 10
271.0182
 20
177.084200000000010
 11
272.6182
 21
177.084200000000010
  0
LINE
  8
PT2-Krawędzie_pr2
  6
CONTINUOUS
 62
     7
 10
272.6182
 20
177.084200000000010
 11
272.6182
 21
178.084200000000010
  0
LINE
  8
PT2-Krawędzie_pr2
  6
CONTINUOUS
 62
     7
 10
272.6182
 20
178.084200000000010
 11
272.5233
 21
177.871700000000000
  0
LINE
  8
PT2-Krawędzie_pr2
  6
CONTINUOUS
 62
     7
 10
281.1233
 20
177.871700000000000
 11
281.0182
 21
178.084200000000010
  0
LINE
  8
PT2-Krawędzie_pr2
  6
CONTINUOUS
 62
     7
 10
281.0182
 20
178.084200000000010
 11
281.0182
 21
177.084200000000010
  0
LINE
  8
PT2-Krawędzie_pr2
  6
CONTINUOUS
 62
     7
 10
281.0182
 20
177.084200000000010
 11
282.6182
 21
177.084200000000010
  0
LINE
  8
PT2-Krawędzie_pr2
  6
CONTINUOUS
 62
     7
 10
282.6182
 20
177.084200000000010
 11
282.6182
 21
178.084200000000010
  0
LINE
  8
PT2-Krawędzie_pr2
  6
CONTINUOUS
 62
     7
 10
282.6182
 20
178.084200000000010
 11
282.5233
 21
177.871700000000000
  0
LINE
  8
PT2-Krawędzie_pr2
  6
CONTINUOUS
 62
     7
 10
291.1233
 20
177.871700000000000
 11
291.0182
 21
178.084200000000010
  0
LINE
  8
PT2-Krawędzie_pr2
  6
CONTINUOUS
 62
     7
 10
291.0182
 20
178.084200000000010
 11
291.0182
 21
177.084200000000010
  0
LINE
  8
PT2-Krawędzie_pr2
  6
CONTINUOUS
 62
     7
 10
291.0182
 20
177.084200000000010
 11
292.6182
 21
177.084200000000010
  0
LINE
  8
PT2-Krawędzie_pr2
  6
CONTINUOUS
 62
     7
 10
292.6182
 20
177.084200000000010
 11
292.6182
 21
178.084200000000010
  0
LINE
  8
PT2-Krawędzie_pr2
  6
CONTINUOUS
 62
     7
 10
292.6182
 20
178.084200000000010
 11
292.5233
 21
177.871700000000000
  0
LINE
  8
PT2-Krawędzie_pr2
  6
CONTINUOUS
 62
     7
 10
301.1233
 20
177.871700000000000
 11
301.0182
 21
178.084200000000010
  0
LINE
  8
PT2-Krawędzie_pr2
  6
CONTINUOUS
 62
     7
 10
301.0182
 20
178.084200000000010
 11
301.0182
 21
177.084200000000010
  0
LINE
  8
PT2-Krawędzie_pr2
  6
CONTINUOUS
 62
     7
 10
301.0182
 20
177.084200000000010
 11
302.6182
 21
177.084200000000010
  0
LINE
  8
PT2-Krawędzie_pr2
  6
CONTINUOUS
 62
     7
 10
302.6182
 20
177.084200000000010
 11
302.6182
 21
178.084200000000010
  0
LINE
  8
PT2-Krawędzie_pr2
  6
CONTINUOUS
 62
     7
 10
302.6182
 20
178.084200000000010
 11
302.5233
 21
177.871700000000000
  0
LINE
  8
PT2-Krawędzie_pr2
  6
CONTINUOUS
 62
     7
 10
311.1233
 20
177.871700000000000
 11
311.0182
 21
178.084200000000010
  0
LINE
  8
PT2-Krawędzie_pr2
  6
CONTINUOUS
 62
     7
 10
311.0182
 20
178.084200000000010
 11
311.0182
 21
177.084200000000010
  0
LINE
  8
PT2-Krawędzie_pr2
  6
CONTINUOUS
 62
     7
 10
311.0182
 20
177.084200000000010
 11
312.6182
 21
177.084200000000010
  0
LINE
  8
PT2-Krawędzie_pr2
  6
CONTINUOUS
 62
     7
 10
312.6182
 20
177.084200000000010
 11
312.6182
 21
178.084200000000010
  0
LINE
  8
PT2-Krawędzie_pr2
  6
CONTINUOUS
 62
     7
 10
312.6182
 20
178.084200000000010
 11
312.5233
 21
177.871700000000000
  0
LINE
  8
PT2-Krawędzie_pr2
  6
CONTINUOUS
 62
     7
 10
321.1233
 20
177.871700000000000
 11
321.0182
 21
178.084200000000010
  0
LINE
  8
PT2-Krawędzie_pr2
  6
CONTINUOUS
 62
     7
 10
321.0182
 20
178.084200000000010
 11
321.0182
 21
177.084200000000010
  0
LINE
  8
PT2-Krawędzie_pr2
  6
CONTINUOUS
 62
     7
 10
321.0182
 20
177.084200000000010
 11
322.6182
 21
177.084200000000010
  0
LINE
  8
PT2-Krawędzie_pr2
  6
CONTINUOUS
 62
     7
 10
322.6182
 20
177.084200000000010
 11
322.6182
 21
178.084200000000010
  0
LINE
  8
PT2-Krawędzie_pr2
  6
CONTINUOUS
 62
     7
 10
322.6182
 20
178.084200000000010
 11
322.5233
 21
177.871700000000000
  0
LINE
  8
PT2-Krawędzie_pr2
  6
CONTINUOUS
 62
     7
 10
331.1233
 20
177.871700000000000
 11
331.0182
 21
178.084200000000010
  0
LINE
  8
PT2-Krawędzie_pr2
  6
CONTINUOUS
 62
     7
 10
331.0182
 20
178.084200000000010
 11
331.0182
 21
177.084200000000010
  0
LINE
  8
PT2-Krawędzie_pr2
  6
CONTINUOUS
 62
     7
 10
331.0182
 20
177.084200000000010
 11
332.6182
 21
177.084200000000010
  0
LINE
  8
PT2-Krawędzie_pr2
  6
CONTINUOUS
 62
     7
 10
332.6182
 20
177.084200000000010
 11
332.6182
 21
178.084200000000010
  0
LINE
  8
PT2-Krawędzie_pr2
  6
CONTINUOUS
 62
     7
 10
332.6182
 20
178.084200000000010
 11
332.5233
 21
177.871700000000000
  0
LINE
  8
PT2-Krawędzie_pr2
  6
CONTINUOUS
 62
     7
 10
341.1233
 20
177.871700000000000
 11
341.0182
 21
178.084200000000010
  0
LINE
  8
PT2-Krawędzie_pr2
  6
CONTINUOUS
 62
     7
 10
341.0182
 20
178.084200000000010
 11
341.0182
 21
177.084200000000010
  0
LINE
  8
PT2-Krawędzie_pr2
  6
CONTINUOUS
 62
     7
 10
341.0182
 20
177.084200000000010
 11
342.6182
 21
177.084200000000010
  0
LINE
  8
PT2-Krawędzie_pr2
  6
CONTINUOUS
 62
     7
 10
342.6182
 20
177.084200000000010
 11
342.6182
 21
178.084200000000010
  0
LINE
  8
PT2-Krawędzie_pr2
  6
CONTINUOUS
 62
     7
 10
342.6182
 20
178.084200000000010
 11
342.5233
 21
177.871700000000000
  0
LINE
  8
PT2-Krawędzie_pr2
  6
CONTINUOUS
 62
     7
 10
351.1233
 20
177.871700000000000
 11
351.0182
 21
178.084200000000010
  0
LINE
  8
PT2-Krawędzie_pr2
  6
CONTINUOUS
 62
     7
 10
351.0182
 20
178.084200000000010
 11
351.0182
 21
177.084200000000010
  0
LINE
  8
PT2-Krawędzie_pr2
  6
CONTINUOUS
 62
     7
 10
351.0182
 20
177.084200000000010
 11
352.6182
 21
177.084200000000010
  0
LINE
  8
PT2-Krawędzie_pr2
  6
CONTINUOUS
 62
     7
 10
352.6182
 20
177.084200000000010
 11
352.6182
 21
178.084200000000010
  0
LINE
  8
PT2-Krawędzie_pr2
  6
CONTINUOUS
 62
     7
 10
352.6182
 20
178.084200000000010
 11
352.5233
 21
177.871700000000000
  0
LINE
  8
PT2-Krawędzie_pr2
  6
CONTINUOUS
 62
     7
 10
361.1233
 20
177.871700000000000
 11
361.0182
 21
178.084200000000010
  0
LINE
  8
PT2-Krawędzie_pr2
  6
CONTINUOUS
 62
     7
 10
361.0182
 20
178.084200000000010
 11
361.0182
 21
177.084200000000010
  0
LINE
  8
PT2-Krawędzie_pr2
  6
CONTINUOUS
 62
     7
 10
361.0182
 20
177.084200000000010
 11
362.6182
 21
177.084200000000010
  0
LINE
  8
PT2-Krawędzie_pr2
  6
CONTINUOUS
 62
     7
 10
362.6182
 20
177.084200000000010
 11
362.6182
 21
178.084200000000010
  0
LINE
  8
PT2-Krawędzie_pr2
  6
CONTINUOUS
 62
     7
 10
362.6182
 20
178.084200000000010
 11
362.5233
 21
177.871700000000000
  0
LINE
  8
PT2-Krawędzie_pr2
  6
CONTINUOUS
 62
     7
 10
241.0288
 20
179.080899999999990
 11
367.9188
 21
179.080899999999990
  0
LINE
  8
PT2-Krawędzie_pr2
  6
CONTINUOUS
 62
     7
 10
367.9051
 20
178.080899999999990
 11
240.968
 21
178.080899999999990
  0
LINE
  8
PT2-Krawędzie_pr2
  6
CONTINUOUS
 62
     7
 10
163.418
 20
130.703100000000010
 11
194.4072
 21
150.827800000000000
  0
LINE
  8
PT2-Krawędzie_pr2
  6
CONTINUOUS
 62
     7
 10
163.418
 20
130.345400000000010
 11
194.5706
 21
150.576200000000000
  0
LINE
  8
PT2-Krawędzie_pr2
  6
CONTINUOUS
 62
     7
 10
214.4107
 20
163.818199999999990
 11
218.7953
 21
166.665599999999980
  0
LINE
  8
PT2-Krawędzie_pr2
  6
CONTINUOUS
 62
     7
 10
214.0847
 20
163.248800000000020
 11
218.9628
 21
166.416699999999990
  0
LINE
  8
PT2-Linie_przekr3
  6
CONTINUOUS
 62
     7
 10
219.109
 20
166.511500000000010
 11
237.6205
 21
178.533199999999990
  0
LINE
  8
PT2-Linie_przekr3
  6
CONTINUOUS
 62
     7
 10
214.0947
 20
163.239000000000000
 11
194.5706
 21
150.576200000000000
  0
LINE
  8
PT2-Linie_przekr3
  6
CONTINUOUS
 62
     7
 10
285.3133
 20
230.080899999999990
 11
292.9246
 21
230.080899999999990
  0
LINE
  8
PT2-Linie_przekr3
  6
CONTINUOUS
 62
     7
 10
335.9002
 20
230.080899999999990
 11
343.4682
 21
230.080899999999990
  0
LINE
  8
PT2-Linie_przekr3
  6
CONTINUOUS
 62
     7
 10
335.9002
 20
230.080899999999990
 11
335.9002
 21
219.509199999999990
  0
LINE
  8
PT2-Linie_przekr3
  6
CONTINUOUS
 62
     7
 10
335.9002
 20
215.104500000000000
 11
335.9002
 21
123.080900000000010
  0
LINE
  8
PT2-Linie_przekr3
  6
CONTINUOUS
 62
     7
 10
343.4682
 20
123.080900000000010
 11
343.4682
 21
210.201799999999990
  0
LINE
  8
PT2-Linie_przekr3
  6
CONTINUOUS
 62
     7
 10
343.4682
 20
214.594499999999980
 11
343.4682
 21
230.080899999999990
  0
LINE
  8
PT2-Linie_przekr3
  6
CONTINUOUS
 62
     7
 10
285.3133
 20
123.080900000000010
 11
285.3133
 21
210.220500000000020
  0
LINE
  8
PT2-Linie_przekr3
  6
CONTINUOUS
 62
     7
 10
285.3133
 20
214.559200000000000
 11
285.3133
 21
230.080899999999990
  0
LINE
  8
PT2-Linie_przekr3
  6
CONTINUOUS
 62
     7
 10
292.9246
 20
230.080899999999990
 11
292.9246
 21
219.502000000000010
  0
LINE
  8
PT2-Linie_przekr3
  6
CONTINUOUS
 62
     7
 10
292.9246
 20
215.163400000000000
 11
292.9246
 21
123.080900000000010
  0
LINE
  8
PT2-Linie_przekr3
  6
CONTINUOUS
 62
     7
 10
270.1179
 20
200.352500000000020
 11
270.1179
 21
179.080899999999990
  0
LINE
  8
PT2-Linie_przekr3
  6
CONTINUOUS
 62
     7
 10
268.7141
 20
198.604699999999980
 11
270.114
 21
199.513900000000010
  0
LINE
  8
PT2-Linie_przekr3
  6
CONTINUOUS
 62
     7
 10
270.114
 20
199.513900000000010
 11
270.114
 21
199.722800000000010
  0
LINE
  8
PT2-Linie_przekr3
  6
CONTINUOUS
 62
     7
 10
268.7141
 20
198.813600000000010
 11
270.114
 21
199.722800000000010
  0
LINE
  8
PT2-Linie_przekr3
  6
CONTINUOUS
 62
     7
 10
270.114
 20
199.722800000000010
 11
270.114
 21
200.439500000000010
  0
LINE
  8
PT2-Linie_przekr3
  6
CONTINUOUS
 62
     7
 10
268.718
 20
199.443400000000000
 11
268.718
 21
179.080899999999990
  0
LINE
  8
PT2-Krawędzie_pr2
  6
CONTINUOUS
 62
     7
 10
251.1781
 20
203.080899999999990
 11
250.8701
 21
202.880900000000000
  0
LINE
  8
PT2-Linie_przekr3
  6
CONTINUOUS
 62
     7
 10
252.1179
 20
188.663200000000020
 11
252.1179
 21
179.080899999999990
  0
LINE
  8
PT2-Linie_przekr3
  6
CONTINUOUS
 62
     7
 10
250.7379
 20
186.908199999999990
 11
252.1378
 21
187.817400000000020
  0
LINE
  8
PT2-Linie_przekr3
  6
CONTINUOUS
 62
     7
 10
252.1378
 20
187.817400000000020
 11
252.1378
 21
188.026299999999990
  0
LINE
  8
PT2-Linie_przekr3
  6
CONTINUOUS
 62
     7
 10
250.7379
 20
187.117099999999990
 11
252.1378
 21
188.026299999999990
  0
LINE
  8
PT2-Linie_przekr3
  6
CONTINUOUS
 62
     7
 10
252.1378
 20
188.026299999999990
 11
252.1378
 21
188.742999999999990
  0
LINE
  8
PT2-Linie_przekr3
  6
CONTINUOUS
 62
     7
 10
250.718
 20
187.754099999999990
 11
250.718
 21
179.080899999999990
  0
LINE
  8
PT2-Linie_przekr3
  6
CONTINUOUS
 62
     7
 10
360.118
 20
199.415700000000020
 11
360.118
 21
179.080899999999990
  0
LINE
  8
PT2-Linie_przekr3
  6
CONTINUOUS
 62
     7
 10
358.7173
 20
199.498500000000010
 11
360.1174
 21
198.589299999999980
  0
LINE
  8
PT2-Linie_przekr3
  6
CONTINUOUS
 62
     7
 10
360.1174
 20
198.589299999999980
 11
360.1174
 21
198.798200000000010
  0
LINE
  8
PT2-Linie_przekr3
  6
CONTINUOUS
 62
     7
 10
358.7173
 20
199.707400000000010
 11
360.1174
 21
198.798200000000010
  0
LINE
  8
PT2-Linie_przekr3
  6
CONTINUOUS
 62
     7
 10
360.1174
 20
198.798200000000010
 11
360.1174
 21
199.514900000000010
  0
LINE
  8
PT2-Linie_przekr3
  6
CONTINUOUS
 62
     7
 10
358.7179
 20
200.322700000000000
 11
358.7179
 21
179.080899999999990
  0
LINE
  8
PT2-Krawędzie_pr2
  6
CONTINUOUS
 62
     7
 10
358.6182
 20
178.084200000000010
 11
358.5233
 21
177.871700000000000
  0
POLYLINE
  8
PT2-Kreskowanie4
  6
CONTINUOUS
 62
     7
 66
     1
 70
     1
  0
VERTEX
  8
PT2-Kreskowanie4
 10
159.4428
 20
114.880900000000000
  0
VERTEX
  8
PT2-Kreskowanie4
 10
367.9034
 20
114.880900000000000
  0
VERTEX
  8
PT2-Kreskowanie4
 10
367.9034
 20
121.680900000000010
  0
VERTEX
  8
PT2-Kreskowanie4
 10
159.4428
 20
121.680900000000010
  0
SEQEND
  8
PT2-Kreskowanie4
  0
POLYLINE
  8
PT2-Kreskowanie4
  6
CONTINUOUS
 62
     7
 66
     1
 70
     1
  0
VERTEX
  8
PT2-Kreskowanie4
 10
190.6229
 20
152.066500000000020
  0
VERTEX
  8
PT2-Kreskowanie4
 10
191.797
 20
152.829000000000010
  0
VERTEX
  8
PT2-Kreskowanie4
 10
193.3868
 20
150.522800000000020
  0
VERTEX
  8
PT2-Kreskowanie4
 10
192.1478
 20
149.718300000000000
  0
SEQEND
  8
PT2-Kreskowanie4
  0
POLYLINE
  8
PT2-Kreskowanie4
  6
CONTINUOUS
 62
     7
 66
     1
 70
     1
  0
VERTEX
  8
PT2-Kreskowanie4
 10
213.1058
 20
166.667100000000000
  0
VERTEX
  8
PT2-Kreskowanie4
 10
214.2799
 20
167.429599999999990
  0
VERTEX
  8
PT2-Kreskowanie4
 10
215.8049
 20
165.081300000000000
  0
VERTEX
  8
PT2-Kreskowanie4
 10
214.6308
 20
164.318800000000010
  0
SEQEND
  8
PT2-Kreskowanie4
  0
POLYLINE
  8
PT2-Kreskowanie4
  6
CONTINUOUS
 62
     7
 66
     1
 70
     1
  0
VERTEX
  8
PT2-Kreskowanie4
 10
215.2607
 20
168.066500000000020
  0
VERTEX
  8
PT2-Kreskowanie4
 10
216.4348
 20
168.829000000000010
  0
VERTEX
  8
PT2-Kreskowanie4
 10
217.9598
 20
166.480799999999990
  0
VERTEX
  8
PT2-Kreskowanie4
 10
216.7857
 20
165.718300000000000
  0
SEQEND
  8
PT2-Kreskowanie4
  0
POLYLINE
  8
PT2-Kreskowanie4
  6
CONTINUOUS
 62
     7
 66
     1
 70
     1
  0
VERTEX
  8
PT2-Kreskowanie4
 10
237.7436
 20
182.667000000000000
  0
VERTEX
  8
PT2-Kreskowanie4
 10
238.9177
 20
183.429599999999990
  0
VERTEX
  8
PT2-Kreskowanie4
 10
240.4427
 20
181.081300000000000
  0
VERTEX
  8
PT2-Kreskowanie4
 10
239.2686
 20
180.318800000000010
  0
SEQEND
  8
PT2-Kreskowanie4
  0
POLYLINE
  8
PT2-Kreskowanie4
  6
CONTINUOUS
 62
     7
 66
     1
 70
     1
  0
VERTEX
  8
PT2-Kreskowanie4
 10
238.227
 20
179.885800000000020
  0
VERTEX
  8
PT2-Kreskowanie4
 10
241.027
 20
179.880900000000000
  0
VERTEX
  8
PT2-Kreskowanie4
 10
241.0182
 20
177.084200000000010
  0
VERTEX
  8
PT2-Kreskowanie4
 10
238.2526
 20
177.080899999999990
  0
SEQEND
  8
PT2-Kreskowanie4
  0
POLYLINE
  8
PT2-Kreskowanie4
  6
CONTINUOUS
 62
     7
 66
     1
 70
     1
  0
VERTEX
  8
PT2-Kreskowanie4
 10
160.6179
 20
127.680900000000010
  0
VERTEX
  8
PT2-Kreskowanie4
 10
163.399
 20
127.680900000000010
  0
VERTEX
  8
PT2-Kreskowanie4
 10
163.399
 20
130.491899999999990
  0
VERTEX
  8
PT2-Kreskowanie4
 10
160.6179
 20
130.491899999999990
  0
SEQEND
  8
PT2-Kreskowanie4
  0
TEXT
  8
PT2-Wymiarowanie6
  6
CONTINUOUS
 62
     7
 10
160.353299999999990
 20
147.081500000000010
 40
2.000000000000000
 50
33.000000000000000
  1
2,78
  0
LINE
  8
PT2-Wymiarowanie6
  6
CONTINUOUS
 62
     7
 10
140.5433
 20
131.158199999999990
 11
187.1734
 21
161.440200000000000
  0
LINE
  8
PT2-Wymiarowanie6
  6
CONTINUOUS
 62
     7
 10
139.7046
 20
130.613599999999990
 11
140.5433
 21
131.158199999999990
  0
LINE
  8
PT2-Wymiarowanie6
  6
CONTINUOUS
 62
     7
 10
188.012
 20
161.984800000000010
 11
187.1734
 21
161.440200000000000
  0
LINE
  8
PT2-Wymiarowanie6
  6
CONTINUOUS
 62
     7
 10
140.6903
 20
131.849799999999990
 11
140.3963
 21
130.466700000000000
  0
LINE
  8
PT2-Wymiarowanie6
  6
CONTINUOUS
 62
     7
 10
187.3203
 20
162.131700000000000
 11
187.0264
 21
160.748600000000010
  0
LINE
  8
PT2-Wymiarowanie6
  6
CONTINUOUS
 62
     7
 10
139.9986
 20
131.996900000000010
 11
141.0879
 21
130.319600000000010
  0
LINE
  8
PT2-Wymiarowanie6
  6
CONTINUOUS
 62
     7
 10
186.6287
 20
162.278799999999990
 11
187.718
 21
160.601499999999990
  0
TEXT
  8
PT2-Wymiarowanie6
  6
CONTINUOUS
 62
     7
 10
193.564600000000010
 20
168.649200000000010
 40
2.000000000000000
 50
33.000000000000000
  1
1,18
  0
LINE
  8
PT2-Wymiarowanie6
  6
CONTINUOUS
 62
     7
 10
187.1734
 20
161.440200000000000
 11
206.966
 21
174.293600000000000
  0
LINE
  8
PT2-Wymiarowanie6
  6
CONTINUOUS
 62
     7
 10
186.3347
 20
160.895500000000000
 11
187.1734
 21
161.440200000000000
  0
LINE
  8
PT2-Wymiarowanie6
  6
CONTINUOUS
 62
     7
 10
207.8047
 20
174.838300000000000
 11
206.966
 21
174.293600000000000
  0
LINE
  8
PT2-Wymiarowanie6
  6
CONTINUOUS
 62
     7
 10
187.3203
 20
162.131700000000000
 11
187.0264
 21
160.748600000000010
  0
LINE
  8
PT2-Wymiarowanie6
  6
CONTINUOUS
 62
     7
 10
207.113
 20
174.985200000000020
 11
206.819
 21
173.602100000000010
  0
LINE
  8
PT2-Wymiarowanie6
  6
CONTINUOUS
 62
     7
 10
186.6287
 20
162.278799999999990
 11
187.718
 21
160.601499999999990
  0
LINE
  8
PT2-Wymiarowanie6
  6
CONTINUOUS
 62
     7
 10
206.4213
 20
175.132299999999990
 11
207.5106
 21
173.454999999999980
  0
TEXT
  8
PT2-Wymiarowanie6
  6
CONTINUOUS
 62
     7
 10
206.958200000000010
 20
177.347100000000010
 40
2.000000000000000
 50
33.000000000000000
  1
30
  0
LINE
  8
PT2-Wymiarowanie6
  6
CONTINUOUS
 62
     7
 10
206.966
 20
174.293600000000000
 11
211.998
 21
177.561500000000000
  0
LINE
  8
PT2-Wymiarowanie6
  6
CONTINUOUS
 62
     7
 10
206.1273
 20
173.749000000000000
 11
206.966
 21
174.293600000000000
  0
LINE
  8
PT2-Wymiarowanie6
  6
CONTINUOUS
 62
     7
 10
212.8367
 20
178.106100000000000
 11
211.998
 21
177.561500000000000
  0
LINE
  8
PT2-Wymiarowanie6
  6
CONTINUOUS
 62
     7
 10
207.113
 20
174.985200000000020
 11
206.819
 21
173.602100000000010
  0
LINE
  8
PT2-Wymiarowanie6
  6
CONTINUOUS
 62
     7
 10
212.145
 20
178.252999999999990
 11
211.851
 21
176.869900000000000
  0
LINE
  8
PT2-Wymiarowanie6
  6
CONTINUOUS
 62
     7
 10
206.4213
 20
175.132299999999990
 11
207.5106
 21
173.454999999999980
  0
LINE
  8
PT2-Wymiarowanie6
  6
CONTINUOUS
 62
     7
 10
211.4534
 20
178.400100000000010
 11
212.5426
 21
176.722800000000010
  0
TEXT
  8
PT2-Wymiarowanie6
  6
CONTINUOUS
 62
     7
 10
218.389299999999990
 20
184.770500000000000
 40
2.000000000000000
 50
33.000000000000000
  1
1,18
  0
LINE
  8
PT2-Wymiarowanie6
  6
CONTINUOUS
 62
     7
 10
211.998
 20
177.561500000000000
 11
231.7906
 21
190.414899999999990
  0
LINE
  8
PT2-Wymiarowanie6
  6
CONTINUOUS
 62
     7
 10
211.1593
 20
177.016799999999990
 11
211.998
 21
177.561500000000000
  0
LINE
  8
PT2-Wymiarowanie6
  6
CONTINUOUS
 62
     7
 10
232.6293
 20
190.959599999999990
 11
231.7906
 21
190.414899999999990
  0
LINE
  8
PT2-Wymiarowanie6
  6
CONTINUOUS
 62
     7
 10
212.145
 20
178.252999999999990
 11
211.851
 21
176.869900000000000
  0
LINE
  8
PT2-Wymiarowanie6
  6
CONTINUOUS
 62
     7
 10
231.9376
 20
191.106499999999980
 11
231.6436
 21
189.723400000000000
  0
LINE
  8
PT2-Wymiarowanie6
  6
CONTINUOUS
 62
     7
 10
211.4534
 20
178.400100000000010
 11
212.5426
 21
176.722800000000010
  0
LINE
  8
PT2-Wymiarowanie6
  6
CONTINUOUS
 62
     7
 10
231.246
 20
191.253600000000010
 11
232.3353
 21
189.576300000000000
  0
TEXT
  8
PT2-Wymiarowanie6
  6
CONTINUOUS
 62
     7
 10
277.515600000000010
 20
147.465100000000010
 40
2.000000000000000
 50
90.000000000000000
  1
2,67
  0
LINE
  8
PT2-Wymiarowanie6
  6
CONTINUOUS
 62
     7
 10
279.0686
 20
123.080900000000010
 11
279.0686
 21
176.480900000000020
  0
LINE
  8
PT2-Wymiarowanie6
  6
CONTINUOUS
 62
     7
 10
279.0686
 20
122.080900000000010
 11
279.0686
 21
123.080900000000010
  0
LINE
  8
PT2-Wymiarowanie6
  6
CONTINUOUS
 62
     7
 10
279.0686
 20
177.480900000000020
 11
279.0686
 21
176.480900000000020
  0
LINE
  8
PT2-Wymiarowanie6
  6
CONTINUOUS
 62
     7
 10
278.5687
 20
123.580800000000010
 11
279.5685
 21
122.580900000000010
  0
LINE
  8
PT2-Wymiarowanie6
  6
CONTINUOUS
 62
     7
 10
278.5687
 20
176.980799999999990
 11
279.5685
 21
175.980900000000020
  0
LINE
  8
PT2-Wymiarowanie6
  6
CONTINUOUS
 62
     7
 10
280.0686
 20
123.080900000000010
 11
278.0686
 21
123.080900000000010
  0
LINE
  8
PT2-Wymiarowanie6
  6
CONTINUOUS
 62
     7
 10
280.0686
 20
176.480900000000020
 11
278.0686
 21
176.480900000000020
  0
TEXT
  8
PT2-Wymiarowanie6
  6
CONTINUOUS
 62
     7
 10
197.017599999999990
 20
131.684300000000010
 40
2.000000000000000
 50
450.000000000000000
  1
1,37
  0
TEXT
  8
PT2-Wymiarowanie6
  6
CONTINUOUS
 62
     7
 10
196.264600000000000
 20
138.566900000000000
 40
1.500000000000000
 50
450.000000000000000
  1
5
  0
LINE
  8
PT2-Wymiarowanie6
  6
CONTINUOUS
 62
     7
 10
198.5706
 20
150.576200000000000
 11
198.5706
 21
123.080900000000010
  0
LINE
  8
PT2-Wymiarowanie6
  6
CONTINUOUS
 62
     7
 10
198.5706
 20
151.576200000000000
 11
198.5706
 21
150.576200000000000
  0
LINE
  8
PT2-Wymiarowanie6
  6
CONTINUOUS
 62
     7
 10
198.5706
 20
122.080900000000010
 11
198.5706
 21
123.080900000000010
  0
LINE
  8
PT2-Wymiarowanie6
  6
CONTINUOUS
 62
     7
 10
199.0705
 20
150.076300000000000
 11
198.0707
 21
151.076100000000000
  0
LINE
  8
PT2-Wymiarowanie6
  6
CONTINUOUS
 62
     7
 10
199.0705
 20
122.580900000000010
 11
198.0707
 21
123.580800000000010
  0
LINE
  8
PT2-Wymiarowanie6
  6
CONTINUOUS
 62
     7
 10
199.5706
 20
150.576200000000000
 11
197.5706
 21
150.576200000000000
  0
LINE
  8
PT2-Wymiarowanie6
  6
CONTINUOUS
 62
     7
 10
199.5706
 20
123.080900000000010
 11
197.5706
 21
123.080900000000010
  0
TEXT
  8
PT2-Wymiarowanie6
  6
CONTINUOUS
 62
     7
 10
222.606599999999990
 20
139.668399999999990
 40
2.000000000000000
 50
450.000000000000000
  1
2,17
  0
TEXT
  8
PT2-Wymiarowanie6
  6
CONTINUOUS
 62
     7
 10
221.853600000000000
 20
146.550999999999990
 40
1.500000000000000
 50
450.000000000000000
  1
5
  0
LINE
  8
PT2-Wymiarowanie6
  6
CONTINUOUS
 62
     7
 10
224.1596
 20
166.544400000000000
 11
224.1596
 21
123.080900000000010
  0
LINE
  8
PT2-Wymiarowanie6
  6
CONTINUOUS
 62
     7
 10
224.1596
 20
167.544400000000000
 11
224.1596
 21
166.544400000000000
  0
LINE
  8
PT2-Wymiarowanie6
  6
CONTINUOUS
 62
     7
 10
224.1596
 20
122.080900000000010
 11
224.1596
 21
123.080900000000010
  0
LINE
  8
PT2-Wymiarowanie6
  6
CONTINUOUS
 62
     7
 10
224.6595
 20
166.044400000000000
 11
223.6597
 21
167.044300000000020
  0
LINE
  8
PT2-Wymiarowanie6
  6
CONTINUOUS
 62
     7
 10
224.6595
 20
122.580900000000010
 11
223.6597
 21
123.580800000000010
  0
LINE
  8
PT2-Wymiarowanie6
  6
CONTINUOUS
 62
     7
 10
225.1596
 20
166.544400000000000
 11
223.1596
 21
166.544400000000000
  0
LINE
  8
PT2-Wymiarowanie6
  6
CONTINUOUS
 62
     7
 10
225.1596
 20
123.080900000000010
 11
223.1596
 21
123.080900000000010
  0
POLYLINE
  8
PT2-Kreskowanie4
  6
CONTINUOUS
 62
     7
 66
     1
 70
     1
  0
VERTEX
  8
PT2-Kreskowanie4
 10
160.599
 20
130.491899999999990
  0
VERTEX
  8
PT2-Kreskowanie4
 10
163.418
 20
130.491899999999990
  0
VERTEX
  8
PT2-Kreskowanie4
 10
163.399
 20
131.048499999999990
  0
VERTEX
  8
PT2-Kreskowanie4
 10
192.1478
 20
149.718300000000000
  0
VERTEX
  8
PT2-Kreskowanie4
 10
190.6229
 20
152.066500000000020
  0
VERTEX
  8
PT2-Kreskowanie4
 10
160.6179
 20
132.581099999999990
  0
VERTEX
  8
PT2-Kreskowanie4
 10
160.6179
 20
130.491899999999990
  0
VERTEX
  8
PT2-Kreskowanie4
 10
163.399
 20
130.333100000000000
  0
SEQEND
  8
PT2-Kreskowanie4
  0
POLYLINE
  8
PT2-Kreskowanie4
  6
CONTINUOUS
 62
     7
 66
     1
 70
     1
  0
VERTEX
  8
PT2-Kreskowanie4
 10
214.2799
 20
167.429599999999990
  0
VERTEX
  8
PT2-Kreskowanie4
 10
215.2607
 20
168.066500000000020
  0
VERTEX
  8
PT2-Kreskowanie4
 10
216.7857
 20
165.718300000000000
  0
VERTEX
  8
PT2-Kreskowanie4
 10
215.8049
 20
165.081300000000000
  0
SEQEND
  8
PT2-Kreskowanie4
  0
POLYLINE
  8
PT2-Kreskowanie4
  6
CONTINUOUS
 62
     7
 66
     1
 70
     1
  0
VERTEX
  8
PT2-Kreskowanie4
 10
238.9177
 20
183.427200000000000
  0
VERTEX
  8
PT2-Kreskowanie4
 10
241.4383
 20
185.054000000000000
  0
VERTEX
  8
PT2-Kreskowanie4
 10
244.0433
 20
181.042700000000000
  0
VERTEX
  8
PT2-Kreskowanie4
 10
244.027
 20
180.088300000000000
  0
VERTEX
  8
PT2-Kreskowanie4
 10
367.9168
 20
180.078500000000020
  0
VERTEX
  8
PT2-Kreskowanie4
 10
367.9138
 20
177.078500000000020
  0
VERTEX
  8
PT2-Kreskowanie4
 10
241.0182
 20
177.084200000000010
  0
VERTEX
  8
PT2-Kreskowanie4
 10
241.027
 20
179.880900000000000
  0
VERTEX
  8
PT2-Kreskowanie4
 10
240.4427
 20
181.081300000000000
  0
VERTEX
  8
PT2-Kreskowanie4
 10
238.9177
 20
183.429599999999990
  0
SEQEND
  8
PT2-Kreskowanie4
  0
TEXT
  8
PT2-Opis5
  6
CONTINUOUS
 62
     7
 10
31.995200000000001
 20
245.246100000000010
 40
3.500000000000000
 50
360.000000000000000
  1
A
  0
TEXT
  8
PT2-Opis5
  6
CONTINUOUS
 62
     7
 10
31.995200000000001
 20
239.996100000000010
 40
3.500000000000000
 50
360.000000000000000
  1
Wykładzina obiektowa typu GAMRAT
  0
TEXT
  8
PT2-Opis5
  6
CONTINUOUS
 62
     7
 10
31.995200000000001
 20
234.746100000000010
 40
3.500000000000000
 50
360.000000000000000
  1
Gładź cementowa grub. 5 cm zbrojona siatką zbrojeniową 
  0
TEXT
  8
PT2-Opis5
  6
CONTINUOUS
 62
     7
 10
31.995200000000001
 20
229.496100000000010
 40
3.500000000000000
 50
360.000000000000000
  1
zgrzewaną #10x10 cm grub. 3 mm
  0
TEXT
  8
PT2-Opis5
  6
CONTINUOUS
 62
     7
 10
31.995200000000001
 20
224.246100000000010
 40
3.500000000000000
 50
360.000000000000000
  1
Folia polietylenowa gruba
  0
TEXT
  8
PT2-Opis5
  6
CONTINUOUS
 62
     7
 10
31.995200000000001
 20
218.996100000000010
 40
3.500000000000000
 50
360.000000000000000
  1
Styropian grub. 2 cm
  0
TEXT
  8
PT2-Opis5
  6
CONTINUOUS
 62
     7
 10
31.995200000000001
 20
213.746100000000010
 40
3.500000000000000
 50
360.000000000000000
  1
Strop gęstożebrowy Teriva-III grub. 34 cm
  0
TEXT
  8
PT2-Opis5
  6
CONTINUOUS
 62
     7
 10
31.995200000000001
 20
208.496100000000010
 40
3.500000000000000
 50
360.000000000000000
  1
Tynk c/w grub. 1,5 cm
  0
TEXT
  8
PT2-Opis5
  6
CONTINUOUS
 62
     7
 10
31.995200000000001
 20
203.246100000000010
 40
3.500000000000000
 50
360.000000000000000
  1

  0
TEXT
  8
PT2-Opis5
  6
CONTINUOUS
 62
     7
 10
31.995200000000001
 20
197.996100000000010
 40
3.500000000000000
 50
360.000000000000000
  1
B
  0
TEXT
  8
PT2-Opis5
  6
CONTINUOUS
 62
     7
 10
31.995200000000001
 20
192.746100000000010
 40
3.500000000000000
 50
360.000000000000000
  1
Blacha trapezowa
  0
TEXT
  8
PT2-Opis5
  6
CONTINUOUS
 62
     7
 10
31.995200000000001
 20
187.496100000000010
 40
3.500000000000000
 50
360.000000000000000
  1
Łaty drewniane 25x60 mm co 40 cm
  0
TEXT
  8
PT2-Opis5
  6
CONTINUOUS
 62
     7
 10
31.995200000000001
 20
182.246100000000010
 40
3.500000000000000
 50
360.000000000000000
  1
Folia paroprzepuszczalna (wiatrowa)
  0
TEXT
  8
PT2-Opis5
  6
CONTINUOUS
 62
     7
 10
31.995200000000001
 20
176.996100000000010
 40
3.500000000000000
 50
360.000000000000000
  1
Wełna mineralna grub. 15 cm (między krokwiami)
  0
TEXT
  8
PT2-Opis5
  6
CONTINUOUS
 62
     7
 10
31.995200000000001
 20
171.746100000000010
 40
3.500000000000000
 50
360.000000000000000
  1
Folia aluminiowa (paroizolacja)
  0
TEXT
  8
PT2-Opis5
  6
CONTINUOUS
 62
     7
 10
31.995200000000001
 20
166.496100000000010
 40
3.500000000000000
 50
360.000000000000000
  1
Płyty PROMATECT-H 2 x 8 mm
  0
TEXT
  8
PT2-Opis5
  6
CONTINUOUS
 62
     7
 10
31.995200000000001
 20
161.246100000000010
 40
3.500000000000000
 50
360.000000000000000
  1

  0
TEXT
  8
PT2-Opis5
  6
CONTINUOUS
 62
     7
 10
31.995200000000001
 20
155.996100000000010
 40
3.500000000000000
 50
360.000000000000000
  1
C
  0
TEXT
  8
PT2-Opis5
  6
CONTINUOUS
 62
     7
 10
31.995200000000001
 20
150.746100000000010
 40
3.500000000000000
 50
360.000000000000000
  1
Sufit podwieszany typu PROMAT F1
  0
TEXT
  8
PT2-Opis5
  6
CONTINUOUS
 62
     7
 10
31.995200000000001
 20
145.496100000000010
 40
3.500000000000000
 50
360.000000000000000
  1
- płyty PROMATECT-H 2x15 mm
  0
TEXT
  8
PT2-Opis5
  6
CONTINUOUS
 62
     7
 10
31.995200000000001
 20
140.246100000000010
 40
3.500000000000000
 50
360.000000000000000
  1
- T-profile sufitowe 60x50x0,7 w rozstawie
  0
TEXT
  8
PT2-Opis5
  6
CONTINUOUS
 62
     7
 10
31.995200000000001
 20
134.996100000000010
 40
3.500000000000000
 50
360.000000000000000
  1
  <625 mm
  0
TEXT
  8
PT2-Opis5
  6
CONTINUOUS
 62
     7
 10
31.995200000000001
 20
129.746100000000010
 40
3.500000000000000
 50
360.000000000000000
  1
- zawieszenie z podwójnego drutu ocynkowanego
  0
TEXT
  8
PT2-Opis5
  6
CONTINUOUS
 62
     7
 10
31.995200000000001
 20
124.496100000000010
 40
3.500000000000000
 50
360.000000000000000
  1
  skręconego spiralnie, 2 mm, ew. taśma stalowa
  0
TEXT
  8
PT2-Opis5
  6
CONTINUOUS
 62
     7
 10
31.995200000000001
 20
119.246100000000010
 40
3.500000000000000
 50
360.000000000000000
  1
  z wycięciami 20x1,5 mm lub zawieszenie noniuszowe
  0
TEXT
  8
PT2-Opis5
  6
CONTINUOUS
 62
     7
 10
31.995200000000001
 20
113.996100000000010
 40
3.500000000000000
 50
360.000000000000000
  1
   przykręcone do profila nośnego, rozstaw <7
  0
TEXT
  8
PT2-Opis5
  6
CONTINUOUS
 62
     7
 10
31.995200000000001
 20
108.746100000000010
 40
3.500000000000000
 50
360.000000000000000
  1
Paroizolacja
  0
TEXT
  8
PT2-Opis5
  6
CONTINUOUS
 62
     7
 10
31.995200000000001
 20
103.496100000000010
 40
3.500000000000000
 50
360.000000000000000
  1
Wełna mineralna grub. 15 mm
  0
TEXT
  8
PT2-Opis5
  6
CONTINUOUS
 62
     7
 10
31.995200000000001
 20
98.246100000000013
 40
3.500000000000000
 50
360.000000000000000
  1
Folia paroprzepuszczalna
  0
TEXT
  8
PT2-Opis5
  6
CONTINUOUS
 62
     7
 10
178.216000000000010
 20
183.039699999999980
 40
7.000000000000000
 50
360.000000000000000
  1
B
  0
LINE
  8
PT2-Opis5
  6
CONTINUOUS
 62
     7
 10
175.6826
 20
178.317999999999980
 11
185.9508
 21
178.317999999999980
  0
LINE
  8
PT2-Opis5
  6
CONTINUOUS
 62
     7
 10
185.9508
 20
178.317999999999980
 11
185.9508
 21
188.773000000000000
  0
LINE
  8
PT2-Opis5
  6
CONTINUOUS
 62
     7
 10
185.9508
 20
188.773000000000000
 11
175.6826
 21
188.773000000000000
  0
LINE
  8
PT2-Opis5
  6
CONTINUOUS
 62
     7
 10
175.6826
 20
188.773000000000000
 11
175.6826
 21
178.317999999999980
  0
LINE
  8
PT2-Opis5
  6
CONTINUOUS
 62
     7
 10
180.7397
 20
178.317999999999980
 11
180.7257
 21
132.140500000000000
  0
TEXT
  8
PT2-Opis5
  6
CONTINUOUS
 62
     7
 10
245.769100000000010
 20
133.896700000000010
 40
7.000000000000000
 50
360.000000000000000
  1
A
  0
LINE
  8
PT2-Opis5
  6
CONTINUOUS
 62
     7
 10
243.2357
 20
129.175000000000010
 11
253.5039
 21
129.175000000000010
  0
LINE
  8
PT2-Opis5
  6
CONTINUOUS
 62
     7
 10
253.5039
 20
129.175000000000010
 11
253.5039
 21
139.630000000000000
  0
LINE
  8
PT2-Opis5
  6
CONTINUOUS
 62
     7
 10
253.5039
 20
139.630000000000000
 11
243.2357
 21
139.630000000000000
  0
LINE
  8
PT2-Opis5
  6
CONTINUOUS
 62
     7
 10
243.2357
 20
139.630000000000000
 11
243.2357
 21
129.175000000000010
  0
LINE
  8
PT2-Opis5
  6
CONTINUOUS
 62
     7
 10
248.2928
 20
129.175000000000010
 11
248.2928
 21
111.305299999999990
  0
TEXT
  8
PT2-Opis5
  6
CONTINUOUS
 62
     7
 10
261.842100000000020
 20
158.743900000000000
 40
7.000000000000000
 50
360.000000000000000
  1
C
  0
LINE
  8
PT2-Opis5
  6
CONTINUOUS
 62
     7
 10
259.5034
 20
154.606300000000000
 11
269.7717
 21
154.606300000000000
  0
LINE
  8
PT2-Opis5
  6
CONTINUOUS
 62
     7
 10
269.7717
 20
154.606300000000000
 11
269.7717
 21
165.061300000000020
  0
LINE
  8
PT2-Opis5
  6
CONTINUOUS
 62
     7
 10
269.7717
 20
165.061300000000020
 11
259.5034
 21
165.061300000000020
  0
LINE
  8
PT2-Opis5
  6
CONTINUOUS
 62
     7
 10
259.5034
 20
165.061300000000020
 11
259.5034
 21
154.606300000000000
  0
LINE
  8
PT2-Opis5
  6
CONTINUOUS
 62
     7
 10
264.5653
 20
164.965199999999980
 11
264.5653
 21
183.071200000000000
  0
TEXT
  8
PT2-Opis5
  6
CONTINUOUS
 62
     7
 10
179.091900000000010
 20
222.752000000000010
 40
3.500000000000000
  1
Okna dachowe FAKRO obrotowe 
  0
TEXT
  8
PT2-Opis5
  6
CONTINUOUS
 62
     7
 10
179.091900000000010
 20
217.502000000000010
 40
3.500000000000000
  1
typu FT o wym. 78x118 cm - 6 szt
  0
LINE
  8
PT2-Opis5
  6
CONTINUOUS
 62
     7
 10
176.2241
 20
213.112799999999990
 11
257.8241
 21
213.112799999999990
  0
LINE
  8
PT2-Opis5
  6
CONTINUOUS
 62
     7
 10
257.8241
 20
213.112799999999990
 11
257.8241
 21
227.269900000000010
  0
LINE
  8
PT2-Opis5
  6
CONTINUOUS
 62
     7
 10
257.8241
 20
227.269900000000010
 11
176.2241
 21
227.269900000000010
  0
LINE
  8
PT2-Opis5
  6
CONTINUOUS
 62
     7
 10
176.2241
 20
227.269900000000010
 11
176.2241
 21
213.112799999999990
  0
LINE
  8
PT2-Opis5
  6
CONTINUOUS
 62
     7
 10
213.3865
 20
213.112799999999990
 11
231.2795
 21
180.472800000000010
  0
LINE
  8
PT2-Opis5
  6
CONTINUOUS
 62
     7
 10
213.3865
 20
213.112799999999990
 11
200.0159
 21
159.827000000000000
  0
POLYLINE
  8
PT1-Tabelka_rysu1
  6
CONTINUOUS
 62
     7
 66
     1
 70
     1
  0
VERTEX
  8
PT1-Tabelka_rysu1
 10
310.5821
 20
9.203700000000026
  0
VERTEX
  8
PT1-Tabelka_rysu1
 10
382.5488
 20
9.203700000000026
  0
VERTEX
  8
PT1-Tabelka_rysu1
 10
382.5488
 20
10.262000000000000
  0
VERTEX
  8
PT1-Tabelka_rysu1
 10
310.5821
 20
10.262000000000000
  0
SEQEND
  8
PT1-Tabelka_rysu1
  0
LINE
  8
PT1-Tabelka_rysu1
  6
CONTINUOUS
 62
     7
 10
309.5238
 20
10.261900000000026
 11
381.4905
 21
10.261900000000026
  0
LINE
  8
PT1-Tabelka_rysu1
  6
CONTINUOUS
 62
     7
 10
310.2293
 20
10.967499999999973
 11
380.7849
 21
10.967499999999973
  0
LINE
  8
PT1-Tabelka_rysu1
  6
CONTINUOUS
 62
     7
 10
380.7849
 20
10.967499999999973
 11
380.7849
 21
56.123099999999994
  0
LINE
  8
PT1-Tabelka_rysu1
  6
CONTINUOUS
 62
     7
 10
380.7849
 20
56.123099999999994
 11
310.2293
 21
56.123099999999994
  0
LINE
  8
PT1-Tabelka_rysu1
  6
CONTINUOUS
 62
     7
 10
310.2293
 20
10.967499999999973
 11
310.2293
 21
56.123099999999994
  0
LINE
  8
PT1-Tabelka_rysu1
  6
CONTINUOUS
 62
     7
 10
310.2293
 20
27.900900000000007
 11
380.7849
 21
27.900900000000007
  0
TEXT
  8
PT1-Tabelka_rysu1
  6
CONTINUOUS
 62
     7
 10
310.934900000000030
 20
25.750500000000017
 40
1.797600000000000
  1
Skala:
  0
TEXT
  8
PT1-Tabelka_rysu1
  6
CONTINUOUS
 62
     7
 10
310.934900000000030
 20
25.750500000000017
 40
1.797600000000000
  1
1 : 100
  0
LINE
  8
PT1-Tabelka_rysu1
  6
CONTINUOUS
 62
     7
 10
333.5127
 20
27.900900000000007
 11
333.5127
 21
24.373099999999994
  0
TEXT
  8
PT1-Tabelka_rysu1
  6
CONTINUOUS
 62
     7
 10
334.218200000000020
 20
25.750500000000017
 40
1.797600000000000
  1
Data:
  0
TEXT
  8
PT1-Tabelka_rysu1
  6
CONTINUOUS
 62
     7
 10
334.218200000000020
 20
25.750500000000017
 40
1.797600000000000
  1
07.2004
  0
LINE
  8
PT1-Tabelka_rysu1
  6
CONTINUOUS
 62
     7
 10
356.796
 20
27.900900000000007
 11
356.796
 21
24.373099999999994
  0
TEXT
  8
PT1-Tabelka_rysu1
  6
CONTINUOUS
 62
     7
 10
357.801199999999990
 20
25.750500000000017
 40
1.797600000000000
  1
11-P-04/A
  0
LINE
  8
PT1-Tabelka_rysu1
  6
CONTINUOUS
 62
     7
 10
310.2293
 20
31.428599999999989
 11
380.7849
 21
31.428599999999989
  0
TEXT
  8
PT1-Tabelka_rysu1
  6
CONTINUOUS
 62
     7
 10
310.934900000000030
 20
29.278300000000002
 40
1.797600000000000
  1
Branża:  architektoniczna
  0
TEXT
  8
PT1-Tabelka_rysu1
  6
CONTINUOUS
 62
     7
 10
310.934900000000030
 20
53.619900000000001
 40
1.797600000000000
  1
Projekt: Rozbudowa Szkoły Podstawowej i Gimnazjum
  0
TEXT
  8
PT1-Tabelka_rysu1
  6
CONTINUOUS
 62
     7
 10
310.934900000000030
 20
50.923499999999990
 40
1.797600000000000
  1
              w Rzerzęczycach
  0
LINE
  8
PT1-Tabelka_rysu1
  6
CONTINUOUS
 62
     7
 10
310.2293
 20
48.009199999999993
 11
380.7849
 21
48.009199999999993
  0
TEXT
  8
PT1-Tabelka_rysu1
  6
CONTINUOUS
 62
     7
 10
311.084700000000000
 20
45.506000000000000
 40
1.797600000000000
  1
Inwestor: Urząd Gminy w Kłomnicach
  0
TEXT
  8
PT1-Tabelka_rysu1
  6
CONTINUOUS
 62
     7
 10
311.084700000000000
 20
42.809599999999989
 40
1.797600000000000
  1
                ul. Strażacka 20, 42-270 Kłomnice
  0
LINE
  8
PT1-Tabelka_rysu1
  6
CONTINUOUS
 62
     7
 10
310.2293
 20
39.895299999999992
 11
380.7849
 21
39.895299999999992
  0
TEXT
  8
PT1-Tabelka_rysu1
  6
CONTINUOUS
 62
     7
 10
310.934900000000030
 20
37.981700000000018
 40
1.797600000000000
  1
Projektował: Beata Król-Stroba UAB-VIII/83861/102/90
  0
TEXT
  8
PT1-Tabelka_rysu1
  6
CONTINUOUS
 62
     7
 10
322.576500000000010
 20
53.619900000000001
 40
1.797600000000000
  1

  0
TEXT
  8
PT1-Tabelka_rysu1
  6
CONTINUOUS
 62
     7
 10
322.576500000000010
 20
41.978300000000019
 40
1.797600000000000
  1
 
  0
LINE
  8
PT1-Tabelka_rysu1
  6
CONTINUOUS
 62
     7
 10
310.2293
 20
24.373099999999994
 11
380.7849
 21
24.373099999999994
  0
TEXT
  8
PT1-Tabelka_rysu1
  6
CONTINUOUS
 62
     7
 10
310.934900000000030
 20
21.517099999999999
 40
1.797600000000000
  1

  0
TEXT
  8
PT1-Tabelka_rysu1
  6
CONTINUOUS
 62
     7
 10
310.858299999999990
 20
35.086700000000008
 40
1.797600000000000
  1
Sprawdził: Witold Dominik   -  Decyzja Nr 65
  0
TEXT
  8
PT1-Tabelka_rysu1
  6
CONTINUOUS
 62
     7
 10
310.942500000000000
 20
32.307200000000023
 40
1.797600000000000
  1
Opracował: Michał Urbańczyk
  0
TEXT
  8
PT1-Tabelka_rysu1
  6
CONTINUOUS
 62
     7
 10
310.986400000000000
 20
21.994200000000006
 40
1.797600000000000
  1
Nazwa rysunku:
  0
TEXT
  8
PT1-Tabelka_rysu1
  6
CONTINUOUS
 62
     7
 10
310.482399999999980
 20
13.227499999999964
 40
3.500000000000000
  1
PRZEKRÓJ E - E
  0
TEXT
  8
PT1-Tabelka_rysu1
  6
CONTINUOUS
 62
     7
 10
310.347600000000000
 20
17.991199999999992
 40
2.500000000000000
  1
PRZEKRÓJ PRZEZ KLUB MŁODZIEŻOWY
  0
ENDSEC
  0
EOF
