  0
SECTION
  2
HEADER
  9
$ACADVER
  1
AC1004
  9
$EXTMIN
 10
0.0
 20
0.0
  9
$EXTMAX
 10
570.000000000000000
 20
390.000000000000000
  9
$LIMMIN
 10
0.0
 20
0.0
  9
$LIMMAX
 10
570.000000000000000
 20
390.000000000000000
  9
$CLAYER
  8
PT2-Rzut2
  0
ENDSEC
  0
SECTION
  2
TABLES
  0
TABLE
  2
LTYPE
 70
11
  0
LTYPE
  2
CONTINUOUS
 70
     0
  3
Solid line
 72
    65
 73
     0
 40
     0.0
  0
LTYPE
  2
GESTRICHELT
 70
     0
  3
__ __ __ __ __ __ __ __ __ __ __ __ __ __ __
 72
    65
 73
     2
 40
     0.75
 49
0.5
 49
-0.25
  0
LTYPE
  2
VERDECKT
 70
     0
  3
_ _ _ _ _ _ _ _ _ _ _ _ _ _ _ _ _ _ _ _ _ _
 72
    65
 73
     2
 40
     0.25
 49
0.125
 49
-0.125
  0
LTYPE
  2
MITTELLINIE
 70
     0
  3
____ _ ____ _ ____ _ ____ _ ____ _ ____ _ __
 72
    65
 73
     4
 40
     2.0
 49
1.25
 49
-0.25
 49
0.25
 49
-0.25
  0
LTYPE
  2
PHANTOM
 70
     0
  3
_____ _ _ _____ _ _ _____ _ _ _____ _ _ ____
 72
    65
 73
     6
 40
     2.5
 49
1.25
 49
-0.25
 49
0.25
 49
-0.25
 49
0.25
 49
-0.25
  0
LTYPE
  2
PUNKTIERT
 70
     0
  3
............................................
 72
    65
 73
     2
 40
     0.25
 49
0.0
 49
-0.25
  0
LTYPE
  2
STRICHPUNKTIERT
 70
     0
  3
__ . __ . __ . __ . __ . __ . __ . __ . __ .
 72
    65
 73
     4
 40
     1.0
 49
0.5
 49
-0.25
 49
0.0
 49
-0.25
  0
LTYPE
  2
RAND
 70
     0
  3
__ __ . __ __ . __ __ . __ __ . __ __ . __ _
 72
    65
 73
     6
 40
     1.75
 49
0.5
 49
-0.25
 49
0.5
 49
-0.25
 49
0.0
 49
-0.25
  0
LTYPE
  2
TRENNLINIE
 70
     0
  3
__ . . __ . . __ . . __ . . __ . . __ . . __
 72
    65
 73
     6
 40
     1.25
 49
0.5
 49
-0.25
 49
0.0
 49
-0.25
 49
0.0
 49
-0.25
  0
LTYPE
  2
ENG_PUNKTIERT
 70
     0
  3
Schließen
 72
    65
 73
     2
 40
     0.1
 49
0.05
 49
-0.05
  0
LTYPE
  2
CLOSE
 70
     0
  3

 72
    65
 73
     0
 40
     0.0
  0
ENDTAB
  0
TABLE
  2
LAYER
 70
   21
  0
LAYER
  2
PT1-Tabelka_rysu1
 70
     0
 62
    -7
  6
CONTINUOUS
  0
LAYER
  2
PT2-Rzut2
 70
     0
 62
     7
  6
CONTINUOUS
  0
LAYER
  2
PT2-Kreskowanie3
 70
     0
 62
     7
  6
CONTINUOUS
  0
LAYER
  2
PT2-Okna_i_drzwi4
 70
     0
 62
     7
  6
CONTINUOUS
  0
LAYER
  2
PT2-Schody5
 70
     0
 62
     7
  6
CONTINUOUS
  0
LAYER
  2
PT2-Opis6
 70
     0
 62
     7
  6
CONTINUOUS
  0
LAYER
  2
PT2-Wymiarowanie7
 70
     0
 62
     7
  6
CONTINUOUS
  0
LAYER
  2
PT3-Rzut8
 70
     0
 62
    -7
  6
CONTINUOUS
  0
LAYER
  2
PT4-Rzut9
 70
     0
 62
    -7
  6
CONTINUOUS
  0
LAYER
  2
PT4-Kreskowanie10
 70
     0
 62
    -7
  6
CONTINUOUS
  0
LAYER
  2
PT4-Okna_i_drzwi11
 70
     0
 62
    -7
  6
CONTINUOUS
  0
LAYER
  2
PT4-Schody12
 70
     0
 62
    -7
  6
CONTINUOUS
  0
LAYER
  2
PT4-Dachy13
 70
     0
 62
    -7
  6
CONTINUOUS
  0
LAYER
  2
PT4-Konstrukcja_14
 70
     0
 62
    -7
  6
CONTINUOUS
  0
LAYER
  2
PT4-Podciąg15
 70
     0
 62
    -7
  6
CONTINUOUS
  0
LAYER
  2
PT4-Opis16
 70
     0
 62
    -7
  6
CONTINUOUS
  0
LAYER
  2
PT4-Wymiarowanie17
 70
     0
 62
    -7
  6
CONTINUOUS
  0
LAYER
  2
PT4-Wyposażenie18
 70
     0
 62
    -7
  6
CONTINUOUS
  0
LAYER
  2
PT4-Symbole_prze19
 70
     0
 62
    -7
  6
CONTINUOUS
  0
LAYER
  2
PT4-Linie_pomocn20
 70
     0
 62
    -7
  6
CONTINUOUS
  0
LAYER
  2
PT4-Grafika_2D21
 70
     0
 62
    -7
  6
CONTINUOUS
  0
ENDTAB
  0
TABLE
  2
STYLE
 70
    1
  0
STYLE
  2
STANDARD
 70
    0
 40
0.0
 41
1.0
 50
0.0
71
     0
 42
0.2
  3
txt
  4

  0
ENDTAB
  0
ENDSEC
  0
SECTION
  2
ENTITIES
  0
POLYLINE
  8
PT1-Tabelka_rysu1
  6
CONTINUOUS
 62
     7
 66
     1
 70
     1
  0
VERTEX
  8
PT1-Tabelka_rysu1
 10
560.1662
 20
8.357799999999998
  0
VERTEX
  8
PT1-Tabelka_rysu1
 10
561.2245
 20
8.357799999999998
  0
VERTEX
  8
PT1-Tabelka_rysu1
 10
561.2245
 20
69.388399999999990
  0
VERTEX
  8
PT1-Tabelka_rysu1
 10
560.1662
 20
69.388399999999990
  0
SEQEND
  8
PT1-Tabelka_rysu1
  0
LINE
  8
PT1-Tabelka_rysu1
  6
CONTINUOUS
 62
     7
 10
560.1662
 20
9.416099999999972
 11
560.1662
 21
70.446700000000021
  0
LINE
  8
PT1-Tabelka_rysu1
  6
CONTINUOUS
 62
     7
 10
560.1662
 20
70.446700000000021
 11
488.1995
 21
70.446700000000021
  0
LINE
  8
PT1-Tabelka_rysu1
  6
CONTINUOUS
 62
     7
 10
488.1995
 20
9.416099999999972
 11
488.1995
 21
70.446700000000021
  0
POLYLINE
  8
PT2-Kreskowanie3
  6
CONTINUOUS
 62
     7
 66
     1
 70
     1
  0
VERTEX
  8
PT2-Kreskowanie3
 10
67.1683
 20
241.745499999999990
  0
VERTEX
  8
PT2-Kreskowanie3
 10
59.9683
 20
248.945500000000010
  0
VERTEX
  8
PT2-Kreskowanie3
 10
59.9683
 20
88.945499999999981
  0
VERTEX
  8
PT2-Kreskowanie3
 10
67.1683
 20
96.145500000000027
  0
SEQEND
  8
PT2-Kreskowanie3
  0
POLYLINE
  8
PT2-Kreskowanie3
  6
CONTINUOUS
 62
     7
 66
     1
 70
     1
  0
VERTEX
  8
PT2-Kreskowanie3
 10
67.1683
 20
96.145500000000027
  0
VERTEX
  8
PT2-Kreskowanie3
 10
59.9683
 20
88.945499999999981
  0
VERTEX
  8
PT2-Kreskowanie3
 10
264.9683
 20
88.945499999999981
  0
VERTEX
  8
PT2-Kreskowanie3
 10
257.7683
 20
96.145500000000027
  0
SEQEND
  8
PT2-Kreskowanie3
  0
LINE
  8
PT2-Rzut2
  6
CONTINUOUS
 62
     7
 10
125.0683
 20
159.745499999999990
 11
125.0683
 21
154.045500000000000
  0
LINE
  8
PT2-Rzut2
  6
CONTINUOUS
 62
     7
 10
116.0683
 20
159.745499999999990
 11
116.0683
 21
154.045500000000000
  0
LINE
  8
PT2-Rzut2
  6
CONTINUOUS
 62
     7
 10
125.0683
 20
159.745499999999990
 11
125.0683
 21
154.045500000000000
  0
LINE
  8
PT2-Rzut2
  6
CONTINUOUS
 62
     7
 10
116.0683
 20
159.745499999999990
 11
116.0683
 21
154.045500000000000
  0
POLYLINE
  8
PT2-Kreskowanie3
  6
CONTINUOUS
 62
     7
 66
     1
 70
     1
  0
VERTEX
  8
PT2-Kreskowanie3
 10
257.7683
 20
154.045500000000000
  0
VERTEX
  8
PT2-Kreskowanie3
 10
257.7683
 20
159.745499999999990
  0
VERTEX
  8
PT2-Kreskowanie3
 10
125.0683
 20
159.745499999999990
  0
VERTEX
  8
PT2-Kreskowanie3
 10
125.0683
 20
154.045500000000000
  0
SEQEND
  8
PT2-Kreskowanie3
  0
POLYLINE
  8
PT2-Kreskowanie3
  6
CONTINUOUS
 62
     7
 66
     1
 70
     1
  0
VERTEX
  8
PT2-Kreskowanie3
 10
116.0683
 20
154.045500000000000
  0
VERTEX
  8
PT2-Kreskowanie3
 10
116.0683
 20
159.745499999999990
  0
VERTEX
  8
PT2-Kreskowanie3
 10
67.1683
 20
159.745499999999990
  0
VERTEX
  8
PT2-Kreskowanie3
 10
67.1683
 20
154.045500000000000
  0
SEQEND
  8
PT2-Kreskowanie3
  0
ARC
  8
PT2-Okna_i_drzwi4
  6
CONTINUOUS
 62
     7
 10
125.068299999999990
 20
154.045500000000000
 40
9.000000000000000
 50
180.000000000000000
 51
270.000000000000000
  0
LINE
  8
PT2-Okna_i_drzwi4
  6
CONTINUOUS
 62
     7
 10
125.0683
 20
145.045500000000000
 11
125.0683
 21
154.045500000000000
  0
TEXT
  8
PT2-Wymiarowanie7
  6
CONTINUOUS
 62
     7
 10
119.356800000000010
 20
143.778200000000000
 40
2.022300000000000
 50
90.000000000000000
  1
90
  0
TEXT
  8
PT2-Wymiarowanie7
  6
CONTINUOUS
 62
     7
 10
123.237399999999990
 20
143.072599999999990
 40
2.022300000000000
 50
90.000000000000000
  1
198
  0
LINE
  8
PT2-Wymiarowanie7
  6
CONTINUOUS
 62
     7
 10
120.5683
 20
156.895500000000000
 11
120.5683
 21
139.770500000000000
  0
POLYLINE
  8
PT2-Kreskowanie3
  6
CONTINUOUS
 62
     7
 66
     1
 70
     1
  0
VERTEX
  8
PT2-Kreskowanie3
 10
147.5683
 20
96.145500000000027
  0
VERTEX
  8
PT2-Kreskowanie3
 10
153.0683
 20
96.145500000000027
  0
VERTEX
  8
PT2-Kreskowanie3
 10
153.0683
 20
154.045500000000000
  0
VERTEX
  8
PT2-Kreskowanie3
 10
147.5683
 20
154.045500000000000
  0
SEQEND
  8
PT2-Kreskowanie3
  0
POLYLINE
  8
PT2-Kreskowanie3
  6
CONTINUOUS
 62
     7
 66
     1
 70
     1
  0
VERTEX
  8
PT2-Kreskowanie3
 10
171.2683
 20
96.145500000000027
  0
VERTEX
  8
PT2-Kreskowanie3
 10
176.7683
 20
96.145500000000027
  0
VERTEX
  8
PT2-Kreskowanie3
 10
176.7683
 20
154.045500000000000
  0
VERTEX
  8
PT2-Kreskowanie3
 10
171.2683
 20
154.045500000000000
  0
SEQEND
  8
PT2-Kreskowanie3
  0
POLYLINE
  8
PT2-Kreskowanie3
  6
CONTINUOUS
 62
     7
 66
     1
 70
     1
  0
VERTEX
  8
PT2-Kreskowanie3
 10
125.5683
 20
159.745499999999990
  0
VERTEX
  8
PT2-Kreskowanie3
 10
131.0683
 20
159.745499999999990
  0
VERTEX
  8
PT2-Kreskowanie3
 10
131.0683
 20
241.745499999999990
  0
VERTEX
  8
PT2-Kreskowanie3
 10
125.5683
 20
241.745499999999990
  0
SEQEND
  8
PT2-Kreskowanie3
  0
LINE
  8
PT2-Rzut2
  6
CONTINUOUS
 62
     7
 10
125.0657
 20
184.645500000000000
 11
125.0657
 21
178.945500000000010
  0
LINE
  8
PT2-Rzut2
  6
CONTINUOUS
 62
     7
 10
116.0657
 20
184.645500000000000
 11
116.0657
 21
178.945500000000010
  0
LINE
  8
PT2-Rzut2
  6
CONTINUOUS
 62
     7
 10
125.0657
 20
184.645500000000000
 11
125.0657
 21
178.945500000000010
  0
LINE
  8
PT2-Rzut2
  6
CONTINUOUS
 62
     7
 10
116.0657
 20
184.645500000000000
 11
116.0657
 21
178.945500000000010
  0
POLYLINE
  8
PT2-Kreskowanie3
  6
CONTINUOUS
 62
     7
 66
     1
 70
     1
  0
VERTEX
  8
PT2-Kreskowanie3
 10
125.5683
 20
178.945500000000010
  0
VERTEX
  8
PT2-Kreskowanie3
 10
125.5683
 20
184.645500000000000
  0
VERTEX
  8
PT2-Kreskowanie3
 10
125.0657
 20
184.645500000000000
  0
VERTEX
  8
PT2-Kreskowanie3
 10
125.0657
 20
178.945500000000010
  0
SEQEND
  8
PT2-Kreskowanie3
  0
POLYLINE
  8
PT2-Kreskowanie3
  6
CONTINUOUS
 62
     7
 66
     1
 70
     1
  0
VERTEX
  8
PT2-Kreskowanie3
 10
116.0657
 20
178.945500000000010
  0
VERTEX
  8
PT2-Kreskowanie3
 10
116.0657
 20
184.645500000000000
  0
VERTEX
  8
PT2-Kreskowanie3
 10
67.1683
 20
184.645500000000000
  0
VERTEX
  8
PT2-Kreskowanie3
 10
67.1683
 20
178.945500000000010
  0
SEQEND
  8
PT2-Kreskowanie3
  0
ARC
  8
PT2-Okna_i_drzwi4
  6
CONTINUOUS
 62
     7
 10
125.065700000000010
 20
184.645500000000000
 40
9.000000000000000
 50
90.000000000000000
 51
180.000000000000000
  0
LINE
  8
PT2-Okna_i_drzwi4
  6
CONTINUOUS
 62
     7
 10
125.0657
 20
193.645500000000000
 11
125.0657
 21
184.645500000000000
  0
TEXT
  8
PT2-Wymiarowanie7
  6
CONTINUOUS
 62
     7
 10
119.354200000000010
 20
192.928200000000000
 40
2.022300000000000
 50
90.000000000000000
  1
90
  0
TEXT
  8
PT2-Wymiarowanie7
  6
CONTINUOUS
 62
     7
 10
123.234700000000000
 20
192.222700000000000
 40
2.022300000000000
 50
90.000000000000000
  1
198
  0
LINE
  8
PT2-Wymiarowanie7
  6
CONTINUOUS
 62
     7
 10
120.5657
 20
181.795500000000000
 11
120.5657
 21
198.920500000000000
  0
POLYLINE
  8
PT2-Kreskowanie3
  6
CONTINUOUS
 62
     7
 66
     1
 70
     1
  0
VERTEX
  8
PT2-Kreskowanie3
 10
154.5183
 20
248.945500000000010
  0
VERTEX
  8
PT2-Kreskowanie3
 10
160.0183
 20
241.745399999999990
  0
VERTEX
  8
PT2-Kreskowanie3
 10
160.0483
 20
357.435999999999980
  0
VERTEX
  8
PT2-Kreskowanie3
 10
154.5183
 20
359.501800000000000
  0
SEQEND
  8
PT2-Kreskowanie3
  0
POLYLINE
  8
PT2-Kreskowanie3
  6
CONTINUOUS
 62
     7
 66
     1
 70
     1
  0
VERTEX
  8
PT2-Kreskowanie3
 10
192.6683
 20
248.941300000000010
  0
VERTEX
  8
PT2-Kreskowanie3
 10
198.1683
 20
241.744300000000010
  0
VERTEX
  8
PT2-Kreskowanie3
 10
198.1683
 20
301.945499999999980
  0
VERTEX
  8
PT2-Kreskowanie3
 10
192.6683
 20
307.445499999999980
  0
SEQEND
  8
PT2-Kreskowanie3
  0
POLYLINE
  8
PT2-Kreskowanie3
  6
CONTINUOUS
 62
     7
 66
     1
 70
     1
  0
VERTEX
  8
PT2-Kreskowanie3
 10
192.6683
 20
307.445499999999980
  0
VERTEX
  8
PT2-Kreskowanie3
 10
198.1683
 20
301.945499999999980
  0
VERTEX
  8
PT2-Kreskowanie3
 10
259.4717
 20
301.945600000000010
  0
VERTEX
  8
PT2-Kreskowanie3
 10
259.472
 20
307.445600000000010
  0
SEQEND
  8
PT2-Kreskowanie3
  0
POLYLINE
  8
PT2-Kreskowanie3
  6
CONTINUOUS
 62
     7
 66
     1
 70
     1
  0
VERTEX
  8
PT2-Kreskowanie3
 10
59.9683
 20
248.945500000000010
  0
VERTEX
  8
PT2-Kreskowanie3
 10
67.1683
 20
241.745499999999990
  0
VERTEX
  8
PT2-Kreskowanie3
 10
160.0183
 20
241.745399999999990
  0
VERTEX
  8
PT2-Kreskowanie3
 10
154.5183
 20
248.945500000000010
  0
SEQEND
  8
PT2-Kreskowanie3
  0
POLYLINE
  8
PT2-Kreskowanie3
  6
CONTINUOUS
 62
     7
 66
     1
 70
     1
  0
VERTEX
  8
PT2-Kreskowanie3
 10
160.0183
 20
248.945400000000010
  0
VERTEX
  8
PT2-Kreskowanie3
 10
160.0183
 20
241.745399999999990
  0
VERTEX
  8
PT2-Kreskowanie3
 10
198.1683
 20
241.744300000000010
  0
VERTEX
  8
PT2-Kreskowanie3
 10
192.6683
 20
248.941300000000010
  0
SEQEND
  8
PT2-Kreskowanie3
  0
POLYLINE
  8
PT2-Kreskowanie3
  6
CONTINUOUS
 62
     7
 66
     1
 70
     1
  0
VERTEX
  8
PT2-Kreskowanie3
 10
257.7683
 20
96.145500000000027
  0
VERTEX
  8
PT2-Kreskowanie3
 10
264.9683
 20
88.945499999999981
  0
VERTEX
  8
PT2-Kreskowanie3
 10
264.9683
 20
248.944300000000000
  0
VERTEX
  8
PT2-Kreskowanie3
 10
257.7683
 20
241.744300000000010
  0
SEQEND
  8
PT2-Kreskowanie3
  0
POLYLINE
  8
PT2-Kreskowanie3
  6
CONTINUOUS
 62
     7
 66
     1
 70
     1
  0
VERTEX
  8
PT2-Kreskowanie3
 10
257.7683
 20
241.744300000000010
  0
VERTEX
  8
PT2-Kreskowanie3
 10
264.9683
 20
248.944300000000000
  0
VERTEX
  8
PT2-Kreskowanie3
 10
198.1683
 20
248.944300000000000
  0
VERTEX
  8
PT2-Kreskowanie3
 10
198.1683
 20
241.744300000000010
  0
SEQEND
  8
PT2-Kreskowanie3
  0
LINE
  8
PT2-Rzut2
  6
CONTINUOUS
 62
     7
 10
116.0183
 20
215.451799999999990
 11
116.0179
 21
218.451799999999990
  0
LINE
  8
PT2-Rzut2
  6
CONTINUOUS
 62
     7
 10
125.0183
 20
215.452900000000000
 11
125.0179
 21
218.452900000000000
  0
LINE
  8
PT2-Rzut2
  6
CONTINUOUS
 62
     7
 10
116.0183
 20
215.451799999999990
 11
116.0179
 21
218.451799999999990
  0
LINE
  8
PT2-Rzut2
  6
CONTINUOUS
 62
     7
 10
125.0183
 20
215.452900000000000
 11
125.0179
 21
218.452900000000000
  0
POLYLINE
  8
PT2-Kreskowanie3
  6
CONTINUOUS
 62
     7
 66
     1
 70
     1
  0
VERTEX
  8
PT2-Kreskowanie3
 10
67.1683
 20
218.445600000000010
  0
VERTEX
  8
PT2-Kreskowanie3
 10
67.1683
 20
215.445600000000010
  0
VERTEX
  8
PT2-Kreskowanie3
 10
116.0183
 20
215.451799999999990
  0
VERTEX
  8
PT2-Kreskowanie3
 10
116.0179
 20
218.451799999999990
  0
SEQEND
  8
PT2-Kreskowanie3
  0
POLYLINE
  8
PT2-Kreskowanie3
  6
CONTINUOUS
 62
     7
 66
     1
 70
     1
  0
VERTEX
  8
PT2-Kreskowanie3
 10
125.0179
 20
218.452900000000000
  0
VERTEX
  8
PT2-Kreskowanie3
 10
125.0183
 20
215.452900000000000
  0
VERTEX
  8
PT2-Kreskowanie3
 10
125.5683
 20
215.453000000000000
  0
VERTEX
  8
PT2-Kreskowanie3
 10
125.5683
 20
218.453000000000000
  0
SEQEND
  8
PT2-Kreskowanie3
  0
ARC
  8
PT2-Okna_i_drzwi4
  6
CONTINUOUS
 62
     7
 10
125.017900000000000
 20
218.452900000000000
 40
9.000000000000000
 50
90.007300000000001
 51
180.007299999999990
  0
LINE
  8
PT2-Okna_i_drzwi4
  6
CONTINUOUS
 62
     7
 10
125.0168
 20
227.452900000000000
 11
125.0179
 21
218.452900000000000
  0
TEXT
  8
PT2-Wymiarowanie7
  6
CONTINUOUS
 62
     7
 10
119.305700000000000
 20
224.709800000000000
 40
2.022300000000000
 50
90.007300000000001
  1
90
  0
TEXT
  8
PT2-Wymiarowanie7
  6
CONTINUOUS
 62
     7
 10
123.186300000000000
 20
224.004799999999990
 40
2.022300000000000
 50
90.007300000000001
  1
198
  0
LINE
  8
PT2-Wymiarowanie7
  6
CONTINUOUS
 62
     7
 10
120.5181
 20
216.952300000000010
 11
120.5163
 21
230.702300000000010
  0
POLYLINE
  8
PT2-Kreskowanie3
  6
CONTINUOUS
 62
     7
 66
     1
 70
     1
  0
VERTEX
  8
PT2-Kreskowanie3
 10
131.0683
 20
154.045500000000000
  0
VERTEX
  8
PT2-Kreskowanie3
 10
125.5683
 20
154.045500000000000
  0
VERTEX
  8
PT2-Kreskowanie3
 10
125.5609
 20
96.145500000000027
  0
VERTEX
  8
PT2-Kreskowanie3
 10
131.0609
 20
96.145500000000027
  0
SEQEND
  8
PT2-Kreskowanie3
  0
POLYLINE
  8
PT2-Kreskowanie3
  6
CONTINUOUS
 62
     7
 66
     1
 70
     1
  0
VERTEX
  8
PT2-Kreskowanie3
 10
193.1683
 20
159.745499999999990
  0
VERTEX
  8
PT2-Kreskowanie3
 10
198.6683
 20
159.745499999999990
  0
VERTEX
  8
PT2-Kreskowanie3
 10
198.6578
 20
241.744300000000010
  0
VERTEX
  8
PT2-Kreskowanie3
 10
193.1578
 20
241.743599999999990
  0
SEQEND
  8
PT2-Kreskowanie3
  0
POLYLINE
  8
PT2-Kreskowanie3
  6
CONTINUOUS
 62
     7
 66
     1
 70
     1
  0
VERTEX
  8
PT2-Kreskowanie3
 10
259.4683
 20
248.944300000000000
  0
VERTEX
  8
PT2-Kreskowanie3
 10
264.9683
 20
248.944300000000000
  0
VERTEX
  8
PT2-Kreskowanie3
 10
264.9444
 20
318.249900000000030
  0
VERTEX
  8
PT2-Kreskowanie3
 10
259.4728
 20
320.307400000000030
  0
SEQEND
  8
PT2-Kreskowanie3
  0
POLYLINE
  8
PT2-Kreskowanie3
  6
CONTINUOUS
 62
     7
 66
     1
 70
     1
  0
VERTEX
  8
PT2-Kreskowanie3
 10
104.1272
 20
169.544900000000010
  0
VERTEX
  8
PT2-Kreskowanie3
 10
104.1272
 20
170.744900000000000
  0
VERTEX
  8
PT2-Kreskowanie3
 10
79.4089
 20
170.744900000000000
  0
VERTEX
  8
PT2-Kreskowanie3
 10
79.4089
 20
169.544900000000010
  0
SEQEND
  8
PT2-Kreskowanie3
  0
POLYLINE
  8
PT2-Kreskowanie3
  6
CONTINUOUS
 62
     7
 66
     1
 70
     1
  0
VERTEX
  8
PT2-Kreskowanie3
 10
80.6089
 20
169.544900000000010
  0
VERTEX
  8
PT2-Kreskowanie3
 10
79.4089
 20
169.544900000000010
  0
VERTEX
  8
PT2-Kreskowanie3
 10
79.4083
 20
159.745499999999990
  0
VERTEX
  8
PT2-Kreskowanie3
 10
80.6083
 20
159.745499999999990
  0
SEQEND
  8
PT2-Kreskowanie3
  0
LINE
  8
PT2-Rzut2
  6
CONTINUOUS
 62
     7
 10
59.9683
 20
248.948000000000010
 11
59.9683
 21
88.945499999999981
  0
LINE
  8
PT2-Rzut2
  6
CONTINUOUS
 62
     7
 10
59.9658
 20
88.945499999999981
 11
264.9683
 21
88.945499999999981
  0
LINE
  8
PT2-Rzut2
  6
CONTINUOUS
 62
     7
 10
264.9683
 20
88.942999999999984
 11
264.9683
 21
248.944300000000000
  0
LINE
  8
PT2-Rzut2
  6
CONTINUOUS
 62
     7
 10
264.9683
 20
248.941800000000000
 11
264.9727
 21
318.239300000000010
  0
LINE
  8
PT2-Rzut2
  6
CONTINUOUS
 62
     7
 10
259.4728
 20
320.293900000000010
 11
259.472
 21
307.445600000000010
  0
LINE
  8
PT2-Rzut2
  6
CONTINUOUS
 62
     7
 10
259.4745
 20
307.445600000000010
 11
192.6683
 21
307.445499999999980
  0
LINE
  8
PT2-Rzut2
  6
CONTINUOUS
 62
     7
 10
192.6683
 20
307.447999999999980
 11
192.6683
 21
248.941300000000010
  0
LINE
  8
PT2-Rzut2
  6
CONTINUOUS
 62
     7
 10
192.6708
 20
248.941300000000010
 11
160.0183
 21
248.945400000000010
  0
LINE
  8
PT2-Rzut2
  6
CONTINUOUS
 62
     7
 10
160.0183
 20
248.942900000000010
 11
160.0183
 21
357.447200000000010
  0
LINE
  8
PT2-Rzut2
  6
CONTINUOUS
 62
     7
 10
154.5183
 20
359.501800000000000
 11
154.5183
 21
248.945500000000010
  0
LINE
  8
PT2-Rzut2
  6
CONTINUOUS
 62
     7
 10
154.5208
 20
248.945500000000010
 11
59.9683
 21
248.945500000000010
  0
LINE
  8
PT2-Rzut2
  6
CONTINUOUS
 62
     7
 10
67.1683
 20
96.142999999999972
 11
67.1683
 21
154.045500000000000
  0
LINE
  8
PT2-Rzut2
  6
CONTINUOUS
 62
     7
 10
67.1658
 20
154.045500000000000
 11
116.0683
 21
154.045500000000000
  0
LINE
  8
PT2-Rzut2
  6
CONTINUOUS
 62
     7
 10
125.0683
 20
154.045500000000000
 11
125.5683
 21
154.045500000000000
  0
LINE
  8
PT2-Rzut2
  6
CONTINUOUS
 62
     7
 10
125.5683
 20
154.048000000000000
 11
125.5609
 21
96.145500000000027
  0
LINE
  8
PT2-Rzut2
  6
CONTINUOUS
 62
     7
 10
125.5634
 20
96.145500000000027
 11
67.1683
 21
96.145500000000027
  0
LINE
  8
PT2-Rzut2
  6
CONTINUOUS
 62
     7
 10
67.1683
 20
159.742999999999990
 11
67.1683
 21
178.945500000000010
  0
LINE
  8
PT2-Rzut2
  6
CONTINUOUS
 62
     7
 10
67.1658
 20
178.945500000000010
 11
116.0657
 21
178.945500000000010
  0
LINE
  8
PT2-Rzut2
  6
CONTINUOUS
 62
     7
 10
125.0657
 20
178.945500000000010
 11
125.5683
 21
178.945500000000010
  0
LINE
  8
PT2-Rzut2
  6
CONTINUOUS
 62
     7
 10
125.5683
 20
178.948000000000010
 11
125.5683
 21
159.745499999999990
  0
LINE
  8
PT2-Rzut2
  6
CONTINUOUS
 62
     7
 10
125.5708
 20
159.745499999999990
 11
125.0683
 21
159.745499999999990
  0
LINE
  8
PT2-Rzut2
  6
CONTINUOUS
 62
     7
 10
116.0683
 20
159.745499999999990
 11
80.6083
 21
159.745499999999990
  0
LINE
  8
PT2-Rzut2
  6
CONTINUOUS
 62
     7
 10
80.6083
 20
159.742999999999990
 11
80.6089
 21
169.544900000000010
  0
LINE
  8
PT2-Rzut2
  6
CONTINUOUS
 62
     7
 10
80.6064
 20
169.544900000000010
 11
104.1272
 21
169.544900000000010
  0
LINE
  8
PT2-Rzut2
  6
CONTINUOUS
 62
     7
 10
104.1272
 20
169.542399999999990
 11
104.1272
 21
170.744900000000000
  0
LINE
  8
PT2-Rzut2
  6
CONTINUOUS
 62
     7
 10
104.1297
 20
170.744900000000000
 11
79.4089
 21
170.744900000000000
  0
LINE
  8
PT2-Rzut2
  6
CONTINUOUS
 62
     7
 10
79.4089
 20
170.747400000000000
 11
79.4083
 21
159.745499999999990
  0
LINE
  8
PT2-Rzut2
  6
CONTINUOUS
 62
     7
 10
79.4108
 20
159.745499999999990
 11
67.1683
 21
159.745499999999990
  0
LINE
  8
PT2-Rzut2
  6
CONTINUOUS
 62
     7
 10
67.1683
 20
184.643000000000000
 11
67.1683
 21
215.445600000000010
  0
LINE
  8
PT2-Rzut2
  6
CONTINUOUS
 62
     7
 10
67.1658
 20
215.445500000000010
 11
116.0183
 21
215.451799999999990
  0
LINE
  8
PT2-Rzut2
  6
CONTINUOUS
 62
     7
 10
125.0183
 20
215.452900000000000
 11
125.5683
 21
215.453000000000000
  0
LINE
  8
PT2-Rzut2
  6
CONTINUOUS
 62
     7
 10
125.5683
 20
215.455500000000000
 11
125.5683
 21
184.645500000000000
  0
LINE
  8
PT2-Rzut2
  6
CONTINUOUS
 62
     7
 10
125.5708
 20
184.645500000000000
 11
125.0657
 21
184.645500000000000
  0
LINE
  8
PT2-Rzut2
  6
CONTINUOUS
 62
     7
 10
116.0657
 20
184.645500000000000
 11
67.1683
 21
184.645500000000000
  0
LINE
  8
PT2-Rzut2
  6
CONTINUOUS
 62
     7
 10
67.1683
 20
218.443000000000010
 11
67.1683
 21
241.745499999999990
  0
LINE
  8
PT2-Rzut2
  6
CONTINUOUS
 62
     7
 10
67.1658
 20
241.745499999999990
 11
125.5683
 21
241.745499999999990
  0
LINE
  8
PT2-Rzut2
  6
CONTINUOUS
 62
     7
 10
125.5683
 20
241.747999999999990
 11
125.5683
 21
218.453000000000000
  0
LINE
  8
PT2-Rzut2
  6
CONTINUOUS
 62
     7
 10
125.5708
 20
218.453000000000000
 11
125.0179
 21
218.452900000000000
  0
LINE
  8
PT2-Rzut2
  6
CONTINUOUS
 62
     7
 10
116.0179
 20
218.451799999999990
 11
67.1683
 21
218.445600000000010
  0
LINE
  8
PT2-Rzut2
  6
CONTINUOUS
 62
     7
 10
257.7708
 20
96.145500000000027
 11
176.7683
 21
96.145500000000027
  0
LINE
  8
PT2-Rzut2
  6
CONTINUOUS
 62
     7
 10
176.7683
 20
96.142999999999972
 11
176.7683
 21
154.045500000000000
  0
LINE
  8
PT2-Rzut2
  6
CONTINUOUS
 62
     7
 10
176.7658
 20
154.045500000000000
 11
257.7683
 21
154.045500000000000
  0
LINE
  8
PT2-Rzut2
  6
CONTINUOUS
 62
     7
 10
257.7683
 20
154.048000000000000
 11
257.7683
 21
96.145500000000027
  0
LINE
  8
PT2-Rzut2
  6
CONTINUOUS
 62
     7
 10
171.2708
 20
96.145500000000027
 11
153.0683
 21
96.145500000000027
  0
LINE
  8
PT2-Rzut2
  6
CONTINUOUS
 62
     7
 10
153.0683
 20
96.142999999999972
 11
153.0683
 21
154.045500000000000
  0
LINE
  8
PT2-Rzut2
  6
CONTINUOUS
 62
     7
 10
153.0658
 20
154.045500000000000
 11
171.2683
 21
154.045500000000000
  0
LINE
  8
PT2-Rzut2
  6
CONTINUOUS
 62
     7
 10
171.2683
 20
154.048000000000000
 11
171.2683
 21
96.145500000000027
  0
LINE
  8
PT2-Rzut2
  6
CONTINUOUS
 62
     7
 10
147.5708
 20
96.145500000000027
 11
131.0609
 21
96.145500000000027
  0
LINE
  8
PT2-Rzut2
  6
CONTINUOUS
 62
     7
 10
131.0609
 20
96.142999999999972
 11
131.0683
 21
154.045500000000000
  0
LINE
  8
PT2-Rzut2
  6
CONTINUOUS
 62
     7
 10
131.0658
 20
154.045500000000000
 11
147.5683
 21
154.045500000000000
  0
LINE
  8
PT2-Rzut2
  6
CONTINUOUS
 62
     7
 10
147.5683
 20
154.048000000000000
 11
147.5683
 21
96.145500000000027
  0
LINE
  8
PT2-Rzut2
  6
CONTINUOUS
 62
     7
 10
257.7708
 20
159.745499999999990
 11
198.6683
 21
159.745499999999990
  0
LINE
  8
PT2-Rzut2
  6
CONTINUOUS
 62
     7
 10
198.6683
 20
159.742999999999990
 11
198.6578
 21
241.744300000000010
  0
LINE
  8
PT2-Rzut2
  6
CONTINUOUS
 62
     7
 10
198.6553
 20
241.744300000000010
 11
257.7683
 21
241.744300000000010
  0
LINE
  8
PT2-Rzut2
  6
CONTINUOUS
 62
     7
 10
257.7683
 20
241.746800000000010
 11
257.7683
 21
159.745499999999990
  0
LINE
  8
PT2-Rzut2
  6
CONTINUOUS
 62
     7
 10
193.1708
 20
159.745499999999990
 11
131.0683
 21
159.745499999999990
  0
LINE
  8
PT2-Rzut2
  6
CONTINUOUS
 62
     7
 10
131.0683
 20
159.742999999999990
 11
131.0683
 21
241.745499999999990
  0
LINE
  8
PT2-Rzut2
  6
CONTINUOUS
 62
     7
 10
131.0658
 20
241.745499999999990
 11
193.1578
 21
241.743599999999990
  0
LINE
  8
PT2-Rzut2
  6
CONTINUOUS
 62
     7
 10
193.1578
 20
241.746100000000010
 11
193.1683
 21
159.745499999999990
  0
LINE
  8
PT2-Rzut2
  6
CONTINUOUS
 62
     7
 10
198.1683
 20
248.941800000000000
 11
198.1683
 21
301.945499999999980
  0
LINE
  8
PT2-Rzut2
  6
CONTINUOUS
 62
     7
 10
198.1658
 20
301.945499999999980
 11
259.4717
 21
301.945600000000010
  0
LINE
  8
PT2-Rzut2
  6
CONTINUOUS
 62
     7
 10
259.4717
 20
301.948100000000010
 11
259.4683
 21
248.944300000000000
  0
LINE
  8
PT2-Rzut2
  6
CONTINUOUS
 62
     7
 10
259.4708
 20
248.944300000000000
 11
198.1683
 21
248.944300000000000
  0
LINE
  8
PT2-Rzut2
  6
CONTINUOUS
 62
     7
 10
298.4683
 20
183.693000000000010
 11
298.4683
 21
244.445500000000010
  0
LINE
  8
PT2-Rzut2
  6
CONTINUOUS
 62
     7
 10
298.4658
 20
244.445500000000010
 11
326.7183
 21
244.445500000000010
  0
LINE
  8
PT2-Rzut2
  6
CONTINUOUS
 62
     7
 10
326.7183
 20
244.448000000000010
 11
326.7183
 21
183.695500000000010
  0
LINE
  8
PT2-Rzut2
  6
CONTINUOUS
 62
     7
 10
326.7208
 20
183.695500000000010
 11
298.4683
 21
183.695500000000010
  0
LINE
  8
PT2-Rzut2
  6
CONTINUOUS
 62
     7
 10
294.4683
 20
248.448000000000010
 11
294.4683
 21
183.695500000000010
  0
LINE
  8
PT2-Rzut2
  6
CONTINUOUS
 62
     7
 10
294.4708
 20
183.695500000000010
 11
265.1683
 21
183.695500000000010
  0
LINE
  8
PT2-Rzut2
  6
CONTINUOUS
 62
     7
 10
265.1683
 20
183.698000000000010
 11
265.1799
 21
88.744199999999978
  0
LINE
  8
PT2-Rzut2
  6
CONTINUOUS
 62
     7
 10
265.1824
 20
88.744199999999978
 11
263.5666
 21
88.743699999999990
  0
LINE
  8
PT2-Rzut2
  6
CONTINUOUS
 62
     7
 10
263.5666
 20
88.746199999999988
 11
263.5683
 21
83.433499999999981
  0
LINE
  8
PT2-Rzut2
  6
CONTINUOUS
 62
     7
 10
263.5658
 20
83.433899999999994
 11
300.7679
 21
83.445800000000020
  0
LINE
  8
PT2-Rzut2
  6
CONTINUOUS
 62
     7
 10
300.7679
 20
83.443300000000022
 11
300.7675
 21
89.445899999999995
  0
LINE
  8
PT2-Rzut2
  6
CONTINUOUS
 62
     7
 10
300.765
 20
89.445899999999995
 11
463.9683
 21
89.466700000000003
  0
LINE
  8
PT2-Rzut2
  6
CONTINUOUS
 62
     7
 10
463.9683
 20
89.469200000000001
 11
463.9683
 21
89.445499999999981
  0
LINE
  8
PT2-Rzut2
  6
CONTINUOUS
 62
     7
 10
463.9658
 20
89.445499999999981
 11
467.9683
 21
89.445499999999981
  0
LINE
  8
PT2-Rzut2
  6
CONTINUOUS
 62
     7
 10
467.9683
 20
89.442999999999984
 11
467.9683
 21
248.445500000000010
  0
LINE
  8
PT2-Rzut2
  6
CONTINUOUS
 62
     7
 10
467.9708
 20
248.445500000000010
 11
294.4683
 21
248.445500000000010
  0
LINE
  8
PT2-Rzut2
  6
CONTINUOUS
 62
     7
 10
330.7158
 20
244.445500000000010
 11
463.9683
 21
244.445500000000010
  0
LINE
  8
PT2-Rzut2
  6
CONTINUOUS
 62
     7
 10
463.9683
 20
244.448000000000010
 11
463.9683
 21
183.695500000000010
  0
LINE
  8
PT2-Rzut2
  6
CONTINUOUS
 62
     7
 10
463.9708
 20
183.695500000000010
 11
330.7183
 21
183.695500000000010
  0
LINE
  8
PT2-Rzut2
  6
CONTINUOUS
 62
     7
 10
330.7183
 20
183.693000000000010
 11
330.7183
 21
244.445500000000010
  0
LINE
  8
PT2-Rzut2
  6
CONTINUOUS
 62
     7
 10
463.9683
 20
179.698000000000010
 11
463.9683
 21
158.395500000000000
  0
LINE
  8
PT2-Rzut2
  6
CONTINUOUS
 62
     7
 10
463.9708
 20
158.395500000000000
 11
269.171
 21
158.370700000000000
  0
LINE
  8
PT2-Rzut2
  6
CONTINUOUS
 62
     7
 10
269.171
 20
158.368200000000000
 11
269.1683
 21
179.695500000000010
  0
LINE
  8
PT2-Rzut2
  6
CONTINUOUS
 62
     7
 10
269.1658
 20
179.695500000000010
 11
463.9683
 21
179.695500000000010
  0
LINE
  8
PT2-Rzut2
  6
CONTINUOUS
 62
     7
 10
463.9683
 20
154.398100000000000
 11
463.9683
 21
93.466700000000003
  0
LINE
  8
PT2-Rzut2
  6
CONTINUOUS
 62
     7
 10
463.9708
 20
93.466700000000003
 11
296.7672
 21
93.445400000000006
  0
LINE
  8
PT2-Rzut2
  6
CONTINUOUS
 62
     7
 10
296.7672
 20
93.447900000000004
 11
296.7676
 21
87.442400000000021
  0
LINE
  8
PT2-Rzut2
  6
CONTINUOUS
 62
     7
 10
296.7701
 20
87.442400000000021
 11
269.167
 21
87.435400000000016
  0
LINE
  8
PT2-Rzut2
  6
CONTINUOUS
 62
     7
 10
269.167
 20
87.432900000000018
 11
269.1665
 21
88.745499999999993
  0
LINE
  8
PT2-Rzut2
  6
CONTINUOUS
 62
     7
 10
269.164
 20
88.745600000000024
 11
269.1799
 21
88.745600000000024
  0
LINE
  8
PT2-Rzut2
  6
CONTINUOUS
 62
     7
 10
269.1799
 20
88.743100000000027
 11
269.1715
 21
154.370700000000000
  0
LINE
  8
PT2-Rzut2
  6
CONTINUOUS
 62
     7
 10
269.169
 20
154.370700000000000
 11
463.9683
 21
154.395500000000000
  0
LINE
  8
PT2-Rzut2
  6
CONTINUOUS
 62
     7
 10
88.166
 20
284.548000000000000
 11
88.166
 21
249.145500000000000
  0
LINE
  8
PT2-Rzut2
  6
CONTINUOUS
 62
     7
 10
88.1635
 20
249.135899999999990
 11
154.3161
 21
249.144299999999990
  0
LINE
  8
PT2-Rzut2
  6
CONTINUOUS
 62
     7
 10
154.3161
 20
249.141799999999990
 11
154.3183
 21
284.545500000000000
  0
LINE
  8
PT2-Rzut2
  6
CONTINUOUS
 62
     7
 10
154.3208
 20
284.545500000000000
 11
88.166
 21
284.545500000000000
  0
LINE
  8
PT2-Rzut2
  6
CONTINUOUS
 62
     7
 10
92.166
 20
253.133900000000010
 11
92.166
 21
280.545500000000000
  0
LINE
  8
PT2-Rzut2
  6
CONTINUOUS
 62
     7
 10
92.1635
 20
280.545500000000000
 11
150.3181
 21
280.545500000000000
  0
LINE
  8
PT2-Rzut2
  6
CONTINUOUS
 62
     7
 10
150.3181
 20
280.548000000000000
 11
150.3163
 21
253.143800000000000
  0
LINE
  8
PT2-Rzut2
  6
CONTINUOUS
 62
     7
 10
150.3188
 20
253.143800000000000
 11
92.166
 21
253.136400000000010
  0
LINE
  8
PT2-Rzut2
  6
CONTINUOUS
 62
     7
 10
328.6651
 20
118.143300000000010
 11
328.6634
 21
127.146300000000000
  0
LINE
  8
PT2-Rzut2
  6
CONTINUOUS
 62
     7
 10
328.6659
 20
127.146300000000000
 11
324.8633
 21
127.145600000000000
  0
LINE
  8
PT2-Rzut2
  6
CONTINUOUS
 62
     7
 10
324.8633
 20
127.148100000000000
 11
324.8651
 21
118.144999999999980
  0
LINE
  8
PT2-Rzut2
  6
CONTINUOUS
 62
     7
 10
324.8626
 20
118.144999999999980
 11
328.6651
 21
118.145800000000010
  0
LINE
  8
PT2-Rzut2
  6
CONTINUOUS
 62
     7
 10
436.7607
 20
137.265600000000010
 11
417.3578
 21
137.274200000000010
  0
LINE
  8
PT2-Rzut2
  6
CONTINUOUS
 62
     7
 10
417.3578
 20
137.276700000000010
 11
417.3561
 21
133.474300000000030
  0
LINE
  8
PT2-Rzut2
  6
CONTINUOUS
 62
     7
 10
417.3536
 20
133.474300000000030
 11
436.7566
 21
133.465599999999990
  0
LINE
  8
PT2-Rzut2
  6
CONTINUOUS
 62
     7
 10
436.7566
 20
133.463100000000000
 11
436.7583
 21
137.265600000000010
  0
LINE
  8
PT2-Schody5
  6
CONTINUOUS
 62
     7
 10
113.5089
 20
169.545500000000000
 11
104.0758
 21
169.544900000000010
  0
LINE
  8
PT2-Schody5
  6
CONTINUOUS
 62
     7
 10
113.5083
 20
179.545500000000000
 11
100.4354
 21
179.544700000000010
  0
LINE
  8
PT2-Schody5
  6
CONTINUOUS
 62
     7
 10
113.5086
 20
174.545500000000000
 11
102.2556
 21
174.544800000000010
  0
LINE
  8
PT2-Schody5
  6
CONTINUOUS
 62
     7
 10
113.5085
 20
175.945500000000010
 11
112.9728
 21
175.838900000000000
  0
LINE
  8
PT2-Schody5
  6
CONTINUOUS
 62
     7
 10
112.9728
 20
175.838900000000000
 11
112.5186
 21
175.535400000000010
  0
LINE
  8
PT2-Schody5
  6
CONTINUOUS
 62
     7
 10
112.5186
 20
175.535400000000010
 11
112.2151
 21
175.081200000000000
  0
LINE
  8
PT2-Schody5
  6
CONTINUOUS
 62
     7
 10
112.2151
 20
175.081200000000000
 11
112.1086
 21
174.545400000000000
  0
LINE
  8
PT2-Schody5
  6
CONTINUOUS
 62
     7
 10
112.1086
 20
174.545400000000000
 11
112.2152
 21
174.009700000000010
  0
LINE
  8
PT2-Schody5
  6
CONTINUOUS
 62
     7
 10
112.2152
 20
174.009700000000010
 11
112.5187
 21
173.555499999999990
  0
LINE
  8
PT2-Schody5
  6
CONTINUOUS
 62
     7
 10
112.5187
 20
173.555499999999990
 11
112.9729
 21
173.252100000000010
  0
LINE
  8
PT2-Schody5
  6
CONTINUOUS
 62
     7
 10
112.9729
 20
173.252100000000010
 11
113.5087
 21
173.145500000000000
  0
LINE
  8
PT2-Schody5
  6
CONTINUOUS
 62
     7
 10
113.5087
 20
173.145500000000000
 11
114.0444
 21
173.252100000000010
  0
LINE
  8
PT2-Schody5
  6
CONTINUOUS
 62
     7
 10
114.0444
 20
173.252100000000010
 11
114.4986
 21
173.555600000000000
  0
LINE
  8
PT2-Schody5
  6
CONTINUOUS
 62
     7
 10
114.4986
 20
173.555600000000000
 11
114.8021
 21
174.009899999999990
  0
LINE
  8
PT2-Schody5
  6
CONTINUOUS
 62
     7
 10
114.8021
 20
174.009899999999990
 11
114.9086
 21
174.545600000000010
  0
LINE
  8
PT2-Schody5
  6
CONTINUOUS
 62
     7
 10
114.9086
 20
174.545600000000010
 11
114.802
 21
175.081400000000000
  0
LINE
  8
PT2-Schody5
  6
CONTINUOUS
 62
     7
 10
114.802
 20
175.081400000000000
 11
114.4985
 21
175.535500000000010
  0
LINE
  8
PT2-Schody5
  6
CONTINUOUS
 62
     7
 10
114.4985
 20
175.535500000000010
 11
114.0443
 21
175.839000000000000
  0
LINE
  8
PT2-Schody5
  6
CONTINUOUS
 62
     7
 10
114.0443
 20
175.839000000000000
 11
113.5085
 21
175.945500000000010
  0
LINE
  8
PT2-Schody5
  6
CONTINUOUS
 62
     7
 10
113.5089
 20
169.545500000000000
 11
113.5083
 21
179.545500000000000
  0
LINE
  8
PT2-Schody5
  6
CONTINUOUS
 62
     7
 10
110.6672
 20
169.545300000000000
 11
110.6666
 21
179.545300000000000
  0
LINE
  8
PT2-Schody5
  6
CONTINUOUS
 62
     7
 10
107.8256
 20
169.545199999999990
 11
107.825
 21
179.545199999999990
  0
LINE
  8
PT2-Schody5
  6
CONTINUOUS
 62
     7
 10
104.9839
 20
169.544999999999990
 11
104.9833
 21
179.544999999999990
  0
LINE
  8
PT2-Schody5
  6
CONTINUOUS
 62
     7
 10
102.1419
 20
174.857100000000000
 11
102.1416
 21
179.544800000000010
  0
LINE
  8
PT2-Schody5
  6
CONTINUOUS
 62
     7
 10
113.5089
 20
169.545500000000000
 11
113.5083
 21
179.545500000000000
  0
LINE
  8
PT2-Schody5
  6
CONTINUOUS
 62
     7
 10
104.0758
 20
169.544900000000010
 11
100.4354
 21
179.544700000000010
  0
TEXT
  8
PT2-Schody5
  6
CONTINUOUS
 62
     7
 10
95.778400000000005
 20
177.521700000000010
 40
2.921100000000000
 50
0.003700000000000
  1
13 Stp.
  0
TEXT
  8
PT2-Schody5
  6
CONTINUOUS
 62
     7
 10
95.778400000000005
 20
173.140050000000000
 40
2.921100000000000
 50
0.003700000000000
  1
18.1/28.4
  0
TEXT
  8
PT2-Opis6
  6
CONTINUOUS
 62
     7
 10
91.074799999999996
 20
126.476999999999980
 40
2.500000000000000
  1
Piwnica
  0
TEXT
  8
PT2-Opis6
  6
CONTINUOUS
 62
     7
 10
91.074799999999996
 20
122.726999999999980
 40
2.500000000000000
  1
33.81 m2
  0
TEXT
  8
PT2-Opis6
  6
CONTINUOUS
 62
     7
 10
88.223600000000005
 20
165.336099999999990
 40
2.500000000000000
  1
Klatka schod.
  0
TEXT
  8
PT2-Opis6
  6
CONTINUOUS
 62
     7
 10
88.223600000000005
 20
161.586099999999990
 40
2.500000000000000
  1
10.8 m2
  0
TEXT
  8
PT2-Opis6
  6
CONTINUOUS
 62
     7
 10
91.077799999999996
 20
201.427899999999990
 40
2.500000000000000
  1
Piwnica
  0
TEXT
  8
PT2-Opis6
  6
CONTINUOUS
 62
     7
 10
91.077799999999996
 20
197.677899999999990
 40
2.500000000000000
  1
17.99 m2
  0
TEXT
  8
PT2-Opis6
  6
CONTINUOUS
 62
     7
 10
91.780900000000003
 20
231.478000000000010
 40
2.500000000000000
  1
Piwnica
  0
TEXT
  8
PT2-Opis6
  6
CONTINUOUS
 62
     7
 10
91.780900000000003
 20
227.728000000000010
 40
2.500000000000000
  1
13.6 m2
  0
LINE
  8
PT2-Wymiarowanie7
  6
CONTINUOUS
 62
     7
 10
36.2399
 20
96.141599999999983
 11
36.2404
 21
89.441599999999994
  0
LINE
  8
PT2-Wymiarowanie7
  6
CONTINUOUS
 62
     7
 10
36.2399
 20
97.141599999999983
 11
36.2399
 21
96.141599999999983
  0
LINE
  8
PT2-Wymiarowanie7
  6
CONTINUOUS
 62
     7
 10
36.2405
 20
88.441599999999994
 11
36.2404
 21
89.441599999999994
  0
LINE
  8
PT2-Wymiarowanie7
  6
CONTINUOUS
 62
     7
 10
36.7399
 20
95.641700000000014
 11
35.74
 21
96.641399999999976
  0
LINE
  8
PT2-Wymiarowanie7
  6
CONTINUOUS
 62
     7
 10
36.7404
 20
88.941700000000026
 11
35.7405
 21
89.941399999999987
  0
LINE
  8
PT2-Wymiarowanie7
  6
CONTINUOUS
 62
     7
 10
35.2399
 20
96.141500000000008
 11
37.2399
 21
96.141599999999983
  0
LINE
  8
PT2-Wymiarowanie7
  6
CONTINUOUS
 62
     7
 10
35.2404
 20
89.441500000000019
 11
37.2404
 21
89.441599999999994
  0
TEXT
  8
PT2-Wymiarowanie7
  6
CONTINUOUS
 62
     7
 10
34.418500000000002
 20
88.613200000000006
 40
2.000000000000000
 50
450.000000000000000
  1
67
  0
LINE
  8
PT2-Wymiarowanie7
  6
CONTINUOUS
 62
     7
 10
36.2362
 20
154.041500000000010
 11
36.2399
 21
96.141599999999983
  0
LINE
  8
PT2-Wymiarowanie7
  6
CONTINUOUS
 62
     7
 10
36.2362
 20
155.041500000000010
 11
36.2362
 21
154.041500000000010
  0
LINE
  8
PT2-Wymiarowanie7
  6
CONTINUOUS
 62
     7
 10
36.24
 20
95.141599999999983
 11
36.2399
 21
96.141599999999983
  0
LINE
  8
PT2-Wymiarowanie7
  6
CONTINUOUS
 62
     7
 10
36.7362
 20
153.541599999999990
 11
35.7363
 21
154.541300000000010
  0
LINE
  8
PT2-Wymiarowanie7
  6
CONTINUOUS
 62
     7
 10
36.7399
 20
95.641700000000014
 11
35.74
 21
96.641399999999976
  0
LINE
  8
PT2-Wymiarowanie7
  6
CONTINUOUS
 62
     7
 10
35.2362
 20
154.041400000000010
 11
37.2362
 21
154.041500000000010
  0
LINE
  8
PT2-Wymiarowanie7
  6
CONTINUOUS
 62
     7
 10
35.2399
 20
96.141500000000008
 11
37.2399
 21
96.141599999999983
  0
TEXT
  8
PT2-Wymiarowanie7
  6
CONTINUOUS
 62
     7
 10
34.416499999999999
 20
119.502000000000010
 40
2.000000000000000
 50
450.000000000000000
  1
5,79
  0
LINE
  8
PT2-Wymiarowanie7
  6
CONTINUOUS
 62
     7
 10
36.2359
 20
159.741500000000000
 11
36.2362
 21
154.041500000000010
  0
LINE
  8
PT2-Wymiarowanie7
  6
CONTINUOUS
 62
     7
 10
36.2359
 20
160.741500000000000
 11
36.2359
 21
159.741500000000000
  0
LINE
  8
PT2-Wymiarowanie7
  6
CONTINUOUS
 62
     7
 10
36.2363
 20
153.041500000000010
 11
36.2362
 21
154.041500000000010
  0
LINE
  8
PT2-Wymiarowanie7
  6
CONTINUOUS
 62
     7
 10
36.7359
 20
159.241600000000010
 11
35.736
 21
160.241400000000000
  0
LINE
  8
PT2-Wymiarowanie7
  6
CONTINUOUS
 62
     7
 10
36.7362
 20
153.541599999999990
 11
35.7363
 21
154.541400000000010
  0
LINE
  8
PT2-Wymiarowanie7
  6
CONTINUOUS
 62
     7
 10
35.2359
 20
159.741400000000000
 11
37.2359
 21
159.741500000000000
  0
LINE
  8
PT2-Wymiarowanie7
  6
CONTINUOUS
 62
     7
 10
35.2362
 20
154.041400000000010
 11
37.2362
 21
154.041500000000010
  0
TEXT
  8
PT2-Wymiarowanie7
  6
CONTINUOUS
 62
     7
 10
34.414400000000001
 20
152.713100000000000
 40
2.000000000000000
 50
450.000000000000000
  1
57
  0
LINE
  8
PT2-Wymiarowanie7
  6
CONTINUOUS
 62
     7
 10
36.2353
 20
169.540600000000010
 11
36.2359
 21
159.741500000000000
  0
LINE
  8
PT2-Wymiarowanie7
  6
CONTINUOUS
 62
     7
 10
36.2353
 20
170.540600000000010
 11
36.2353
 21
169.540600000000010
  0
LINE
  8
PT2-Wymiarowanie7
  6
CONTINUOUS
 62
     7
 10
36.236
 20
158.741500000000000
 11
36.2359
 21
159.741500000000000
  0
LINE
  8
PT2-Wymiarowanie7
  6
CONTINUOUS
 62
     7
 10
36.7353
 20
169.040699999999990
 11
35.7354
 21
170.040500000000010
  0
LINE
  8
PT2-Wymiarowanie7
  6
CONTINUOUS
 62
     7
 10
36.7359
 20
159.241600000000010
 11
35.736
 21
160.241400000000000
  0
LINE
  8
PT2-Wymiarowanie7
  6
CONTINUOUS
 62
     7
 10
35.2353
 20
169.540500000000010
 11
37.2353
 21
169.540600000000010
  0
LINE
  8
PT2-Wymiarowanie7
  6
CONTINUOUS
 62
     7
 10
35.2359
 20
159.741400000000000
 11
37.2359
 21
159.741500000000000
  0
TEXT
  8
PT2-Wymiarowanie7
  6
CONTINUOUS
 62
     7
 10
34.413899999999998
 20
160.462600000000010
 40
2.000000000000000
 50
450.000000000000000
  1
98
  0
LINE
  8
PT2-Wymiarowanie7
  6
CONTINUOUS
 62
     7
 10
36.2352
 20
170.740900000000010
 11
36.2353
 21
169.540600000000010
  0
LINE
  8
PT2-Wymiarowanie7
  6
CONTINUOUS
 62
     7
 10
36.2352
 20
171.740900000000010
 11
36.2352
 21
170.740900000000010
  0
LINE
  8
PT2-Wymiarowanie7
  6
CONTINUOUS
 62
     7
 10
36.2354
 20
168.540600000000010
 11
36.2353
 21
169.540600000000010
  0
LINE
  8
PT2-Wymiarowanie7
  6
CONTINUOUS
 62
     7
 10
36.7352
 20
170.241000000000010
 11
35.7353
 21
171.240700000000000
  0
LINE
  8
PT2-Wymiarowanie7
  6
CONTINUOUS
 62
     7
 10
36.7353
 20
169.040699999999990
 11
35.7354
 21
170.040400000000010
  0
LINE
  8
PT2-Wymiarowanie7
  6
CONTINUOUS
 62
     7
 10
35.2352
 20
170.740800000000010
 11
37.2352
 21
170.740900000000010
  0
LINE
  8
PT2-Wymiarowanie7
  6
CONTINUOUS
 62
     7
 10
35.2353
 20
169.540500000000010
 11
37.2353
 21
169.540600000000010
  0
TEXT
  8
PT2-Wymiarowanie7
  6
CONTINUOUS
 62
     7
 10
34.413600000000002
 20
165.962300000000000
 40
2.000000000000000
 50
450.000000000000000
  1
12
  0
LINE
  8
PT2-Wymiarowanie7
  6
CONTINUOUS
 62
     7
 10
36.2347
 20
178.941599999999990
 11
36.2352
 21
170.741000000000010
  0
LINE
  8
PT2-Wymiarowanie7
  6
CONTINUOUS
 62
     7
 10
36.2347
 20
179.941599999999990
 11
36.2347
 21
178.941599999999990
  0
LINE
  8
PT2-Wymiarowanie7
  6
CONTINUOUS
 62
     7
 10
36.2353
 20
169.741000000000010
 11
36.2352
 21
170.741000000000010
  0
LINE
  8
PT2-Wymiarowanie7
  6
CONTINUOUS
 62
     7
 10
36.7347
 20
178.441700000000000
 11
35.7348
 21
179.441499999999990
  0
LINE
  8
PT2-Wymiarowanie7
  6
CONTINUOUS
 62
     7
 10
36.7352
 20
170.241099999999990
 11
35.7353
 21
171.240900000000010
  0
LINE
  8
PT2-Wymiarowanie7
  6
CONTINUOUS
 62
     7
 10
35.2347
 20
178.941499999999990
 11
37.2347
 21
178.941599999999990
  0
LINE
  8
PT2-Wymiarowanie7
  6
CONTINUOUS
 62
     7
 10
35.2352
 20
170.740900000000010
 11
37.2352
 21
170.741000000000010
  0
TEXT
  8
PT2-Wymiarowanie7
  6
CONTINUOUS
 62
     7
 10
34.413300000000000
 20
170.662900000000010
 40
2.000000000000000
 50
450.000000000000000
  1
82
  0
LINE
  8
PT2-Wymiarowanie7
  6
CONTINUOUS
 62
     7
 10
36.2346
 20
179.540600000000010
 11
36.2347
 21
178.941499999999990
  0
LINE
  8
PT2-Wymiarowanie7
  6
CONTINUOUS
 62
     7
 10
36.2345
 20
180.540600000000010
 11
36.2346
 21
179.540600000000010
  0
LINE
  8
PT2-Wymiarowanie7
  6
CONTINUOUS
 62
     7
 10
36.2349
 20
177.941499999999990
 11
36.2347
 21
178.941499999999990
  0
LINE
  8
PT2-Wymiarowanie7
  6
CONTINUOUS
 62
     7
 10
36.7346
 20
179.040699999999990
 11
35.7346
 21
180.040400000000010
  0
LINE
  8
PT2-Wymiarowanie7
  6
CONTINUOUS
 62
     7
 10
36.7347
 20
178.441599999999990
 11
35.7347
 21
179.441300000000010
  0
LINE
  8
PT2-Wymiarowanie7
  6
CONTINUOUS
 62
     7
 10
35.2346
 20
179.540500000000010
 11
37.2346
 21
179.540600000000010
  0
LINE
  8
PT2-Wymiarowanie7
  6
CONTINUOUS
 62
     7
 10
35.2347
 20
178.941399999999990
 11
37.2347
 21
178.941499999999990
  0
TEXT
  8
PT2-Wymiarowanie7
  6
CONTINUOUS
 62
     7
 10
34.412900000000000
 20
175.944600000000010
 40
2.000000000000000
 50
450.000000000000000
  1
6
  0
LINE
  8
PT2-Wymiarowanie7
  6
CONTINUOUS
 62
     7
 10
36.2343
 20
184.641500000000010
 11
36.2346
 21
179.540600000000010
  0
LINE
  8
PT2-Wymiarowanie7
  6
CONTINUOUS
 62
     7
 10
36.2343
 20
185.641500000000010
 11
36.2343
 21
184.641500000000010
  0
LINE
  8
PT2-Wymiarowanie7
  6
CONTINUOUS
 62
     7
 10
36.2347
 20
178.540600000000010
 11
36.2346
 21
179.540600000000010
  0
LINE
  8
PT2-Wymiarowanie7
  6
CONTINUOUS
 62
     7
 10
36.7343
 20
184.141600000000010
 11
35.7344
 21
185.141400000000000
  0
LINE
  8
PT2-Wymiarowanie7
  6
CONTINUOUS
 62
     7
 10
36.7346
 20
179.040699999999990
 11
35.7347
 21
180.040500000000010
  0
LINE
  8
PT2-Wymiarowanie7
  6
CONTINUOUS
 62
     7
 10
35.2343
 20
184.641400000000000
 11
37.2343
 21
184.641500000000010
  0
LINE
  8
PT2-Wymiarowanie7
  6
CONTINUOUS
 62
     7
 10
35.2346
 20
179.540500000000010
 11
37.2346
 21
179.540600000000010
  0
TEXT
  8
PT2-Wymiarowanie7
  6
CONTINUOUS
 62
     7
 10
34.412799999999997
 20
177.912600000000000
 40
2.000000000000000
 50
450.000000000000000
  1
51
  0
LINE
  8
PT2-Wymiarowanie7
  6
CONTINUOUS
 62
     7
 10
36.2323
 20
215.445600000000010
 11
36.2343
 21
184.641500000000010
  0
LINE
  8
PT2-Wymiarowanie7
  6
CONTINUOUS
 62
     7
 10
36.2323
 20
216.445600000000010
 11
36.2323
 21
215.445600000000010
  0
LINE
  8
PT2-Wymiarowanie7
  6
CONTINUOUS
 62
     7
 10
36.2344
 20
183.641500000000010
 11
36.2343
 21
184.641500000000010
  0
LINE
  8
PT2-Wymiarowanie7
  6
CONTINUOUS
 62
     7
 10
36.7323
 20
214.945699999999990
 11
35.7324
 21
215.945400000000010
  0
LINE
  8
PT2-Wymiarowanie7
  6
CONTINUOUS
 62
     7
 10
36.7343
 20
184.141600000000010
 11
35.7344
 21
185.141300000000000
  0
LINE
  8
PT2-Wymiarowanie7
  6
CONTINUOUS
 62
     7
 10
35.2323
 20
215.445500000000010
 11
37.2323
 21
215.445600000000010
  0
LINE
  8
PT2-Wymiarowanie7
  6
CONTINUOUS
 62
     7
 10
35.2343
 20
184.641400000000000
 11
37.2343
 21
184.641500000000010
  0
TEXT
  8
PT2-Wymiarowanie7
  6
CONTINUOUS
 62
     7
 10
34.411700000000003
 20
194.454000000000010
 40
2.000000000000000
 50
450.000000000000000
  1
3,08
  0
LINE
  8
PT2-Wymiarowanie7
  6
CONTINUOUS
 62
     7
 10
36.2321
 20
218.445600000000010
 11
36.2323
 21
215.445600000000010
  0
LINE
  8
PT2-Wymiarowanie7
  6
CONTINUOUS
 62
     7
 10
36.2321
 20
219.445600000000010
 11
36.2321
 21
218.445600000000010
  0
LINE
  8
PT2-Wymiarowanie7
  6
CONTINUOUS
 62
     7
 10
36.2324
 20
214.445600000000010
 11
36.2323
 21
215.445600000000010
  0
LINE
  8
PT2-Wymiarowanie7
  6
CONTINUOUS
 62
     7
 10
36.7321
 20
217.945699999999990
 11
35.7322
 21
218.945400000000010
  0
LINE
  8
PT2-Wymiarowanie7
  6
CONTINUOUS
 62
     7
 10
36.7323
 20
214.945699999999990
 11
35.7324
 21
215.945400000000010
  0
LINE
  8
PT2-Wymiarowanie7
  6
CONTINUOUS
 62
     7
 10
35.2321
 20
218.445500000000010
 11
37.2321
 21
218.445600000000010
  0
LINE
  8
PT2-Wymiarowanie7
  6
CONTINUOUS
 62
     7
 10
35.2323
 20
215.445500000000010
 11
37.2323
 21
215.445600000000010
  0
TEXT
  8
PT2-Wymiarowanie7
  6
CONTINUOUS
 62
     7
 10
34.410600000000002
 20
212.767200000000000
 40
2.000000000000000
 50
450.000000000000000
  1
30
  0
LINE
  8
PT2-Wymiarowanie7
  6
CONTINUOUS
 62
     7
 10
36.2307
 20
241.741500000000000
 11
36.2321
 21
218.445600000000010
  0
LINE
  8
PT2-Wymiarowanie7
  6
CONTINUOUS
 62
     7
 10
36.2307
 20
242.741500000000000
 11
36.2307
 21
241.741500000000000
  0
LINE
  8
PT2-Wymiarowanie7
  6
CONTINUOUS
 62
     7
 10
36.2322
 20
217.445600000000010
 11
36.2321
 21
218.445600000000010
  0
LINE
  8
PT2-Wymiarowanie7
  6
CONTINUOUS
 62
     7
 10
36.7307
 20
241.241600000000010
 11
35.7308
 21
242.241400000000000
  0
LINE
  8
PT2-Wymiarowanie7
  6
CONTINUOUS
 62
     7
 10
36.7321
 20
217.945699999999990
 11
35.7322
 21
218.945500000000010
  0
LINE
  8
PT2-Wymiarowanie7
  6
CONTINUOUS
 62
     7
 10
35.2307
 20
241.741400000000000
 11
37.2307
 21
241.741500000000000
  0
LINE
  8
PT2-Wymiarowanie7
  6
CONTINUOUS
 62
     7
 10
35.2321
 20
218.445500000000010
 11
37.2321
 21
218.445600000000010
  0
TEXT
  8
PT2-Wymiarowanie7
  6
CONTINUOUS
 62
     7
 10
34.409799999999997
 20
224.503999999999990
 40
2.000000000000000
 50
450.000000000000000
  1
2,33
  0
LINE
  8
PT2-Wymiarowanie7
  6
CONTINUOUS
 62
     7
 10
36.2302
 20
248.941499999999990
 11
36.2307
 21
241.741500000000000
  0
LINE
  8
PT2-Wymiarowanie7
  6
CONTINUOUS
 62
     7
 10
36.2302
 20
249.941499999999990
 11
36.2302
 21
248.941499999999990
  0
LINE
  8
PT2-Wymiarowanie7
  6
CONTINUOUS
 62
     7
 10
36.2308
 20
240.741500000000000
 11
36.2307
 21
241.741500000000000
  0
LINE
  8
PT2-Wymiarowanie7
  6
CONTINUOUS
 62
     7
 10
36.7302
 20
248.441599999999990
 11
35.7303
 21
249.441300000000010
  0
LINE
  8
PT2-Wymiarowanie7
  6
CONTINUOUS
 62
     7
 10
36.7307
 20
241.241600000000010
 11
35.7308
 21
242.241300000000000
  0
LINE
  8
PT2-Wymiarowanie7
  6
CONTINUOUS
 62
     7
 10
35.2302
 20
248.941399999999990
 11
37.2302
 21
248.941499999999990
  0
LINE
  8
PT2-Wymiarowanie7
  6
CONTINUOUS
 62
     7
 10
35.2307
 20
241.741400000000000
 11
37.2307
 21
241.741500000000000
  0
TEXT
  8
PT2-Wymiarowanie7
  6
CONTINUOUS
 62
     7
 10
34.408799999999999
 20
241.163099999999990
 40
2.000000000000000
 50
450.000000000000000
  1
72
  0
LINE
  8
PT2-Wymiarowanie7
  6
CONTINUOUS
 62
     7
 10
36.2302
 20
249.139299999999990
 11
36.2302
 21
248.939500000000010
  0
LINE
  8
PT2-Wymiarowanie7
  6
CONTINUOUS
 62
     7
 10
36.2302
 20
250.139299999999990
 11
36.2302
 21
249.139299999999990
  0
LINE
  8
PT2-Wymiarowanie7
  6
CONTINUOUS
 62
     7
 10
36.2302
 20
247.939500000000010
 11
36.2302
 21
248.939500000000010
  0
LINE
  8
PT2-Wymiarowanie7
  6
CONTINUOUS
 62
     7
 10
36.7302
 20
248.639299999999990
 11
35.7303
 21
249.639199999999990
  0
LINE
  8
PT2-Wymiarowanie7
  6
CONTINUOUS
 62
     7
 10
36.7302
 20
248.439500000000010
 11
35.7303
 21
249.439400000000010
  0
LINE
  8
PT2-Wymiarowanie7
  6
CONTINUOUS
 62
     7
 10
35.2302
 20
249.139199999999990
 11
37.2302
 21
249.139399999999990
  0
LINE
  8
PT2-Wymiarowanie7
  6
CONTINUOUS
 62
     7
 10
35.2302
 20
248.939400000000010
 11
37.2302
 21
248.939600000000010
  0
TEXT
  8
PT2-Wymiarowanie7
  6
CONTINUOUS
 62
     7
 10
34.408499999999997
 20
245.742799999999990
 40
2.000000000000000
 50
450.000000000000000
  1
2
  0
LINE
  8
PT2-Wymiarowanie7
  6
CONTINUOUS
 62
     7
 10
36.2299
 20
253.133299999999990
 11
36.2302
 21
249.141400000000000
  0
LINE
  8
PT2-Wymiarowanie7
  6
CONTINUOUS
 62
     7
 10
36.2299
 20
254.133299999999990
 11
36.2299
 21
253.133299999999990
  0
LINE
  8
PT2-Wymiarowanie7
  6
CONTINUOUS
 62
     7
 10
36.2303
 20
248.141400000000000
 11
36.2302
 21
249.141400000000000
  0
LINE
  8
PT2-Wymiarowanie7
  6
CONTINUOUS
 62
     7
 10
36.7299
 20
252.633399999999990
 11
35.73
 21
253.633100000000010
  0
LINE
  8
PT2-Wymiarowanie7
  6
CONTINUOUS
 62
     7
 10
36.7302
 20
248.641500000000010
 11
35.7303
 21
249.641200000000000
  0
LINE
  8
PT2-Wymiarowanie7
  6
CONTINUOUS
 62
     7
 10
35.2299
 20
253.133199999999990
 11
37.2299
 21
253.133299999999990
  0
LINE
  8
PT2-Wymiarowanie7
  6
CONTINUOUS
 62
     7
 10
35.2302
 20
249.141300000000000
 11
37.2302
 21
249.141400000000000
  0
TEXT
  8
PT2-Wymiarowanie7
  6
CONTINUOUS
 62
     7
 10
34.408400000000000
 20
246.959000000000000
 40
2.000000000000000
 50
450.000000000000000
  1
40
  0
LINE
  8
PT2-Wymiarowanie7
  6
CONTINUOUS
 62
     7
 10
36.2282
 20
280.541499999999980
 11
36.2299
 21
253.133199999999990
  0
LINE
  8
PT2-Wymiarowanie7
  6
CONTINUOUS
 62
     7
 10
36.2282
 20
281.541499999999980
 11
36.2282
 21
280.541499999999980
  0
LINE
  8
PT2-Wymiarowanie7
  6
CONTINUOUS
 62
     7
 10
36.23
 20
252.133199999999990
 11
36.2299
 21
253.133199999999990
  0
LINE
  8
PT2-Wymiarowanie7
  6
CONTINUOUS
 62
     7
 10
36.7282
 20
280.041600000000020
 11
35.7283
 21
281.041400000000010
  0
LINE
  8
PT2-Wymiarowanie7
  6
CONTINUOUS
 62
     7
 10
36.7299
 20
252.633299999999990
 11
35.73
 21
253.633100000000010
  0
LINE
  8
PT2-Wymiarowanie7
  6
CONTINUOUS
 62
     7
 10
35.2282
 20
280.541400000000010
 11
37.2282
 21
280.541499999999980
  0
LINE
  8
PT2-Wymiarowanie7
  6
CONTINUOUS
 62
     7
 10
35.2299
 20
253.133100000000010
 11
37.2299
 21
253.133199999999990
  0
TEXT
  8
PT2-Wymiarowanie7
  6
CONTINUOUS
 62
     7
 10
34.407499999999999
 20
261.247799999999980
 40
2.000000000000000
 50
450.000000000000000
  1
2,74
  0
LINE
  8
PT2-Wymiarowanie7
  6
CONTINUOUS
 62
     7
 10
36.2279
 20
284.541600000000020
 11
36.2282
 21
280.541600000000020
  0
LINE
  8
PT2-Wymiarowanie7
  6
CONTINUOUS
 62
     7
 10
36.2279
 20
285.541600000000020
 11
36.2279
 21
284.541600000000020
  0
LINE
  8
PT2-Wymiarowanie7
  6
CONTINUOUS
 62
     7
 10
36.2283
 20
279.541600000000020
 11
36.2282
 21
280.541600000000020
  0
LINE
  8
PT2-Wymiarowanie7
  6
CONTINUOUS
 62
     7
 10
36.7279
 20
284.041699999999990
 11
35.728
 21
285.041400000000010
  0
LINE
  8
PT2-Wymiarowanie7
  6
CONTINUOUS
 62
     7
 10
36.7282
 20
280.041699999999990
 11
35.7283
 21
281.041400000000010
  0
LINE
  8
PT2-Wymiarowanie7
  6
CONTINUOUS
 62
     7
 10
35.2279
 20
284.541499999999980
 11
37.2279
 21
284.541600000000020
  0
LINE
  8
PT2-Wymiarowanie7
  6
CONTINUOUS
 62
     7
 10
35.2282
 20
280.541499999999980
 11
37.2282
 21
280.541600000000020
  0
TEXT
  8
PT2-Wymiarowanie7
  6
CONTINUOUS
 62
     7
 10
34.406399999999998
 20
278.363200000000010
 40
2.000000000000000
 50
450.000000000000000
  1
40
  0
LINE
  8
PT2-Wymiarowanie7
  6
CONTINUOUS
 62
     7
 10
30.2278
 20
248.942800000000010
 11
30.2379
 21
89.442799999999977
  0
LINE
  8
PT2-Wymiarowanie7
  6
CONTINUOUS
 62
     7
 10
30.2278
 20
249.942800000000010
 11
30.2278
 21
248.942800000000010
  0
LINE
  8
PT2-Wymiarowanie7
  6
CONTINUOUS
 62
     7
 10
30.238
 20
88.442799999999977
 11
30.2379
 21
89.442799999999977
  0
LINE
  8
PT2-Wymiarowanie7
  6
CONTINUOUS
 62
     7
 10
30.7278
 20
248.442900000000010
 11
29.7279
 21
249.442600000000000
  0
LINE
  8
PT2-Wymiarowanie7
  6
CONTINUOUS
 62
     7
 10
30.7379
 20
88.942900000000009
 11
29.738
 21
89.942600000000027
  0
LINE
  8
PT2-Wymiarowanie7
  6
CONTINUOUS
 62
     7
 10
29.2278
 20
248.942700000000000
 11
31.2278
 21
248.942800000000010
  0
LINE
  8
PT2-Wymiarowanie7
  6
CONTINUOUS
 62
     7
 10
29.2379
 20
89.442700000000002
 11
31.2379
 21
89.442799999999977
  0
TEXT
  8
PT2-Wymiarowanie7
  6
CONTINUOUS
 62
     7
 10
28.411400000000000
 20
162.721300000000010
 40
2.000000000000000
 50
450.000000000000000
  1
15,95
  0
LINE
  8
PT2-Wymiarowanie7
  6
CONTINUOUS
 62
     7
 10
30.2283
 20
249.139999999999990
 11
30.2283
 21
248.940000000000000
  0
LINE
  8
PT2-Wymiarowanie7
  6
CONTINUOUS
 62
     7
 10
30.2283
 20
250.139999999999990
 11
30.2283
 21
249.139999999999990
  0
LINE
  8
PT2-Wymiarowanie7
  6
CONTINUOUS
 62
     7
 10
30.2283
 20
247.940000000000000
 11
30.2283
 21
248.940000000000000
  0
LINE
  8
PT2-Wymiarowanie7
  6
CONTINUOUS
 62
     7
 10
30.7283
 20
248.639999999999990
 11
29.7284
 21
249.639900000000010
  0
LINE
  8
PT2-Wymiarowanie7
  6
CONTINUOUS
 62
     7
 10
30.7283
 20
248.440000000000000
 11
29.7284
 21
249.439899999999990
  0
LINE
  8
PT2-Wymiarowanie7
  6
CONTINUOUS
 62
     7
 10
29.2283
 20
249.139900000000010
 11
31.2283
 21
249.140099999999990
  0
LINE
  8
PT2-Wymiarowanie7
  6
CONTINUOUS
 62
     7
 10
29.2283
 20
248.939899999999990
 11
31.2283
 21
248.940100000000000
  0
TEXT
  8
PT2-Wymiarowanie7
  6
CONTINUOUS
 62
     7
 10
28.406500000000001
 20
245.743699999999990
 40
2.000000000000000
 50
450.000000000000000
  1
2
  0
LINE
  8
PT2-Wymiarowanie7
  6
CONTINUOUS
 62
     7
 10
30.2279
 20
284.541699999999990
 11
30.2302
 21
249.141699999999990
  0
LINE
  8
PT2-Wymiarowanie7
  6
CONTINUOUS
 62
     7
 10
30.2279
 20
285.541699999999990
 11
30.2279
 21
284.541699999999990
  0
LINE
  8
PT2-Wymiarowanie7
  6
CONTINUOUS
 62
     7
 10
30.2303
 20
248.141699999999990
 11
30.2302
 21
249.141699999999990
  0
LINE
  8
PT2-Wymiarowanie7
  6
CONTINUOUS
 62
     7
 10
30.7279
 20
284.041799999999970
 11
29.728
 21
285.041499999999980
  0
LINE
  8
PT2-Wymiarowanie7
  6
CONTINUOUS
 62
     7
 10
30.7302
 20
248.641799999999990
 11
29.7303
 21
249.641500000000010
  0
LINE
  8
PT2-Wymiarowanie7
  6
CONTINUOUS
 62
     7
 10
29.2279
 20
284.541600000000020
 11
31.2279
 21
284.541699999999990
  0
LINE
  8
PT2-Wymiarowanie7
  6
CONTINUOUS
 62
     7
 10
29.2302
 20
249.141600000000010
 11
31.2302
 21
249.141699999999990
  0
TEXT
  8
PT2-Wymiarowanie7
  6
CONTINUOUS
 62
     7
 10
28.407499999999999
 20
261.252200000000020
 40
2.000000000000000
 50
450.000000000000000
  1
3,54
  0
LINE
  8
PT2-Wymiarowanie7
  6
CONTINUOUS
 62
     7
 10
24.2279
 20
88.949799999999982
 11
24.2404
 21
284.549800000000000
  0
LINE
  8
PT2-Wymiarowanie7
  6
CONTINUOUS
 62
     7
 10
24.2279
 20
87.949799999999982
 11
24.2279
 21
88.949799999999982
  0
LINE
  8
PT2-Wymiarowanie7
  6
CONTINUOUS
 62
     7
 10
24.2405
 20
285.549800000000000
 11
24.2404
 21
284.549800000000000
  0
LINE
  8
PT2-Wymiarowanie7
  6
CONTINUOUS
 62
     7
 10
23.728
 20
89.449700000000007
 11
24.7278
 21
88.449799999999982
  0
LINE
  8
PT2-Wymiarowanie7
  6
CONTINUOUS
 62
     7
 10
23.7405
 20
285.049700000000030
 11
24.7403
 21
284.049800000000000
  0
LINE
  8
PT2-Wymiarowanie7
  6
CONTINUOUS
 62
     7
 10
23.2279
 20
88.949799999999982
 11
25.2279
 21
88.949700000000007
  0
LINE
  8
PT2-Wymiarowanie7
  6
CONTINUOUS
 62
     7
 10
23.2404
 20
284.549800000000000
 11
25.2404
 21
284.549700000000030
  0
TEXT
  8
PT2-Wymiarowanie7
  6
CONTINUOUS
 62
     7
 10
22.412099999999999
 20
183.107300000000010
 40
2.000000000000000
 50
90.000000000000000
  1
19,56
  0
LINE
  8
PT2-Wymiarowanie7
  6
CONTINUOUS
 62
     7
 10
67.1683
 20
57.642600000000016
 11
59.9683
 21
57.642600000000016
  0
LINE
  8
PT2-Wymiarowanie7
  6
CONTINUOUS
 62
     7
 10
68.1683
 20
57.642600000000016
 11
67.1683
 21
57.642600000000016
  0
LINE
  8
PT2-Wymiarowanie7
  6
CONTINUOUS
 62
     7
 10
58.9683
 20
57.642600000000016
 11
59.9683
 21
57.642600000000016
  0
LINE
  8
PT2-Wymiarowanie7
  6
CONTINUOUS
 62
     7
 10
66.6684
 20
57.142600000000016
 11
67.6683
 21
58.142499999999984
  0
LINE
  8
PT2-Wymiarowanie7
  6
CONTINUOUS
 62
     7
 10
59.4684
 20
57.142600000000016
 11
60.4683
 21
58.142499999999984
  0
LINE
  8
PT2-Wymiarowanie7
  6
CONTINUOUS
 62
     7
 10
67.1683
 20
56.642600000000016
 11
67.1683
 21
58.642600000000016
  0
LINE
  8
PT2-Wymiarowanie7
  6
CONTINUOUS
 62
     7
 10
59.9683
 20
56.642600000000016
 11
59.9683
 21
58.642600000000016
  0
TEXT
  8
PT2-Wymiarowanie7
  6
CONTINUOUS
 62
     7
 10
61.804400000000001
 20
59.464299999999980
 40
2.000000000000000
 50
360.000000000000000
  1
72
  0
LINE
  8
PT2-Wymiarowanie7
  6
CONTINUOUS
 62
     7
 10
125.5617
 20
57.642600000000016
 11
67.1683
 21
57.642600000000016
  0
LINE
  8
PT2-Wymiarowanie7
  6
CONTINUOUS
 62
     7
 10
126.5617
 20
57.642600000000016
 11
125.5617
 21
57.642600000000016
  0
LINE
  8
PT2-Wymiarowanie7
  6
CONTINUOUS
 62
     7
 10
66.1683
 20
57.642600000000016
 11
67.1683
 21
57.642600000000016
  0
LINE
  8
PT2-Wymiarowanie7
  6
CONTINUOUS
 62
     7
 10
125.0618
 20
57.142600000000016
 11
126.0617
 21
58.142499999999984
  0
LINE
  8
PT2-Wymiarowanie7
  6
CONTINUOUS
 62
     7
 10
66.6684
 20
57.142600000000016
 11
67.6683
 21
58.142499999999984
  0
LINE
  8
PT2-Wymiarowanie7
  6
CONTINUOUS
 62
     7
 10
125.5617
 20
56.642600000000016
 11
125.5617
 21
58.642600000000016
  0
LINE
  8
PT2-Wymiarowanie7
  6
CONTINUOUS
 62
     7
 10
67.1683
 20
56.642600000000016
 11
67.1683
 21
58.642600000000016
  0
TEXT
  8
PT2-Wymiarowanie7
  6
CONTINUOUS
 62
     7
 10
93.189999999999998
 20
59.464299999999980
 40
2.000000000000000
 50
360.000000000000000
  1
5,84
  0
LINE
  8
PT2-Wymiarowanie7
  6
CONTINUOUS
 62
     7
 10
131.0617
 20
57.642600000000016
 11
125.5617
 21
57.642600000000016
  0
LINE
  8
PT2-Wymiarowanie7
  6
CONTINUOUS
 62
     7
 10
132.0617
 20
57.642600000000016
 11
131.0617
 21
57.642600000000016
  0
LINE
  8
PT2-Wymiarowanie7
  6
CONTINUOUS
 62
     7
 10
124.5617
 20
57.642600000000016
 11
125.5617
 21
57.642600000000016
  0
LINE
  8
PT2-Wymiarowanie7
  6
CONTINUOUS
 62
     7
 10
130.5618
 20
57.142600000000016
 11
131.5617
 21
58.142499999999984
  0
LINE
  8
PT2-Wymiarowanie7
  6
CONTINUOUS
 62
     7
 10
125.0618
 20
57.142600000000016
 11
126.0617
 21
58.142499999999984
  0
LINE
  8
PT2-Wymiarowanie7
  6
CONTINUOUS
 62
     7
 10
131.0617
 20
56.642600000000016
 11
131.0617
 21
58.642600000000016
  0
LINE
  8
PT2-Wymiarowanie7
  6
CONTINUOUS
 62
     7
 10
125.5617
 20
56.642600000000016
 11
125.5617
 21
58.642600000000016
  0
TEXT
  8
PT2-Wymiarowanie7
  6
CONTINUOUS
 62
     7
 10
126.547800000000000
 20
59.464299999999980
 40
2.000000000000000
 50
360.000000000000000
  1
55
  0
LINE
  8
PT2-Wymiarowanie7
  6
CONTINUOUS
 62
     7
 10
147.5683
 20
57.642600000000016
 11
131.0617
 21
57.642600000000016
  0
LINE
  8
PT2-Wymiarowanie7
  6
CONTINUOUS
 62
     7
 10
148.5683
 20
57.642600000000016
 11
147.5683
 21
57.642600000000016
  0
LINE
  8
PT2-Wymiarowanie7
  6
CONTINUOUS
 62
     7
 10
130.0617
 20
57.642600000000016
 11
131.0617
 21
57.642600000000016
  0
LINE
  8
PT2-Wymiarowanie7
  6
CONTINUOUS
 62
     7
 10
147.0684
 20
57.142600000000016
 11
148.0683
 21
58.142499999999984
  0
LINE
  8
PT2-Wymiarowanie7
  6
CONTINUOUS
 62
     7
 10
130.5618
 20
57.142600000000016
 11
131.5617
 21
58.142499999999984
  0
LINE
  8
PT2-Wymiarowanie7
  6
CONTINUOUS
 62
     7
 10
147.5683
 20
56.642600000000016
 11
147.5683
 21
58.642600000000016
  0
LINE
  8
PT2-Wymiarowanie7
  6
CONTINUOUS
 62
     7
 10
131.0617
 20
56.642600000000016
 11
131.0617
 21
58.642600000000016
  0
TEXT
  8
PT2-Wymiarowanie7
  6
CONTINUOUS
 62
     7
 10
136.139999999999990
 20
59.464299999999980
 40
2.000000000000000
 50
360.000000000000000
  1
1,65
  0
LINE
  8
PT2-Wymiarowanie7
  6
CONTINUOUS
 62
     7
 10
153.0683
 20
57.642600000000016
 11
147.5683
 21
57.642600000000016
  0
LINE
  8
PT2-Wymiarowanie7
  6
CONTINUOUS
 62
     7
 10
154.0683
 20
57.642600000000016
 11
153.0683
 21
57.642600000000016
  0
LINE
  8
PT2-Wymiarowanie7
  6
CONTINUOUS
 62
     7
 10
146.5683
 20
57.642600000000016
 11
147.5683
 21
57.642600000000016
  0
LINE
  8
PT2-Wymiarowanie7
  6
CONTINUOUS
 62
     7
 10
152.5684
 20
57.142600000000016
 11
153.5683
 21
58.142499999999984
  0
LINE
  8
PT2-Wymiarowanie7
  6
CONTINUOUS
 62
     7
 10
147.0684
 20
57.142600000000016
 11
148.0683
 21
58.142499999999984
  0
LINE
  8
PT2-Wymiarowanie7
  6
CONTINUOUS
 62
     7
 10
153.0683
 20
56.642600000000016
 11
153.0683
 21
58.642600000000016
  0
LINE
  8
PT2-Wymiarowanie7
  6
CONTINUOUS
 62
     7
 10
147.5683
 20
56.642600000000016
 11
147.5683
 21
58.642600000000016
  0
TEXT
  8
PT2-Wymiarowanie7
  6
CONTINUOUS
 62
     7
 10
148.554399999999990
 20
59.464299999999980
 40
2.000000000000000
 50
360.000000000000000
  1
55
  0
LINE
  8
PT2-Wymiarowanie7
  6
CONTINUOUS
 62
     7
 10
171.2683
 20
57.642600000000016
 11
153.0683
 21
57.642600000000016
  0
LINE
  8
PT2-Wymiarowanie7
  6
CONTINUOUS
 62
     7
 10
172.2683
 20
57.642600000000016
 11
171.2683
 21
57.642600000000016
  0
LINE
  8
PT2-Wymiarowanie7
  6
CONTINUOUS
 62
     7
 10
152.0683
 20
57.642600000000016
 11
153.0683
 21
57.642600000000016
  0
LINE
  8
PT2-Wymiarowanie7
  6
CONTINUOUS
 62
     7
 10
170.7684
 20
57.142600000000016
 11
171.7683
 21
58.142499999999984
  0
LINE
  8
PT2-Wymiarowanie7
  6
CONTINUOUS
 62
     7
 10
152.5684
 20
57.142600000000016
 11
153.5683
 21
58.142499999999984
  0
LINE
  8
PT2-Wymiarowanie7
  6
CONTINUOUS
 62
     7
 10
171.2683
 20
56.642600000000016
 11
171.2683
 21
58.642600000000016
  0
LINE
  8
PT2-Wymiarowanie7
  6
CONTINUOUS
 62
     7
 10
153.0683
 20
56.642600000000016
 11
153.0683
 21
58.642600000000016
  0
TEXT
  8
PT2-Wymiarowanie7
  6
CONTINUOUS
 62
     7
 10
158.993300000000000
 20
59.464299999999980
 40
2.000000000000000
 50
360.000000000000000
  1
1,82
  0
LINE
  8
PT2-Wymiarowanie7
  6
CONTINUOUS
 62
     7
 10
176.7683
 20
57.642600000000016
 11
171.2683
 21
57.642600000000016
  0
LINE
  8
PT2-Wymiarowanie7
  6
CONTINUOUS
 62
     7
 10
177.7683
 20
57.642600000000016
 11
176.7683
 21
57.642600000000016
  0
LINE
  8
PT2-Wymiarowanie7
  6
CONTINUOUS
 62
     7
 10
170.2683
 20
57.642600000000016
 11
171.2683
 21
57.642600000000016
  0
LINE
  8
PT2-Wymiarowanie7
  6
CONTINUOUS
 62
     7
 10
176.2684
 20
57.142600000000016
 11
177.2683
 21
58.142499999999984
  0
LINE
  8
PT2-Wymiarowanie7
  6
CONTINUOUS
 62
     7
 10
170.7684
 20
57.142600000000016
 11
171.7683
 21
58.142499999999984
  0
LINE
  8
PT2-Wymiarowanie7
  6
CONTINUOUS
 62
     7
 10
176.7683
 20
56.642600000000016
 11
176.7683
 21
58.642600000000016
  0
LINE
  8
PT2-Wymiarowanie7
  6
CONTINUOUS
 62
     7
 10
171.2683
 20
56.642600000000016
 11
171.2683
 21
58.642600000000016
  0
TEXT
  8
PT2-Wymiarowanie7
  6
CONTINUOUS
 62
     7
 10
172.254400000000000
 20
59.464299999999980
 40
2.000000000000000
 50
360.000000000000000
  1
55
  0
LINE
  8
PT2-Wymiarowanie7
  6
CONTINUOUS
 62
     7
 10
257.7683
 20
57.642600000000016
 11
176.7683
 21
57.642600000000016
  0
LINE
  8
PT2-Wymiarowanie7
  6
CONTINUOUS
 62
     7
 10
258.7683
 20
57.642600000000016
 11
257.7683
 21
57.642600000000016
  0
LINE
  8
PT2-Wymiarowanie7
  6
CONTINUOUS
 62
     7
 10
175.7683
 20
57.642600000000016
 11
176.7683
 21
57.642600000000016
  0
LINE
  8
PT2-Wymiarowanie7
  6
CONTINUOUS
 62
     7
 10
257.2684
 20
57.142600000000016
 11
258.2683
 21
58.142499999999984
  0
LINE
  8
PT2-Wymiarowanie7
  6
CONTINUOUS
 62
     7
 10
176.2684
 20
57.142600000000016
 11
177.2683
 21
58.142499999999984
  0
LINE
  8
PT2-Wymiarowanie7
  6
CONTINUOUS
 62
     7
 10
257.7683
 20
56.642600000000016
 11
257.7683
 21
58.642600000000016
  0
LINE
  8
PT2-Wymiarowanie7
  6
CONTINUOUS
 62
     7
 10
176.7683
 20
56.642600000000016
 11
176.7683
 21
58.642600000000016
  0
TEXT
  8
PT2-Wymiarowanie7
  6
CONTINUOUS
 62
     7
 10
214.093300000000000
 20
59.464299999999980
 40
2.000000000000000
 50
360.000000000000000
  1
8,10
  0
LINE
  8
PT2-Wymiarowanie7
  6
CONTINUOUS
 62
     7
 10
264.9683
 20
57.642600000000016
 11
257.7683
 21
57.642600000000016
  0
LINE
  8
PT2-Wymiarowanie7
  6
CONTINUOUS
 62
     7
 10
265.9683
 20
57.642600000000016
 11
264.9683
 21
57.642600000000016
  0
LINE
  8
PT2-Wymiarowanie7
  6
CONTINUOUS
 62
     7
 10
256.7683
 20
57.642600000000016
 11
257.7683
 21
57.642600000000016
  0
LINE
  8
PT2-Wymiarowanie7
  6
CONTINUOUS
 62
     7
 10
264.4684
 20
57.142600000000016
 11
265.4683
 21
58.142499999999984
  0
LINE
  8
PT2-Wymiarowanie7
  6
CONTINUOUS
 62
     7
 10
257.2684
 20
57.142600000000016
 11
258.2683
 21
58.142499999999984
  0
LINE
  8
PT2-Wymiarowanie7
  6
CONTINUOUS
 62
     7
 10
264.9683
 20
56.642600000000016
 11
264.9683
 21
58.642600000000016
  0
LINE
  8
PT2-Wymiarowanie7
  6
CONTINUOUS
 62
     7
 10
257.7683
 20
56.642600000000016
 11
257.7683
 21
58.642600000000016
  0
TEXT
  8
PT2-Wymiarowanie7
  6
CONTINUOUS
 62
     7
 10
259.604400000000000
 20
59.464299999999980
 40
2.000000000000000
 50
360.000000000000000
  1
72
  0
LINE
  8
PT2-Wymiarowanie7
  6
CONTINUOUS
 62
     7
 10
265.1781
 20
57.642600000000016
 11
264.9683
 21
57.642600000000016
  0
LINE
  8
PT2-Wymiarowanie7
  6
CONTINUOUS
 62
     7
 10
266.1781
 20
57.642600000000016
 11
265.1781
 21
57.642600000000016
  0
LINE
  8
PT2-Wymiarowanie7
  6
CONTINUOUS
 62
     7
 10
263.9683
 20
57.642600000000016
 11
264.9683
 21
57.642600000000016
  0
LINE
  8
PT2-Wymiarowanie7
  6
CONTINUOUS
 62
     7
 10
264.6782
 20
57.142600000000016
 11
265.6781
 21
58.142499999999984
  0
LINE
  8
PT2-Wymiarowanie7
  6
CONTINUOUS
 62
     7
 10
264.4684
 20
57.142600000000016
 11
265.4683
 21
58.142499999999984
  0
LINE
  8
PT2-Wymiarowanie7
  6
CONTINUOUS
 62
     7
 10
265.1781
 20
56.642600000000016
 11
265.1781
 21
58.642600000000016
  0
LINE
  8
PT2-Wymiarowanie7
  6
CONTINUOUS
 62
     7
 10
264.9683
 20
56.642600000000016
 11
264.9683
 21
58.642600000000016
  0
TEXT
  8
PT2-Wymiarowanie7
  6
CONTINUOUS
 62
     7
 10
264.191300000000010
 20
59.464299999999980
 40
2.000000000000000
 50
360.000000000000000
  1
2
  0
LINE
  8
PT2-Wymiarowanie7
  6
CONTINUOUS
 62
     7
 10
269.1781
 20
57.642600000000016
 11
265.1781
 21
57.642600000000016
  0
LINE
  8
PT2-Wymiarowanie7
  6
CONTINUOUS
 62
     7
 10
270.1781
 20
57.642600000000016
 11
269.1781
 21
57.642600000000016
  0
LINE
  8
PT2-Wymiarowanie7
  6
CONTINUOUS
 62
     7
 10
264.1781
 20
57.642600000000016
 11
265.1781
 21
57.642600000000016
  0
LINE
  8
PT2-Wymiarowanie7
  6
CONTINUOUS
 62
     7
 10
268.6782
 20
57.142600000000016
 11
269.6781
 21
58.142499999999984
  0
LINE
  8
PT2-Wymiarowanie7
  6
CONTINUOUS
 62
     7
 10
264.6782
 20
57.142600000000016
 11
265.6781
 21
58.142499999999984
  0
LINE
  8
PT2-Wymiarowanie7
  6
CONTINUOUS
 62
     7
 10
269.1781
 20
56.642600000000016
 11
269.1781
 21
58.642600000000016
  0
LINE
  8
PT2-Wymiarowanie7
  6
CONTINUOUS
 62
     7
 10
265.1781
 20
56.642600000000016
 11
265.1781
 21
58.642600000000016
  0
TEXT
  8
PT2-Wymiarowanie7
  6
CONTINUOUS
 62
     7
 10
265.414199999999990
 20
59.464299999999980
 40
2.000000000000000
 50
360.000000000000000
  1
40
  0
LINE
  8
PT2-Wymiarowanie7
  6
CONTINUOUS
 62
     7
 10
463.9683
 20
57.642600000000016
 11
269.1781
 21
57.642600000000016
  0
LINE
  8
PT2-Wymiarowanie7
  6
CONTINUOUS
 62
     7
 10
464.9683
 20
57.642600000000016
 11
463.9683
 21
57.642600000000016
  0
LINE
  8
PT2-Wymiarowanie7
  6
CONTINUOUS
 62
     7
 10
268.1781
 20
57.642600000000016
 11
269.1781
 21
57.642600000000016
  0
LINE
  8
PT2-Wymiarowanie7
  6
CONTINUOUS
 62
     7
 10
463.4684
 20
57.142600000000016
 11
464.4683
 21
58.142499999999984
  0
LINE
  8
PT2-Wymiarowanie7
  6
CONTINUOUS
 62
     7
 10
268.6782
 20
57.142600000000016
 11
269.6781
 21
58.142499999999984
  0
LINE
  8
PT2-Wymiarowanie7
  6
CONTINUOUS
 62
     7
 10
463.9683
 20
56.642600000000016
 11
463.9683
 21
58.642600000000016
  0
LINE
  8
PT2-Wymiarowanie7
  6
CONTINUOUS
 62
     7
 10
269.1781
 20
56.642600000000016
 11
269.1781
 21
58.642600000000016
  0
TEXT
  8
PT2-Wymiarowanie7
  6
CONTINUOUS
 62
     7
 10
362.516300000000000
 20
59.464299999999980
 40
2.000000000000000
 50
360.000000000000000
  1
19,48
  0
LINE
  8
PT2-Wymiarowanie7
  6
CONTINUOUS
 62
     7
 10
467.9683
 20
57.642600000000016
 11
463.9683
 21
57.642600000000016
  0
LINE
  8
PT2-Wymiarowanie7
  6
CONTINUOUS
 62
     7
 10
468.9683
 20
57.642600000000016
 11
467.9683
 21
57.642600000000016
  0
LINE
  8
PT2-Wymiarowanie7
  6
CONTINUOUS
 62
     7
 10
462.9683
 20
57.642600000000016
 11
463.9683
 21
57.642600000000016
  0
LINE
  8
PT2-Wymiarowanie7
  6
CONTINUOUS
 62
     7
 10
467.4684
 20
57.142600000000016
 11
468.4683
 21
58.142499999999984
  0
LINE
  8
PT2-Wymiarowanie7
  6
CONTINUOUS
 62
     7
 10
463.4684
 20
57.142600000000016
 11
464.4683
 21
58.142499999999984
  0
LINE
  8
PT2-Wymiarowanie7
  6
CONTINUOUS
 62
     7
 10
467.9683
 20
56.642600000000016
 11
467.9683
 21
58.642600000000016
  0
LINE
  8
PT2-Wymiarowanie7
  6
CONTINUOUS
 62
     7
 10
463.9683
 20
56.642600000000016
 11
463.9683
 21
58.642600000000016
  0
TEXT
  8
PT2-Wymiarowanie7
  6
CONTINUOUS
 62
     7
 10
464.204400000000020
 20
59.464299999999980
 40
2.000000000000000
 50
360.000000000000000
  1
40
  0
LINE
  8
PT2-Wymiarowanie7
  6
CONTINUOUS
 62
     7
 10
263.5679
 20
63.630999999999972
 11
59.9683
 21
63.630999999999972
  0
LINE
  8
PT2-Wymiarowanie7
  6
CONTINUOUS
 62
     7
 10
264.5679
 20
63.630999999999972
 11
263.5679
 21
63.630999999999972
  0
LINE
  8
PT2-Wymiarowanie7
  6
CONTINUOUS
 62
     7
 10
58.9683
 20
63.630999999999972
 11
59.9683
 21
63.630999999999972
  0
LINE
  8
PT2-Wymiarowanie7
  6
CONTINUOUS
 62
     7
 10
263.068
 20
63.130999999999972
 11
264.0679
 21
64.130899999999997
  0
LINE
  8
PT2-Wymiarowanie7
  6
CONTINUOUS
 62
     7
 10
59.4684
 20
63.130999999999972
 11
60.4683
 21
64.130899999999997
  0
LINE
  8
PT2-Wymiarowanie7
  6
CONTINUOUS
 62
     7
 10
263.5679
 20
62.630999999999972
 11
263.5679
 21
64.630999999999972
  0
LINE
  8
PT2-Wymiarowanie7
  6
CONTINUOUS
 62
     7
 10
59.9683
 20
62.630999999999972
 11
59.9683
 21
64.630999999999972
  0
TEXT
  8
PT2-Wymiarowanie7
  6
CONTINUOUS
 62
     7
 10
157.711199999999990
 20
65.452800000000025
 40
2.000000000000000
 50
360.000000000000000
  1
20,36
  0
LINE
  8
PT2-Wymiarowanie7
  6
CONTINUOUS
 62
     7
 10
269.1799
 20
63.630999999999972
 11
263.5679
 21
63.630999999999972
  0
LINE
  8
PT2-Wymiarowanie7
  6
CONTINUOUS
 62
     7
 10
270.1799
 20
63.630999999999972
 11
269.1799
 21
63.630999999999972
  0
LINE
  8
PT2-Wymiarowanie7
  6
CONTINUOUS
 62
     7
 10
262.5679
 20
63.630999999999972
 11
263.5679
 21
63.630999999999972
  0
LINE
  8
PT2-Wymiarowanie7
  6
CONTINUOUS
 62
     7
 10
268.68
 20
63.130999999999972
 11
269.6799
 21
64.130899999999997
  0
LINE
  8
PT2-Wymiarowanie7
  6
CONTINUOUS
 62
     7
 10
263.068
 20
63.130999999999972
 11
264.0679
 21
64.130899999999997
  0
LINE
  8
PT2-Wymiarowanie7
  6
CONTINUOUS
 62
     7
 10
269.1799
 20
62.630999999999972
 11
269.1799
 21
64.630999999999972
  0
LINE
  8
PT2-Wymiarowanie7
  6
CONTINUOUS
 62
     7
 10
263.5679
 20
62.630999999999972
 11
263.5679
 21
64.630999999999972
  0
TEXT
  8
PT2-Wymiarowanie7
  6
CONTINUOUS
 62
     7
 10
264.610000000000010
 20
65.452800000000025
 40
2.000000000000000
 50
360.000000000000000
  1
56
  0
LINE
  8
PT2-Wymiarowanie7
  6
CONTINUOUS
 62
     7
 10
296.7675
 20
63.630999999999972
 11
269.1799
 21
63.630999999999972
  0
LINE
  8
PT2-Wymiarowanie7
  6
CONTINUOUS
 62
     7
 10
297.7675
 20
63.630999999999972
 11
296.7675
 21
63.630999999999972
  0
LINE
  8
PT2-Wymiarowanie7
  6
CONTINUOUS
 62
     7
 10
268.1799
 20
63.630999999999972
 11
269.1799
 21
63.630999999999972
  0
LINE
  8
PT2-Wymiarowanie7
  6
CONTINUOUS
 62
     7
 10
296.2676
 20
63.130999999999972
 11
297.2675
 21
64.130899999999997
  0
LINE
  8
PT2-Wymiarowanie7
  6
CONTINUOUS
 62
     7
 10
268.68
 20
63.130999999999972
 11
269.6799
 21
64.130899999999997
  0
LINE
  8
PT2-Wymiarowanie7
  6
CONTINUOUS
 62
     7
 10
296.7675
 20
62.630999999999972
 11
296.7675
 21
64.630999999999972
  0
LINE
  8
PT2-Wymiarowanie7
  6
CONTINUOUS
 62
     7
 10
269.1799
 20
62.630999999999972
 11
269.1799
 21
64.630999999999972
  0
TEXT
  8
PT2-Wymiarowanie7
  6
CONTINUOUS
 62
     7
 10
279.798700000000000
 20
65.452800000000025
 40
2.000000000000000
 50
360.000000000000000
  1
2,76
  0
LINE
  8
PT2-Wymiarowanie7
  6
CONTINUOUS
 62
     7
 10
300.7677
 20
63.630999999999972
 11
296.7675
 21
63.630999999999972
  0
LINE
  8
PT2-Wymiarowanie7
  6
CONTINUOUS
 62
     7
 10
301.7677
 20
63.630999999999972
 11
300.7677
 21
63.630999999999972
  0
LINE
  8
PT2-Wymiarowanie7
  6
CONTINUOUS
 62
     7
 10
295.7675
 20
63.630999999999972
 11
296.7675
 21
63.630999999999972
  0
LINE
  8
PT2-Wymiarowanie7
  6
CONTINUOUS
 62
     7
 10
300.2678
 20
63.130999999999972
 11
301.2677
 21
64.130899999999997
  0
LINE
  8
PT2-Wymiarowanie7
  6
CONTINUOUS
 62
     7
 10
296.2676
 20
63.130999999999972
 11
297.2675
 21
64.130899999999997
  0
LINE
  8
PT2-Wymiarowanie7
  6
CONTINUOUS
 62
     7
 10
300.7677
 20
62.630999999999972
 11
300.7677
 21
64.630999999999972
  0
LINE
  8
PT2-Wymiarowanie7
  6
CONTINUOUS
 62
     7
 10
296.7675
 20
62.630999999999972
 11
296.7675
 21
64.630999999999972
  0
TEXT
  8
PT2-Wymiarowanie7
  6
CONTINUOUS
 62
     7
 10
297.003699999999980
 20
65.452800000000025
 40
2.000000000000000
 50
360.000000000000000
  1
40
  0
LINE
  8
PT2-Wymiarowanie7
  6
CONTINUOUS
 62
     7
 10
467.9683
 20
63.630999999999972
 11
300.7677
 21
63.630999999999972
  0
LINE
  8
PT2-Wymiarowanie7
  6
CONTINUOUS
 62
     7
 10
468.9683
 20
63.630999999999972
 11
467.9683
 21
63.630999999999972
  0
LINE
  8
PT2-Wymiarowanie7
  6
CONTINUOUS
 62
     7
 10
299.7677
 20
63.630999999999972
 11
300.7677
 21
63.630999999999972
  0
LINE
  8
PT2-Wymiarowanie7
  6
CONTINUOUS
 62
     7
 10
467.4684
 20
63.130999999999972
 11
468.4683
 21
64.130899999999997
  0
LINE
  8
PT2-Wymiarowanie7
  6
CONTINUOUS
 62
     7
 10
300.2678
 20
63.130999999999972
 11
301.2677
 21
64.130899999999997
  0
LINE
  8
PT2-Wymiarowanie7
  6
CONTINUOUS
 62
     7
 10
467.9683
 20
62.630999999999972
 11
467.9683
 21
64.630999999999972
  0
LINE
  8
PT2-Wymiarowanie7
  6
CONTINUOUS
 62
     7
 10
300.7677
 20
62.630999999999972
 11
300.7677
 21
64.630999999999972
  0
TEXT
  8
PT2-Wymiarowanie7
  6
CONTINUOUS
 62
     7
 10
380.311100000000010
 20
65.452800000000025
 40
2.000000000000000
 50
360.000000000000000
  1
16,72
  0
LINE
  8
PT2-Wymiarowanie7
  6
CONTINUOUS
 62
     7
 10
300.7677
 20
51.630999999999972
 11
467.9683
 21
51.609699999999975
  0
LINE
  8
PT2-Wymiarowanie7
  6
CONTINUOUS
 62
     7
 10
299.7677
 20
51.631100000000004
 11
300.7677
 21
51.630999999999972
  0
LINE
  8
PT2-Wymiarowanie7
  6
CONTINUOUS
 62
     7
 10
468.9683
 20
51.609500000000025
 11
467.9683
 21
51.609699999999975
  0
LINE
  8
PT2-Wymiarowanie7
  6
CONTINUOUS
 62
     7
 10
301.2677
 20
52.130800000000022
 11
300.2678
 21
51.131100000000004
  0
LINE
  8
PT2-Wymiarowanie7
  6
CONTINUOUS
 62
     7
 10
468.4683
 20
52.109500000000025
 11
467.4684
 21
51.109800000000007
  0
LINE
  8
PT2-Wymiarowanie7
  6
CONTINUOUS
 62
     7
 10
300.7677
 20
50.630999999999972
 11
300.7677
 21
52.630999999999972
  0
LINE
  8
PT2-Wymiarowanie7
  6
CONTINUOUS
 62
     7
 10
467.9683
 20
50.609699999999975
 11
467.9683
 21
52.609699999999975
  0
TEXT
  8
PT2-Wymiarowanie7
  6
CONTINUOUS
 62
     7
 10
380.311600000000000
 20
53.442600000000027
 40
2.000000000000000
 50
360.000000000000000
  1
16,72
  0
LINE
  8
PT2-Wymiarowanie7
  6
CONTINUOUS
 62
     7
 10
263.5679
 20
51.630999999999972
 11
300.7677
 21
51.626300000000015
  0
LINE
  8
PT2-Wymiarowanie7
  6
CONTINUOUS
 62
     7
 10
262.5679
 20
51.631100000000004
 11
263.5679
 21
51.630999999999972
  0
LINE
  8
PT2-Wymiarowanie7
  6
CONTINUOUS
 62
     7
 10
301.7677
 20
51.626100000000008
 11
300.7677
 21
51.626300000000015
  0
LINE
  8
PT2-Wymiarowanie7
  6
CONTINUOUS
 62
     7
 10
264.0679
 20
52.130800000000022
 11
263.068
 21
51.131100000000004
  0
LINE
  8
PT2-Wymiarowanie7
  6
CONTINUOUS
 62
     7
 10
301.2677
 20
52.126100000000008
 11
300.2678
 21
51.126399999999990
  0
LINE
  8
PT2-Wymiarowanie7
  6
CONTINUOUS
 62
     7
 10
263.5679
 20
50.630999999999972
 11
263.5679
 21
52.630999999999972
  0
LINE
  8
PT2-Wymiarowanie7
  6
CONTINUOUS
 62
     7
 10
300.7677
 20
50.626300000000015
 11
300.7677
 21
52.626300000000015
  0
TEXT
  8
PT2-Wymiarowanie7
  6
CONTINUOUS
 62
     7
 10
278.993299999999980
 20
53.450800000000015
 40
2.000000000000000
 50
360.000000000000000
  1
3,72
  0
LINE
  8
PT2-Wymiarowanie7
  6
CONTINUOUS
 62
     7
 10
59.9683
 20
51.658799999999985
 11
263.5679
 21
51.632799999999975
  0
LINE
  8
PT2-Wymiarowanie7
  6
CONTINUOUS
 62
     7
 10
58.9683
 20
51.658900000000017
 11
59.9683
 21
51.658799999999985
  0
LINE
  8
PT2-Wymiarowanie7
  6
CONTINUOUS
 62
     7
 10
264.5679
 20
51.632600000000025
 11
263.5679
 21
51.632799999999975
  0
LINE
  8
PT2-Wymiarowanie7
  6
CONTINUOUS
 62
     7
 10
60.4683
 20
52.158599999999979
 11
59.4684
 21
51.158900000000017
  0
LINE
  8
PT2-Wymiarowanie7
  6
CONTINUOUS
 62
     7
 10
264.0679
 20
52.132600000000025
 11
263.068
 21
51.132900000000006
  0
LINE
  8
PT2-Wymiarowanie7
  6
CONTINUOUS
 62
     7
 10
59.9683
 20
52.658799999999985
 11
59.9683
 21
50.658799999999985
  0
LINE
  8
PT2-Wymiarowanie7
  6
CONTINUOUS
 62
     7
 10
263.5679
 20
52.632799999999975
 11
263.5679
 21
50.632799999999975
  0
TEXT
  8
PT2-Wymiarowanie7
  6
CONTINUOUS
 62
     7
 10
157.711700000000010
 20
53.468099999999993
 40
2.000000000000000
 50
360.000000000000000
  1
20,36
  0
LINE
  8
PT2-Wymiarowanie7
  6
CONTINUOUS
 62
     7
 10
467.9683
 20
45.630999999999972
 11
59.9683
 21
45.630999999999972
  0
LINE
  8
PT2-Wymiarowanie7
  6
CONTINUOUS
 62
     7
 10
468.9683
 20
45.630999999999972
 11
467.9683
 21
45.630999999999972
  0
LINE
  8
PT2-Wymiarowanie7
  6
CONTINUOUS
 62
     7
 10
58.9683
 20
45.630999999999972
 11
59.9683
 21
45.630999999999972
  0
LINE
  8
PT2-Wymiarowanie7
  6
CONTINUOUS
 62
     7
 10
467.4684
 20
45.130999999999972
 11
468.4683
 21
46.130899999999997
  0
LINE
  8
PT2-Wymiarowanie7
  6
CONTINUOUS
 62
     7
 10
59.4684
 20
45.130999999999972
 11
60.4683
 21
46.130899999999997
  0
LINE
  8
PT2-Wymiarowanie7
  6
CONTINUOUS
 62
     7
 10
467.9683
 20
46.630999999999972
 11
467.9683
 21
44.630999999999972
  0
LINE
  8
PT2-Wymiarowanie7
  6
CONTINUOUS
 62
     7
 10
59.9683
 20
46.630999999999972
 11
59.9683
 21
44.630999999999972
  0
TEXT
  8
PT2-Wymiarowanie7
  6
CONTINUOUS
 62
     7
 10
259.911400000000010
 20
47.452699999999993
 40
2.000000000000000
 50
360.000000000000000
  1
40,8
  0
LINE
  8
PT2-Wymiarowanie7
  6
CONTINUOUS
 62
     7
 10
316.8488
 20
89.449700000000007
 11
316.8492
 21
83.446799999999996
  0
LINE
  8
PT2-Wymiarowanie7
  6
CONTINUOUS
 62
     7
 10
316.8488
 20
90.449700000000007
 11
316.8488
 21
89.449700000000007
  0
LINE
  8
PT2-Wymiarowanie7
  6
CONTINUOUS
 62
     7
 10
316.8493
 20
82.446799999999996
 11
316.8492
 21
83.446799999999996
  0
LINE
  8
PT2-Wymiarowanie7
  6
CONTINUOUS
 62
     7
 10
317.3488
 20
88.949799999999982
 11
316.3489
 21
89.949500000000000
  0
LINE
  8
PT2-Wymiarowanie7
  6
CONTINUOUS
 62
     7
 10
317.3492
 20
82.946900000000028
 11
316.3493
 21
83.946599999999989
  0
LINE
  8
PT2-Wymiarowanie7
  6
CONTINUOUS
 62
     7
 10
317.8488
 20
89.449700000000007
 11
315.8488
 21
89.449599999999975
  0
LINE
  8
PT2-Wymiarowanie7
  6
CONTINUOUS
 62
     7
 10
317.8492
 20
83.446799999999996
 11
315.8492
 21
83.446700000000021
  0
TEXT
  8
PT2-Wymiarowanie7
  6
CONTINUOUS
 62
     7
 10
315.027300000000030
 20
82.269799999999975
 40
2.000000000000000
 50
450.000000000000000
  1
60
  0
LINE
  8
PT2-Wymiarowanie7
  6
CONTINUOUS
 62
     7
 10
281.0246
 20
87.438100000000020
 11
281.0248
 21
83.437700000000007
  0
LINE
  8
PT2-Wymiarowanie7
  6
CONTINUOUS
 62
     7
 10
281.0246
 20
88.438100000000020
 11
281.0246
 21
87.438100000000020
  0
LINE
  8
PT2-Wymiarowanie7
  6
CONTINUOUS
 62
     7
 10
281.0249
 20
82.437700000000007
 11
281.0248
 21
83.437700000000007
  0
LINE
  8
PT2-Wymiarowanie7
  6
CONTINUOUS
 62
     7
 10
281.5246
 20
86.938199999999995
 11
280.5247
 21
87.937999999999988
  0
LINE
  8
PT2-Wymiarowanie7
  6
CONTINUOUS
 62
     7
 10
281.5248
 20
82.937799999999982
 11
280.5249
 21
83.937599999999975
  0
LINE
  8
PT2-Wymiarowanie7
  6
CONTINUOUS
 62
     7
 10
282.0246
 20
87.438100000000020
 11
280.0246
 21
87.437999999999988
  0
LINE
  8
PT2-Wymiarowanie7
  6
CONTINUOUS
 62
     7
 10
282.0248
 20
83.437700000000007
 11
280.0248
 21
83.437599999999975
  0
TEXT
  8
PT2-Wymiarowanie7
  6
CONTINUOUS
 62
     7
 10
279.202999999999970
 20
81.259400000000028
 40
2.000000000000000
 50
450.000000000000000
  1
40
  0
LINE
  8
PT2-Wymiarowanie7
  6
CONTINUOUS
 62
     7
 10
281.0203
 20
154.372099999999990
 11
281.0246
 21
87.438100000000020
  0
LINE
  8
PT2-Wymiarowanie7
  6
CONTINUOUS
 62
     7
 10
281.0203
 20
155.372099999999990
 11
281.0203
 21
154.372099999999990
  0
LINE
  8
PT2-Wymiarowanie7
  6
CONTINUOUS
 62
     7
 10
281.0247
 20
86.438100000000020
 11
281.0246
 21
87.438100000000020
  0
LINE
  8
PT2-Wymiarowanie7
  6
CONTINUOUS
 62
     7
 10
281.5203
 20
153.872199999999990
 11
280.5204
 21
154.871900000000010
  0
LINE
  8
PT2-Wymiarowanie7
  6
CONTINUOUS
 62
     7
 10
281.5246
 20
86.938199999999995
 11
280.5247
 21
87.937900000000013
  0
LINE
  8
PT2-Wymiarowanie7
  6
CONTINUOUS
 62
     7
 10
282.0203
 20
154.372099999999990
 11
280.0203
 21
154.372000000000010
  0
LINE
  8
PT2-Wymiarowanie7
  6
CONTINUOUS
 62
     7
 10
282.0246
 20
87.438100000000020
 11
280.0246
 21
87.437999999999988
  0
TEXT
  8
PT2-Wymiarowanie7
  6
CONTINUOUS
 62
     7
 10
279.200899999999990
 20
115.315600000000020
 40
2.000000000000000
 50
450.000000000000000
  1
6,69
  0
TEXT
  8
PT2-Wymiarowanie7
  6
CONTINUOUS
 62
     7
 10
278.185499999999990
 20
122.198199999999990
 40
1.500000000000000
 50
450.000000000000000
  1
5
  0
LINE
  8
PT2-Wymiarowanie7
  6
CONTINUOUS
 62
     7
 10
281.0201
 20
158.372099999999990
 11
281.0203
 21
154.372099999999990
  0
LINE
  8
PT2-Wymiarowanie7
  6
CONTINUOUS
 62
     7
 10
281.0201
 20
159.372099999999990
 11
281.0201
 21
158.372099999999990
  0
LINE
  8
PT2-Wymiarowanie7
  6
CONTINUOUS
 62
     7
 10
281.0204
 20
153.372099999999990
 11
281.0203
 21
154.372099999999990
  0
LINE
  8
PT2-Wymiarowanie7
  6
CONTINUOUS
 62
     7
 10
281.5201
 20
157.872199999999990
 11
280.5202
 21
158.872000000000010
  0
LINE
  8
PT2-Wymiarowanie7
  6
CONTINUOUS
 62
     7
 10
281.5203
 20
153.872199999999990
 11
280.5204
 21
154.872000000000010
  0
LINE
  8
PT2-Wymiarowanie7
  6
CONTINUOUS
 62
     7
 10
282.0201
 20
158.372099999999990
 11
280.0201
 21
158.372000000000010
  0
LINE
  8
PT2-Wymiarowanie7
  6
CONTINUOUS
 62
     7
 10
282.0203
 20
154.372099999999990
 11
280.0203
 21
154.372000000000010
  0
TEXT
  8
PT2-Wymiarowanie7
  6
CONTINUOUS
 62
     7
 10
279.198500000000020
 20
152.193700000000010
 40
2.000000000000000
 50
450.000000000000000
  1
40
  0
LINE
  8
PT2-Wymiarowanie7
  6
CONTINUOUS
 62
     7
 10
281.0187
 20
179.695600000000010
 11
281.0201
 21
158.372099999999990
  0
LINE
  8
PT2-Wymiarowanie7
  6
CONTINUOUS
 62
     7
 10
281.0187
 20
180.695600000000010
 11
281.0187
 21
179.695600000000010
  0
LINE
  8
PT2-Wymiarowanie7
  6
CONTINUOUS
 62
     7
 10
281.0202
 20
157.372099999999990
 11
281.0201
 21
158.372099999999990
  0
LINE
  8
PT2-Wymiarowanie7
  6
CONTINUOUS
 62
     7
 10
281.5187
 20
179.195699999999990
 11
280.5188
 21
180.195400000000010
  0
LINE
  8
PT2-Wymiarowanie7
  6
CONTINUOUS
 62
     7
 10
281.5201
 20
157.872199999999990
 11
280.5202
 21
158.871900000000010
  0
LINE
  8
PT2-Wymiarowanie7
  6
CONTINUOUS
 62
     7
 10
282.0187
 20
179.695600000000010
 11
280.0187
 21
179.695500000000010
  0
LINE
  8
PT2-Wymiarowanie7
  6
CONTINUOUS
 62
     7
 10
282.0201
 20
158.372099999999990
 11
280.0201
 21
158.372000000000010
  0
TEXT
  8
PT2-Wymiarowanie7
  6
CONTINUOUS
 62
     7
 10
279.197799999999970
 20
163.444400000000000
 40
2.000000000000000
 50
450.000000000000000
  1
2,13
  0
LINE
  8
PT2-Wymiarowanie7
  6
CONTINUOUS
 62
     7
 10
281.0184
 20
183.695600000000010
 11
281.0187
 21
179.695600000000010
  0
LINE
  8
PT2-Wymiarowanie7
  6
CONTINUOUS
 62
     7
 10
281.0184
 20
184.695600000000010
 11
281.0184
 21
183.695600000000010
  0
LINE
  8
PT2-Wymiarowanie7
  6
CONTINUOUS
 62
     7
 10
281.0188
 20
178.695600000000010
 11
281.0187
 21
179.695600000000010
  0
LINE
  8
PT2-Wymiarowanie7
  6
CONTINUOUS
 62
     7
 10
281.5184
 20
183.195699999999990
 11
280.5185
 21
184.195400000000010
  0
LINE
  8
PT2-Wymiarowanie7
  6
CONTINUOUS
 62
     7
 10
281.5187
 20
179.195699999999990
 11
280.5188
 21
180.195400000000010
  0
LINE
  8
PT2-Wymiarowanie7
  6
CONTINUOUS
 62
     7
 10
282.0184
 20
183.695699999999990
 11
280.0184
 21
183.695400000000010
  0
LINE
  8
PT2-Wymiarowanie7
  6
CONTINUOUS
 62
     7
 10
282.0187
 20
179.695600000000010
 11
280.0187
 21
179.695500000000010
  0
TEXT
  8
PT2-Wymiarowanie7
  6
CONTINUOUS
 62
     7
 10
279.196900000000030
 20
177.517200000000000
 40
2.000000000000000
 50
450.000000000000000
  1
40
  0
LINE
  8
PT2-Wymiarowanie7
  6
CONTINUOUS
 62
     7
 10
336.3483
 20
118.145899999999980
 11
336.3499
 21
93.449799999999982
  0
LINE
  8
PT2-Wymiarowanie7
  6
CONTINUOUS
 62
     7
 10
336.3483
 20
119.145899999999980
 11
336.3483
 21
118.145899999999980
  0
LINE
  8
PT2-Wymiarowanie7
  6
CONTINUOUS
 62
     7
 10
336.35
 20
92.449799999999982
 11
336.3499
 21
93.449799999999982
  0
LINE
  8
PT2-Wymiarowanie7
  6
CONTINUOUS
 62
     7
 10
336.8483
 20
117.646000000000020
 11
335.8484
 21
118.645699999999980
  0
LINE
  8
PT2-Wymiarowanie7
  6
CONTINUOUS
 62
     7
 10
336.8499
 20
92.949900000000014
 11
335.85
 21
93.949599999999975
  0
LINE
  8
PT2-Wymiarowanie7
  6
CONTINUOUS
 62
     7
 10
337.3483
 20
118.145899999999980
 11
335.3483
 21
118.145800000000010
  0
LINE
  8
PT2-Wymiarowanie7
  6
CONTINUOUS
 62
     7
 10
337.3499
 20
93.449799999999982
 11
335.3499
 21
93.449700000000007
  0
TEXT
  8
PT2-Wymiarowanie7
  6
CONTINUOUS
 62
     7
 10
334.527600000000010
 20
100.208300000000010
 40
2.000000000000000
 50
450.000000000000000
  1
2,47
  0
LINE
  8
PT2-Wymiarowanie7
  6
CONTINUOUS
 62
     7
 10
336.3478
 20
127.146400000000030
 11
336.3483
 21
118.145899999999980
  0
LINE
  8
PT2-Wymiarowanie7
  6
CONTINUOUS
 62
     7
 10
336.3478
 20
128.146400000000030
 11
336.3478
 21
127.146400000000030
  0
LINE
  8
PT2-Wymiarowanie7
  6
CONTINUOUS
 62
     7
 10
336.3484
 20
117.145899999999980
 11
336.3483
 21
118.145899999999980
  0
LINE
  8
PT2-Wymiarowanie7
  6
CONTINUOUS
 62
     7
 10
336.8478
 20
126.646500000000000
 11
335.8479
 21
127.646300000000000
  0
LINE
  8
PT2-Wymiarowanie7
  6
CONTINUOUS
 62
     7
 10
336.8483
 20
117.646000000000020
 11
335.8484
 21
118.645800000000010
  0
LINE
  8
PT2-Wymiarowanie7
  6
CONTINUOUS
 62
     7
 10
337.3478
 20
127.146400000000030
 11
335.3478
 21
127.146300000000000
  0
LINE
  8
PT2-Wymiarowanie7
  6
CONTINUOUS
 62
     7
 10
337.3483
 20
118.145899999999980
 11
335.3483
 21
118.145800000000010
  0
TEXT
  8
PT2-Wymiarowanie7
  6
CONTINUOUS
 62
     7
 10
334.526400000000020
 20
118.467699999999980
 40
2.000000000000000
 50
450.000000000000000
  1
90
  0
LINE
  8
PT2-Wymiarowanie7
  6
CONTINUOUS
 62
     7
 10
336.346
 20
154.378600000000010
 11
336.3478
 21
127.146400000000030
  0
LINE
  8
PT2-Wymiarowanie7
  6
CONTINUOUS
 62
     7
 10
336.346
 20
155.378600000000010
 11
336.346
 21
154.378600000000010
  0
LINE
  8
PT2-Wymiarowanie7
  6
CONTINUOUS
 62
     7
 10
336.3479
 20
126.146400000000030
 11
336.3478
 21
127.146400000000030
  0
LINE
  8
PT2-Wymiarowanie7
  6
CONTINUOUS
 62
     7
 10
336.846
 20
153.878700000000010
 11
335.8461
 21
154.878400000000000
  0
LINE
  8
PT2-Wymiarowanie7
  6
CONTINUOUS
 62
     7
 10
336.8478
 20
126.646500000000000
 11
335.8479
 21
127.646200000000020
  0
LINE
  8
PT2-Wymiarowanie7
  6
CONTINUOUS
 62
     7
 10
337.346
 20
154.378600000000010
 11
335.346
 21
154.378500000000000
  0
LINE
  8
PT2-Wymiarowanie7
  6
CONTINUOUS
 62
     7
 10
337.3478
 20
127.146400000000030
 11
335.3478
 21
127.146300000000000
  0
TEXT
  8
PT2-Wymiarowanie7
  6
CONTINUOUS
 62
     7
 10
334.525300000000020
 20
135.173000000000000
 40
2.000000000000000
 50
450.000000000000000
  1
2,72
  0
TEXT
  8
PT2-Wymiarowanie7
  6
CONTINUOUS
 62
     7
 10
333.509900000000020
 20
142.055600000000000
 40
1.500000000000000
 50
450.000000000000000
  1
5
  0
LINE
  8
PT2-Wymiarowanie7
  6
CONTINUOUS
 62
     7
 10
324.8641
 20
134.432600000000010
 11
269.1755
 21
134.432600000000010
  0
LINE
  8
PT2-Wymiarowanie7
  6
CONTINUOUS
 62
     7
 10
325.8641
 20
134.432600000000010
 11
324.8641
 21
134.432600000000010
  0
LINE
  8
PT2-Wymiarowanie7
  6
CONTINUOUS
 62
     7
 10
268.1755
 20
134.432600000000010
 11
269.1755
 21
134.432600000000010
  0
LINE
  8
PT2-Wymiarowanie7
  6
CONTINUOUS
 62
     7
 10
324.3642
 20
133.932599999999980
 11
325.3641
 21
134.932500000000000
  0
LINE
  8
PT2-Wymiarowanie7
  6
CONTINUOUS
 62
     7
 10
268.6756
 20
133.932599999999980
 11
269.6755
 21
134.932500000000000
  0
LINE
  8
PT2-Wymiarowanie7
  6
CONTINUOUS
 62
     7
 10
324.8641
 20
135.432600000000010
 11
324.8641
 21
133.432599999999980
  0
LINE
  8
PT2-Wymiarowanie7
  6
CONTINUOUS
 62
     7
 10
269.1755
 20
135.432600000000010
 11
269.1755
 21
133.432599999999980
  0
TEXT
  8
PT2-Wymiarowanie7
  6
CONTINUOUS
 62
     7
 10
293.844800000000020
 20
136.254400000000000
 40
2.000000000000000
 50
360.000000000000000
  1
5,57
  0
LINE
  8
PT2-Wymiarowanie7
  6
CONTINUOUS
 62
     7
 10
328.6641
 20
134.432600000000010
 11
324.8641
 21
134.432600000000010
  0
LINE
  8
PT2-Wymiarowanie7
  6
CONTINUOUS
 62
     7
 10
329.6641
 20
134.432600000000010
 11
328.6641
 21
134.432600000000010
  0
LINE
  8
PT2-Wymiarowanie7
  6
CONTINUOUS
 62
     7
 10
323.8641
 20
134.432600000000010
 11
324.8641
 21
134.432600000000010
  0
LINE
  8
PT2-Wymiarowanie7
  6
CONTINUOUS
 62
     7
 10
328.1642
 20
133.932599999999980
 11
329.1641
 21
134.932500000000000
  0
LINE
  8
PT2-Wymiarowanie7
  6
CONTINUOUS
 62
     7
 10
324.3642
 20
133.932599999999980
 11
325.3641
 21
134.932500000000000
  0
LINE
  8
PT2-Wymiarowanie7
  6
CONTINUOUS
 62
     7
 10
328.6641
 20
135.432600000000010
 11
328.6641
 21
133.432599999999980
  0
LINE
  8
PT2-Wymiarowanie7
  6
CONTINUOUS
 62
     7
 10
324.8641
 20
135.432600000000010
 11
324.8641
 21
133.432599999999980
  0
TEXT
  8
PT2-Wymiarowanie7
  6
CONTINUOUS
 62
     7
 10
325.000200000000010
 20
136.254400000000000
 40
2.000000000000000
 50
360.000000000000000
  1
38
  0
LINE
  8
PT2-Wymiarowanie7
  6
CONTINUOUS
 62
     7
 10
483.1848
 20
93.465700000000027
 11
483.1851
 21
89.465700000000027
  0
LINE
  8
PT2-Wymiarowanie7
  6
CONTINUOUS
 62
     7
 10
483.1848
 20
94.465700000000027
 11
483.1848
 21
93.465700000000027
  0
LINE
  8
PT2-Wymiarowanie7
  6
CONTINUOUS
 62
     7
 10
483.1852
 20
88.465700000000027
 11
483.1851
 21
89.465700000000027
  0
LINE
  8
PT2-Wymiarowanie7
  6
CONTINUOUS
 62
     7
 10
483.6848
 20
92.965800000000002
 11
482.6849
 21
93.965500000000020
  0
LINE
  8
PT2-Wymiarowanie7
  6
CONTINUOUS
 62
     7
 10
483.6851
 20
88.965800000000002
 11
482.6852
 21
89.965500000000020
  0
LINE
  8
PT2-Wymiarowanie7
  6
CONTINUOUS
 62
     7
 10
484.1848
 20
93.465700000000027
 11
482.1848
 21
93.465599999999995
  0
LINE
  8
PT2-Wymiarowanie7
  6
CONTINUOUS
 62
     7
 10
484.1851
 20
89.465700000000027
 11
482.1851
 21
89.465599999999995
  0
TEXT
  8
PT2-Wymiarowanie7
  6
CONTINUOUS
 62
     7
 10
481.363299999999980
 20
87.287300000000016
 40
2.000000000000000
 50
450.000000000000000
  1
40
  0
LINE
  8
PT2-Wymiarowanie7
  6
CONTINUOUS
 62
     7
 10
483.1823
 20
133.472800000000010
 11
483.1848
 21
93.465700000000027
  0
LINE
  8
PT2-Wymiarowanie7
  6
CONTINUOUS
 62
     7
 10
483.1823
 20
134.472800000000010
 11
483.1823
 21
133.472800000000010
  0
LINE
  8
PT2-Wymiarowanie7
  6
CONTINUOUS
 62
     7
 10
483.1849
 20
92.465700000000027
 11
483.1848
 21
93.465700000000027
  0
LINE
  8
PT2-Wymiarowanie7
  6
CONTINUOUS
 62
     7
 10
483.6823
 20
132.972899999999980
 11
482.6824
 21
133.972600000000000
  0
LINE
  8
PT2-Wymiarowanie7
  6
CONTINUOUS
 62
     7
 10
483.6848
 20
92.965800000000002
 11
482.6849
 21
93.965500000000020
  0
LINE
  8
PT2-Wymiarowanie7
  6
CONTINUOUS
 62
     7
 10
484.1823
 20
133.472800000000010
 11
482.1823
 21
133.472699999999970
  0
LINE
  8
PT2-Wymiarowanie7
  6
CONTINUOUS
 62
     7
 10
484.1848
 20
93.465700000000027
 11
482.1848
 21
93.465599999999995
  0
TEXT
  8
PT2-Wymiarowanie7
  6
CONTINUOUS
 62
     7
 10
481.362000000000020
 20
107.879700000000010
 40
2.000000000000000
 50
450.000000000000000
  1
4,00
  0
LINE
  8
PT2-Wymiarowanie7
  6
CONTINUOUS
 62
     7
 10
483.182
 20
137.272699999999990
 11
483.1823
 21
133.472699999999970
  0
LINE
  8
PT2-Wymiarowanie7
  6
CONTINUOUS
 62
     7
 10
483.182
 20
138.272699999999990
 11
483.182
 21
137.272699999999990
  0
LINE
  8
PT2-Wymiarowanie7
  6
CONTINUOUS
 62
     7
 10
483.1824
 20
132.472699999999970
 11
483.1823
 21
133.472699999999970
  0
LINE
  8
PT2-Wymiarowanie7
  6
CONTINUOUS
 62
     7
 10
483.682
 20
136.772799999999990
 11
482.6821
 21
137.772500000000010
  0
LINE
  8
PT2-Wymiarowanie7
  6
CONTINUOUS
 62
     7
 10
483.6823
 20
132.972800000000010
 11
482.6824
 21
133.972500000000030
  0
LINE
  8
PT2-Wymiarowanie7
  6
CONTINUOUS
 62
     7
 10
484.182
 20
137.272699999999990
 11
482.182
 21
137.272600000000010
  0
LINE
  8
PT2-Wymiarowanie7
  6
CONTINUOUS
 62
     7
 10
484.1823
 20
133.472699999999970
 11
482.1823
 21
133.472600000000000
  0
TEXT
  8
PT2-Wymiarowanie7
  6
CONTINUOUS
 62
     7
 10
481.360500000000000
 20
131.194300000000000
 40
2.000000000000000
 50
450.000000000000000
  1
38
  0
LINE
  8
PT2-Wymiarowanie7
  6
CONTINUOUS
 62
     7
 10
483.1809
 20
154.394499999999990
 11
483.182
 21
137.272799999999990
  0
LINE
  8
PT2-Wymiarowanie7
  6
CONTINUOUS
 62
     7
 10
483.1809
 20
155.394499999999990
 11
483.1809
 21
154.394499999999990
  0
LINE
  8
PT2-Wymiarowanie7
  6
CONTINUOUS
 62
     7
 10
483.1821
 20
136.272799999999990
 11
483.182
 21
137.272799999999990
  0
LINE
  8
PT2-Wymiarowanie7
  6
CONTINUOUS
 62
     7
 10
483.6809
 20
153.894600000000000
 11
482.681
 21
154.894299999999990
  0
LINE
  8
PT2-Wymiarowanie7
  6
CONTINUOUS
 62
     7
 10
483.682
 20
136.772899999999990
 11
482.6821
 21
137.772600000000010
  0
LINE
  8
PT2-Wymiarowanie7
  6
CONTINUOUS
 62
     7
 10
484.1809
 20
154.394499999999990
 11
482.1809
 21
154.394399999999990
  0
LINE
  8
PT2-Wymiarowanie7
  6
CONTINUOUS
 62
     7
 10
484.182
 20
137.272799999999990
 11
482.182
 21
137.272699999999990
  0
TEXT
  8
PT2-Wymiarowanie7
  6
CONTINUOUS
 62
     7
 10
481.360000000000010
 20
140.244100000000000
 40
2.000000000000000
 50
450.000000000000000
  1
1,71
  0
LINE
  8
PT2-Wymiarowanie7
  6
CONTINUOUS
 62
     7
 10
483.1807
 20
158.394399999999990
 11
483.1809
 21
154.394399999999990
  0
LINE
  8
PT2-Wymiarowanie7
  6
CONTINUOUS
 62
     7
 10
483.1807
 20
159.394399999999990
 11
483.1807
 21
158.394399999999990
  0
LINE
  8
PT2-Wymiarowanie7
  6
CONTINUOUS
 62
     7
 10
483.181
 20
153.394399999999990
 11
483.1809
 21
154.394399999999990
  0
LINE
  8
PT2-Wymiarowanie7
  6
CONTINUOUS
 62
     7
 10
483.6807
 20
157.894499999999990
 11
482.6808
 21
158.894299999999990
  0
LINE
  8
PT2-Wymiarowanie7
  6
CONTINUOUS
 62
     7
 10
483.6809
 20
153.894499999999990
 11
482.681
 21
154.894299999999990
  0
LINE
  8
PT2-Wymiarowanie7
  6
CONTINUOUS
 62
     7
 10
484.1807
 20
158.394399999999990
 11
482.1807
 21
158.394299999999990
  0
LINE
  8
PT2-Wymiarowanie7
  6
CONTINUOUS
 62
     7
 10
484.1809
 20
154.394399999999990
 11
482.1809
 21
154.394299999999990
  0
TEXT
  8
PT2-Wymiarowanie7
  6
CONTINUOUS
 62
     7
 10
481.359199999999990
 20
152.216000000000010
 40
2.000000000000000
 50
450.000000000000000
  1
40
  0
LINE
  8
PT2-Wymiarowanie7
  6
CONTINUOUS
 62
     7
 10
483.1793
 20
179.699099999999990
 11
483.1807
 21
158.394499999999990
  0
LINE
  8
PT2-Wymiarowanie7
  6
CONTINUOUS
 62
     7
 10
483.1793
 20
180.699099999999990
 11
483.1793
 21
179.699099999999990
  0
LINE
  8
PT2-Wymiarowanie7
  6
CONTINUOUS
 62
     7
 10
483.1808
 20
157.394499999999990
 11
483.1807
 21
158.394499999999990
  0
LINE
  8
PT2-Wymiarowanie7
  6
CONTINUOUS
 62
     7
 10
483.6793
 20
179.199199999999990
 11
482.6794
 21
180.198900000000010
  0
LINE
  8
PT2-Wymiarowanie7
  6
CONTINUOUS
 62
     7
 10
483.6807
 20
157.894600000000000
 11
482.6808
 21
158.894299999999990
  0
LINE
  8
PT2-Wymiarowanie7
  6
CONTINUOUS
 62
     7
 10
484.1793
 20
179.699099999999990
 11
482.1793
 21
179.699000000000010
  0
LINE
  8
PT2-Wymiarowanie7
  6
CONTINUOUS
 62
     7
 10
484.1807
 20
158.394499999999990
 11
482.1807
 21
158.394399999999990
  0
TEXT
  8
PT2-Wymiarowanie7
  6
CONTINUOUS
 62
     7
 10
481.358499999999990
 20
163.457200000000000
 40
2.000000000000000
 50
450.000000000000000
  1
2,13
  0
LINE
  8
PT2-Wymiarowanie7
  6
CONTINUOUS
 62
     7
 10
483.1791
 20
183.698900000000010
 11
483.1793
 21
179.698900000000010
  0
LINE
  8
PT2-Wymiarowanie7
  6
CONTINUOUS
 62
     7
 10
483.1791
 20
184.698900000000010
 11
483.1791
 21
183.698900000000010
  0
LINE
  8
PT2-Wymiarowanie7
  6
CONTINUOUS
 62
     7
 10
483.1794
 20
178.698900000000010
 11
483.1793
 21
179.698900000000010
  0
LINE
  8
PT2-Wymiarowanie7
  6
CONTINUOUS
 62
     7
 10
483.6791
 20
183.199000000000010
 11
482.6792
 21
184.198800000000010
  0
LINE
  8
PT2-Wymiarowanie7
  6
CONTINUOUS
 62
     7
 10
483.6793
 20
179.199000000000010
 11
482.6794
 21
180.198800000000010
  0
LINE
  8
PT2-Wymiarowanie7
  6
CONTINUOUS
 62
     7
 10
484.1791
 20
183.698900000000010
 11
482.1791
 21
183.698800000000010
  0
LINE
  8
PT2-Wymiarowanie7
  6
CONTINUOUS
 62
     7
 10
484.1793
 20
179.698900000000010
 11
482.1793
 21
179.698800000000010
  0
TEXT
  8
PT2-Wymiarowanie7
  6
CONTINUOUS
 62
     7
 10
481.357599999999990
 20
177.520500000000000
 40
2.000000000000000
 50
450.000000000000000
  1
40
  0
LINE
  8
PT2-Wymiarowanie7
  6
CONTINUOUS
 62
     7
 10
483.1752
 20
244.449000000000010
 11
483.1791
 21
183.699000000000010
  0
LINE
  8
PT2-Wymiarowanie7
  6
CONTINUOUS
 62
     7
 10
483.1752
 20
245.449000000000010
 11
483.1752
 21
244.449000000000010
  0
LINE
  8
PT2-Wymiarowanie7
  6
CONTINUOUS
 62
     7
 10
483.1792
 20
182.699000000000010
 11
483.1791
 21
183.699000000000010
  0
LINE
  8
PT2-Wymiarowanie7
  6
CONTINUOUS
 62
     7
 10
483.6752
 20
243.949099999999990
 11
482.6753
 21
244.948800000000010
  0
LINE
  8
PT2-Wymiarowanie7
  6
CONTINUOUS
 62
     7
 10
483.6791
 20
183.199099999999990
 11
482.6792
 21
184.198800000000010
  0
LINE
  8
PT2-Wymiarowanie7
  6
CONTINUOUS
 62
     7
 10
484.1752
 20
244.449000000000010
 11
482.1752
 21
244.448900000000010
  0
LINE
  8
PT2-Wymiarowanie7
  6
CONTINUOUS
 62
     7
 10
484.1791
 20
183.699000000000010
 11
482.1791
 21
183.698900000000010
  0
TEXT
  8
PT2-Wymiarowanie7
  6
CONTINUOUS
 62
     7
 10
481.355599999999980
 20
208.484500000000000
 40
2.000000000000000
 50
450.000000000000000
  1
6,07
  0
TEXT
  8
PT2-Wymiarowanie7
  6
CONTINUOUS
 62
     7
 10
480.340199999999980
 20
215.367099999999990
 40
1.500000000000000
 50
450.000000000000000
  1
5
  0
LINE
  8
PT2-Wymiarowanie7
  6
CONTINUOUS
 62
     7
 10
483.175
 20
248.448900000000010
 11
483.1752
 21
244.449099999999990
  0
LINE
  8
PT2-Wymiarowanie7
  6
CONTINUOUS
 62
     7
 10
483.175
 20
249.448900000000010
 11
483.175
 21
248.448900000000010
  0
LINE
  8
PT2-Wymiarowanie7
  6
CONTINUOUS
 62
     7
 10
483.1753
 20
243.449099999999990
 11
483.1752
 21
244.449099999999990
  0
LINE
  8
PT2-Wymiarowanie7
  6
CONTINUOUS
 62
     7
 10
483.675
 20
247.949000000000010
 11
482.6751
 21
248.948800000000010
  0
LINE
  8
PT2-Wymiarowanie7
  6
CONTINUOUS
 62
     7
 10
483.6752
 20
243.949199999999990
 11
482.6753
 21
244.949000000000010
  0
LINE
  8
PT2-Wymiarowanie7
  6
CONTINUOUS
 62
     7
 10
484.175
 20
248.448900000000010
 11
482.175
 21
248.448800000000010
  0
LINE
  8
PT2-Wymiarowanie7
  6
CONTINUOUS
 62
     7
 10
484.1752
 20
244.449099999999990
 11
482.1752
 21
244.449000000000010
  0
TEXT
  8
PT2-Wymiarowanie7
  6
CONTINUOUS
 62
     7
 10
481.353500000000000
 20
242.270600000000000
 40
2.000000000000000
 50
450.000000000000000
  1
40
  0
LINE
  8
PT2-Wymiarowanie7
  6
CONTINUOUS
 62
     7
 10
489.8143
 20
248.449900000000010
 11
489.8244
 21
89.449999999999989
  0
LINE
  8
PT2-Wymiarowanie7
  6
CONTINUOUS
 62
     7
 10
489.8143
 20
249.449900000000010
 11
489.8143
 21
248.449900000000010
  0
LINE
  8
PT2-Wymiarowanie7
  6
CONTINUOUS
 62
     7
 10
489.8245
 20
88.449999999999989
 11
489.8244
 21
89.449999999999989
  0
LINE
  8
PT2-Wymiarowanie7
  6
CONTINUOUS
 62
     7
 10
490.3143
 20
247.949999999999990
 11
489.3144
 21
248.949700000000010
  0
LINE
  8
PT2-Wymiarowanie7
  6
CONTINUOUS
 62
     7
 10
490.3244
 20
88.950100000000020
 11
489.3245
 21
89.949799999999982
  0
LINE
  8
PT2-Wymiarowanie7
  6
CONTINUOUS
 62
     7
 10
490.8143
 20
248.449900000000010
 11
488.8143
 21
248.449800000000010
  0
LINE
  8
PT2-Wymiarowanie7
  6
CONTINUOUS
 62
     7
 10
490.8244
 20
89.449999999999989
 11
488.8244
 21
89.449900000000014
  0
TEXT
  8
PT2-Wymiarowanie7
  6
CONTINUOUS
 62
     7
 10
487.997900000000020
 20
162.478399999999990
 40
2.000000000000000
 50
450.000000000000000
  1
15,90
  0
LINE
  8
PT2-Wymiarowanie7
  6
CONTINUOUS
 62
     7
 10
436.7569
 20
143.113599999999990
 11
463.9674
 21
143.116999999999990
  0
LINE
  8
PT2-Wymiarowanie7
  6
CONTINUOUS
 62
     7
 10
435.7569
 20
143.113400000000010
 11
436.7569
 21
143.113599999999990
  0
LINE
  8
PT2-Wymiarowanie7
  6
CONTINUOUS
 62
     7
 10
464.9674
 20
143.117099999999990
 11
463.9674
 21
143.116999999999990
  0
LINE
  8
PT2-Wymiarowanie7
  6
CONTINUOUS
 62
     7
 10
437.2568
 20
143.613499999999990
 11
436.2571
 21
142.613599999999990
  0
LINE
  8
PT2-Wymiarowanie7
  6
CONTINUOUS
 62
     7
 10
464.4673
 20
143.616899999999990
 11
463.4676
 21
142.616999999999990
  0
LINE
  8
PT2-Wymiarowanie7
  6
CONTINUOUS
 62
     7
 10
436.7568
 20
144.113599999999990
 11
436.7571
 21
142.113599999999990
  0
LINE
  8
PT2-Wymiarowanie7
  6
CONTINUOUS
 62
     7
 10
463.9673
 20
144.116999999999990
 11
463.9676
 21
142.116999999999990
  0
TEXT
  8
PT2-Wymiarowanie7
  6
CONTINUOUS
 62
     7
 10
447.186699999999970
 20
144.936600000000000
 40
2.000000000000000
  1
2,72
  0
LINE
  8
PT2-Wymiarowanie7
  6
CONTINUOUS
 62
     7
 10
417.3569
 20
143.111099999999990
 11
436.7569
 21
143.113599999999990
  0
LINE
  8
PT2-Wymiarowanie7
  6
CONTINUOUS
 62
     7
 10
416.3569
 20
143.110899999999990
 11
417.3569
 21
143.111099999999990
  0
LINE
  8
PT2-Wymiarowanie7
  6
CONTINUOUS
 62
     7
 10
437.7569
 20
143.113699999999990
 11
436.7569
 21
143.113599999999990
  0
LINE
  8
PT2-Wymiarowanie7
  6
CONTINUOUS
 62
     7
 10
417.8568
 20
143.610999999999990
 11
416.8571
 21
142.611099999999990
  0
LINE
  8
PT2-Wymiarowanie7
  6
CONTINUOUS
 62
     7
 10
437.2568
 20
143.613499999999990
 11
436.2571
 21
142.613599999999990
  0
LINE
  8
PT2-Wymiarowanie7
  6
CONTINUOUS
 62
     7
 10
417.3568
 20
144.111099999999990
 11
417.3571
 21
142.111099999999990
  0
LINE
  8
PT2-Wymiarowanie7
  6
CONTINUOUS
 62
     7
 10
436.7568
 20
144.113599999999990
 11
436.7571
 21
142.113599999999990
  0
TEXT
  8
PT2-Wymiarowanie7
  6
CONTINUOUS
 62
     7
 10
423.881399999999990
 20
144.933699999999990
 40
2.000000000000000
  1
1,94
  0
LINE
  8
PT2-Wymiarowanie7
  6
CONTINUOUS
 62
     7
 10
463.9638
 20
259.624599999999990
 11
467.9638
 21
259.625099999999970
  0
LINE
  8
PT2-Wymiarowanie7
  6
CONTINUOUS
 62
     7
 10
462.9638
 20
259.624400000000040
 11
463.9638
 21
259.624599999999990
  0
LINE
  8
PT2-Wymiarowanie7
  6
CONTINUOUS
 62
     7
 10
468.9638
 20
259.625200000000010
 11
467.9638
 21
259.625099999999970
  0
LINE
  8
PT2-Wymiarowanie7
  6
CONTINUOUS
 62
     7
 10
464.4637
 20
260.124500000000010
 11
463.464
 21
259.124599999999990
  0
LINE
  8
PT2-Wymiarowanie7
  6
CONTINUOUS
 62
     7
 10
468.4637
 20
260.125000000000000
 11
467.464
 21
259.125099999999970
  0
LINE
  8
PT2-Wymiarowanie7
  6
CONTINUOUS
 62
     7
 10
463.9637
 20
260.624599999999990
 11
463.964
 21
258.624599999999990
  0
LINE
  8
PT2-Wymiarowanie7
  6
CONTINUOUS
 62
     7
 10
467.9637
 20
260.625099999999970
 11
467.964
 21
258.625099999999970
  0
TEXT
  8
PT2-Wymiarowanie7
  6
CONTINUOUS
 62
     7
 10
464.199400000000030
 20
261.446399999999980
 40
2.000000000000000
  1
40
  0
LINE
  8
PT2-Wymiarowanie7
  6
CONTINUOUS
 62
     7
 10
330.7138
 20
259.607599999999990
 11
463.9638
 21
259.624599999999990
  0
LINE
  8
PT2-Wymiarowanie7
  6
CONTINUOUS
 62
     7
 10
329.7138
 20
259.607399999999980
 11
330.7138
 21
259.607599999999990
  0
LINE
  8
PT2-Wymiarowanie7
  6
CONTINUOUS
 62
     7
 10
464.9638
 20
259.624699999999960
 11
463.9638
 21
259.624599999999990
  0
LINE
  8
PT2-Wymiarowanie7
  6
CONTINUOUS
 62
     7
 10
331.2137
 20
260.107499999999960
 11
330.214
 21
259.107599999999990
  0
LINE
  8
PT2-Wymiarowanie7
  6
CONTINUOUS
 62
     7
 10
464.4637
 20
260.124500000000010
 11
463.464
 21
259.124599999999990
  0
LINE
  8
PT2-Wymiarowanie7
  6
CONTINUOUS
 62
     7
 10
330.7137
 20
260.607599999999990
 11
330.714
 21
258.607599999999990
  0
LINE
  8
PT2-Wymiarowanie7
  6
CONTINUOUS
 62
     7
 10
463.9637
 20
260.624599999999990
 11
463.964
 21
258.624599999999990
  0
TEXT
  8
PT2-Wymiarowanie7
  6
CONTINUOUS
 62
     7
 10
393.281400000000020
 20
261.437400000000030
 40
2.000000000000000
  1
13,32
  0
TEXT
  8
PT2-Wymiarowanie7
  6
CONTINUOUS
 62
     7
 10
401.354400000000000
 20
262.433400000000010
 40
1.500000000000000
  1
5
  0
LINE
  8
PT2-Wymiarowanie7
  6
CONTINUOUS
 62
     7
 10
326.7138
 20
259.607100000000000
 11
330.7138
 21
259.607599999999990
  0
LINE
  8
PT2-Wymiarowanie7
  6
CONTINUOUS
 62
     7
 10
325.7138
 20
259.606900000000000
 11
326.7138
 21
259.607100000000000
  0
LINE
  8
PT2-Wymiarowanie7
  6
CONTINUOUS
 62
     7
 10
331.7138
 20
259.607700000000020
 11
330.7138
 21
259.607599999999990
  0
LINE
  8
PT2-Wymiarowanie7
  6
CONTINUOUS
 62
     7
 10
327.2137
 20
260.106999999999970
 11
326.214
 21
259.107100000000000
  0
LINE
  8
PT2-Wymiarowanie7
  6
CONTINUOUS
 62
     7
 10
331.2137
 20
260.107499999999960
 11
330.214
 21
259.107599999999990
  0
LINE
  8
PT2-Wymiarowanie7
  6
CONTINUOUS
 62
     7
 10
326.7137
 20
260.607100000000000
 11
326.714
 21
258.607100000000000
  0
LINE
  8
PT2-Wymiarowanie7
  6
CONTINUOUS
 62
     7
 10
330.7137
 20
260.607599999999990
 11
330.714
 21
258.607599999999990
  0
TEXT
  8
PT2-Wymiarowanie7
  6
CONTINUOUS
 62
     7
 10
326.949400000000030
 20
261.428900000000000
 40
2.000000000000000
  1
40
  0
LINE
  8
PT2-Wymiarowanie7
  6
CONTINUOUS
 62
     7
 10
298.4638
 20
259.603500000000000
 11
326.7138
 21
259.607100000000000
  0
LINE
  8
PT2-Wymiarowanie7
  6
CONTINUOUS
 62
     7
 10
297.4638
 20
259.603299999999990
 11
298.4638
 21
259.603500000000000
  0
LINE
  8
PT2-Wymiarowanie7
  6
CONTINUOUS
 62
     7
 10
327.7138
 20
259.607200000000030
 11
326.7138
 21
259.607100000000000
  0
LINE
  8
PT2-Wymiarowanie7
  6
CONTINUOUS
 62
     7
 10
298.9637
 20
260.103399999999970
 11
297.964
 21
259.103500000000000
  0
LINE
  8
PT2-Wymiarowanie7
  6
CONTINUOUS
 62
     7
 10
327.2137
 20
260.106999999999970
 11
326.214
 21
259.107100000000000
  0
LINE
  8
PT2-Wymiarowanie7
  6
CONTINUOUS
 62
     7
 10
298.4637
 20
260.603500000000000
 11
298.464
 21
258.603500000000000
  0
LINE
  8
PT2-Wymiarowanie7
  6
CONTINUOUS
 62
     7
 10
326.7137
 20
260.607100000000000
 11
326.714
 21
258.607100000000000
  0
TEXT
  8
PT2-Wymiarowanie7
  6
CONTINUOUS
 62
     7
 10
309.413299999999990
 20
261.426699999999980
 40
2.000000000000000
  1
2,82
  0
TEXT
  8
PT2-Wymiarowanie7
  6
CONTINUOUS
 62
     7
 10
315.692299999999990
 20
262.422500000000010
 40
1.500000000000000
  1
5
  0
LINE
  8
PT2-Wymiarowanie7
  6
CONTINUOUS
 62
     7
 10
294.4638
 20
259.603000000000010
 11
298.4638
 21
259.603500000000000
  0
LINE
  8
PT2-Wymiarowanie7
  6
CONTINUOUS
 62
     7
 10
293.4638
 20
259.602800000000000
 11
294.4638
 21
259.603000000000010
  0
LINE
  8
PT2-Wymiarowanie7
  6
CONTINUOUS
 62
     7
 10
299.4638
 20
259.603600000000030
 11
298.4638
 21
259.603500000000000
  0
LINE
  8
PT2-Wymiarowanie7
  6
CONTINUOUS
 62
     7
 10
294.9637
 20
260.102899999999980
 11
293.964
 21
259.103000000000010
  0
LINE
  8
PT2-Wymiarowanie7
  6
CONTINUOUS
 62
     7
 10
298.9637
 20
260.103399999999970
 11
297.964
 21
259.103500000000000
  0
LINE
  8
PT2-Wymiarowanie7
  6
CONTINUOUS
 62
     7
 10
294.4637
 20
260.603000000000010
 11
294.464
 21
258.603000000000010
  0
LINE
  8
PT2-Wymiarowanie7
  6
CONTINUOUS
 62
     7
 10
298.4637
 20
260.603500000000000
 11
298.464
 21
258.603500000000000
  0
TEXT
  8
PT2-Wymiarowanie7
  6
CONTINUOUS
 62
     7
 10
294.699400000000030
 20
261.424800000000000
 40
2.000000000000000
  1
40
  0
LINE
  8
PT2-Wymiarowanie7
  6
CONTINUOUS
 62
     7
 10
264.9638
 20
259.599299999999970
 11
294.4638
 21
259.603000000000010
  0
LINE
  8
PT2-Wymiarowanie7
  6
CONTINUOUS
 62
     7
 10
263.9638
 20
259.599100000000020
 11
264.9638
 21
259.599299999999970
  0
LINE
  8
PT2-Wymiarowanie7
  6
CONTINUOUS
 62
     7
 10
295.4638
 20
259.603100000000040
 11
294.4638
 21
259.603000000000010
  0
LINE
  8
PT2-Wymiarowanie7
  6
CONTINUOUS
 62
     7
 10
265.4637
 20
260.099200000000000
 11
264.464
 21
259.099299999999970
  0
LINE
  8
PT2-Wymiarowanie7
  6
CONTINUOUS
 62
     7
 10
294.9637
 20
260.102899999999980
 11
293.964
 21
259.103000000000010
  0
LINE
  8
PT2-Wymiarowanie7
  6
CONTINUOUS
 62
     7
 10
264.9637
 20
260.599299999999970
 11
264.964
 21
258.599299999999970
  0
LINE
  8
PT2-Wymiarowanie7
  6
CONTINUOUS
 62
     7
 10
294.4637
 20
260.603000000000010
 11
294.464
 21
258.603000000000010
  0
TEXT
  8
PT2-Wymiarowanie7
  6
CONTINUOUS
 62
     7
 10
276.538299999999990
 20
261.422500000000010
 40
2.000000000000000
  1
2,95
  0
LINE
  8
PT2-Wymiarowanie7
  6
CONTINUOUS
 62
     7
 10
294.4637
 20
266.074700000000010
 11
467.9637
 21
266.096800000000030
  0
LINE
  8
PT2-Wymiarowanie7
  6
CONTINUOUS
 62
     7
 10
293.4637
 20
266.074500000000000
 11
294.4637
 21
266.074700000000010
  0
LINE
  8
PT2-Wymiarowanie7
  6
CONTINUOUS
 62
     7
 10
468.9637
 20
266.096900000000010
 11
467.9637
 21
266.096800000000030
  0
LINE
  8
PT2-Wymiarowanie7
  6
CONTINUOUS
 62
     7
 10
294.9636
 20
266.574600000000030
 11
293.9639
 21
265.574700000000010
  0
LINE
  8
PT2-Wymiarowanie7
  6
CONTINUOUS
 62
     7
 10
468.4636
 20
266.596700000000000
 11
467.4639
 21
265.596800000000030
  0
LINE
  8
PT2-Wymiarowanie7
  6
CONTINUOUS
 62
     7
 10
294.4636
 20
267.074700000000010
 11
294.4639
 21
265.074700000000010
  0
LINE
  8
PT2-Wymiarowanie7
  6
CONTINUOUS
 62
     7
 10
467.9636
 20
267.096800000000030
 11
467.9639
 21
265.096800000000030
  0
TEXT
  8
PT2-Wymiarowanie7
  6
CONTINUOUS
 62
     7
 10
377.156299999999990
 20
267.906999999999980
 40
2.000000000000000
  1
17,35
  0
LINE
  8
PT2-Wymiarowanie7
  6
CONTINUOUS
 62
     7
 10
264.964
 20
266.074000000000010
 11
294.464
 21
266.077800000000020
  0
LINE
  8
PT2-Wymiarowanie7
  6
CONTINUOUS
 62
     7
 10
263.964
 20
266.073800000000010
 11
264.964
 21
266.074000000000010
  0
LINE
  8
PT2-Wymiarowanie7
  6
CONTINUOUS
 62
     7
 10
295.464
 20
266.077900000000000
 11
294.464
 21
266.077800000000020
  0
LINE
  8
PT2-Wymiarowanie7
  6
CONTINUOUS
 62
     7
 10
265.4639
 20
266.573899999999980
 11
264.4642
 21
265.574000000000010
  0
LINE
  8
PT2-Wymiarowanie7
  6
CONTINUOUS
 62
     7
 10
294.9639
 20
266.577699999999990
 11
293.9642
 21
265.577800000000020
  0
LINE
  8
PT2-Wymiarowanie7
  6
CONTINUOUS
 62
     7
 10
264.9639
 20
267.074000000000010
 11
264.9642
 21
265.074000000000010
  0
LINE
  8
PT2-Wymiarowanie7
  6
CONTINUOUS
 62
     7
 10
294.4639
 20
267.077800000000020
 11
294.4642
 21
265.077800000000020
  0
TEXT
  8
PT2-Wymiarowanie7
  6
CONTINUOUS
 62
     7
 10
276.538500000000000
 20
267.897200000000000
 40
2.000000000000000
  1
2,95
  0
LINE
  8
PT2-Wymiarowanie7
  6
CONTINUOUS
 62
     7
 10
259.4722
 20
292.722300000000020
 11
264.9722
 21
292.721599999999970
  0
LINE
  8
PT2-Wymiarowanie7
  6
CONTINUOUS
 62
     7
 10
258.4722
 20
292.722399999999990
 11
259.4722
 21
292.722300000000020
  0
LINE
  8
PT2-Wymiarowanie7
  6
CONTINUOUS
 62
     7
 10
265.9722
 20
292.721400000000020
 11
264.9722
 21
292.721599999999970
  0
LINE
  8
PT2-Wymiarowanie7
  6
CONTINUOUS
 62
     7
 10
259.9722
 20
293.222100000000010
 11
258.9723
 21
292.222399999999990
  0
LINE
  8
PT2-Wymiarowanie7
  6
CONTINUOUS
 62
     7
 10
265.4722
 20
293.221400000000020
 11
264.4723
 21
292.221700000000000
  0
LINE
  8
PT2-Wymiarowanie7
  6
CONTINUOUS
 62
     7
 10
259.4724
 20
293.722300000000020
 11
259.4721
 21
291.722300000000020
  0
LINE
  8
PT2-Wymiarowanie7
  6
CONTINUOUS
 62
     7
 10
264.9724
 20
293.721599999999970
 11
264.9721
 21
291.721599999999970
  0
TEXT
  8
PT2-Wymiarowanie7
  6
CONTINUOUS
 62
     7
 10
260.458800000000000
 20
294.543900000000010
 40
2.000000000000000
 50
360.000000000000000
  1
55
  0
LINE
  8
PT2-Wymiarowanie7
  6
CONTINUOUS
 62
     7
 10
198.1706
 20
292.730099999999990
 11
259.4722
 21
292.722300000000020
  0
LINE
  8
PT2-Wymiarowanie7
  6
CONTINUOUS
 62
     7
 10
197.1706
 20
292.730199999999970
 11
198.1706
 21
292.730099999999990
  0
LINE
  8
PT2-Wymiarowanie7
  6
CONTINUOUS
 62
     7
 10
260.4722
 20
292.722100000000010
 11
259.4722
 21
292.722300000000020
  0
LINE
  8
PT2-Wymiarowanie7
  6
CONTINUOUS
 62
     7
 10
198.6706
 20
293.229899999999990
 11
197.6707
 21
292.230199999999970
  0
LINE
  8
PT2-Wymiarowanie7
  6
CONTINUOUS
 62
     7
 10
259.9722
 20
293.222100000000010
 11
258.9723
 21
292.222399999999990
  0
LINE
  8
PT2-Wymiarowanie7
  6
CONTINUOUS
 62
     7
 10
198.1708
 20
293.730099999999990
 11
198.1705
 21
291.730099999999990
  0
LINE
  8
PT2-Wymiarowanie7
  6
CONTINUOUS
 62
     7
 10
259.4724
 20
293.722300000000020
 11
259.4721
 21
291.722300000000020
  0
TEXT
  8
PT2-Wymiarowanie7
  6
CONTINUOUS
 62
     7
 10
225.646899999999990
 20
294.548299999999980
 40
2.000000000000000
 50
360.000000000000000
  1
6,13
  0
LINE
  8
PT2-Wymiarowanie7
  6
CONTINUOUS
 62
     7
 10
192.6706
 20
292.730799999999990
 11
198.1706
 21
292.730099999999990
  0
LINE
  8
PT2-Wymiarowanie7
  6
CONTINUOUS
 62
     7
 10
191.6706
 20
292.730900000000020
 11
192.6706
 21
292.730799999999990
  0
LINE
  8
PT2-Wymiarowanie7
  6
CONTINUOUS
 62
     7
 10
199.1706
 20
292.729899999999990
 11
198.1706
 21
292.730099999999990
  0
LINE
  8
PT2-Wymiarowanie7
  6
CONTINUOUS
 62
     7
 10
193.1706
 20
293.230599999999980
 11
192.1707
 21
292.230900000000020
  0
LINE
  8
PT2-Wymiarowanie7
  6
CONTINUOUS
 62
     7
 10
198.6706
 20
293.229899999999990
 11
197.6707
 21
292.230199999999970
  0
LINE
  8
PT2-Wymiarowanie7
  6
CONTINUOUS
 62
     7
 10
192.6708
 20
293.730799999999990
 11
192.6705
 21
291.730799999999990
  0
LINE
  8
PT2-Wymiarowanie7
  6
CONTINUOUS
 62
     7
 10
198.1708
 20
293.730099999999990
 11
198.1705
 21
291.730099999999990
  0
TEXT
  8
PT2-Wymiarowanie7
  6
CONTINUOUS
 62
     7
 10
193.657199999999990
 20
294.552400000000030
 40
2.000000000000000
 50
360.000000000000000
  1
55
  0
LINE
  8
PT2-Wymiarowanie7
  6
CONTINUOUS
 62
     7
 10
160.0206
 20
292.734899999999980
 11
192.6706
 21
292.730799999999990
  0
LINE
  8
PT2-Wymiarowanie7
  6
CONTINUOUS
 62
     7
 10
159.0206
 20
292.735000000000010
 11
160.0206
 21
292.734899999999980
  0
LINE
  8
PT2-Wymiarowanie7
  6
CONTINUOUS
 62
     7
 10
193.6706
 20
292.730599999999980
 11
192.6706
 21
292.730799999999990
  0
LINE
  8
PT2-Wymiarowanie7
  6
CONTINUOUS
 62
     7
 10
160.5206
 20
293.234699999999980
 11
159.5207
 21
292.235000000000010
  0
LINE
  8
PT2-Wymiarowanie7
  6
CONTINUOUS
 62
     7
 10
193.1706
 20
293.230599999999980
 11
192.1707
 21
292.230900000000020
  0
LINE
  8
PT2-Wymiarowanie7
  6
CONTINUOUS
 62
     7
 10
160.0208
 20
293.734899999999980
 11
160.0205
 21
291.734899999999980
  0
LINE
  8
PT2-Wymiarowanie7
  6
CONTINUOUS
 62
     7
 10
192.6708
 20
293.730799999999990
 11
192.6705
 21
291.730799999999990
  0
TEXT
  8
PT2-Wymiarowanie7
  6
CONTINUOUS
 62
     7
 10
173.170999999999990
 20
294.555000000000010
 40
2.000000000000000
 50
360.000000000000000
  1
3,26
  0
TEXT
  8
PT2-Wymiarowanie7
  6
CONTINUOUS
 62
     7
 10
179.450099999999990
 20
295.549199999999980
 40
1.500000000000000
 50
360.000000000000000
  1
5
  0
LINE
  8
PT2-Wymiarowanie7
  6
CONTINUOUS
 62
     7
 10
154.5206
 20
292.735599999999980
 11
160.0206
 21
292.734899999999980
  0
LINE
  8
PT2-Wymiarowanie7
  6
CONTINUOUS
 62
     7
 10
153.5206
 20
292.735700000000010
 11
154.5206
 21
292.735599999999980
  0
LINE
  8
PT2-Wymiarowanie7
  6
CONTINUOUS
 62
     7
 10
161.0206
 20
292.734699999999980
 11
160.0206
 21
292.734899999999980
  0
LINE
  8
PT2-Wymiarowanie7
  6
CONTINUOUS
 62
     7
 10
155.0206
 20
293.235400000000030
 11
154.0207
 21
292.235700000000010
  0
LINE
  8
PT2-Wymiarowanie7
  6
CONTINUOUS
 62
     7
 10
160.5206
 20
293.234699999999980
 11
159.5207
 21
292.235000000000010
  0
LINE
  8
PT2-Wymiarowanie7
  6
CONTINUOUS
 62
     7
 10
154.5208
 20
293.735599999999980
 11
154.5205
 21
291.735599999999980
  0
LINE
  8
PT2-Wymiarowanie7
  6
CONTINUOUS
 62
     7
 10
160.0208
 20
293.734899999999980
 11
160.0205
 21
291.734899999999980
  0
TEXT
  8
PT2-Wymiarowanie7
  6
CONTINUOUS
 62
     7
 10
155.507200000000010
 20
294.557300000000000
 40
2.000000000000000
 50
360.000000000000000
  1
55
  0
LINE
  8
PT2-Wymiarowanie7
  6
CONTINUOUS
 62
     7
 10
154.3199
 20
292.735700000000010
 11
154.5205
 21
292.735599999999980
  0
LINE
  8
PT2-Wymiarowanie7
  6
CONTINUOUS
 62
     7
 10
153.3199
 20
292.736200000000000
 11
154.3199
 21
292.735700000000010
  0
LINE
  8
PT2-Wymiarowanie7
  6
CONTINUOUS
 62
     7
 10
155.5205
 20
292.735099999999990
 11
154.5205
 21
292.735599999999980
  0
LINE
  8
PT2-Wymiarowanie7
  6
CONTINUOUS
 62
     7
 10
154.8201
 20
293.235300000000000
 11
153.8198
 21
292.235999999999990
  0
LINE
  8
PT2-Wymiarowanie7
  6
CONTINUOUS
 62
     7
 10
155.0207
 20
293.235200000000020
 11
154.0204
 21
292.235900000000020
  0
LINE
  8
PT2-Wymiarowanie7
  6
CONTINUOUS
 62
     7
 10
154.3201
 20
293.735700000000010
 11
154.3198
 21
291.735700000000010
  0
LINE
  8
PT2-Wymiarowanie7
  6
CONTINUOUS
 62
     7
 10
154.5207
 20
293.735599999999980
 11
154.5204
 21
291.735599999999980
  0
TEXT
  8
PT2-Wymiarowanie7
  6
CONTINUOUS
 62
     7
 10
153.538800000000010
 20
294.557500000000000
 40
2.000000000000000
 50
360.000000000000000
  1
2
  0
LINE
  8
PT2-Wymiarowanie7
  6
CONTINUOUS
 62
     7
 10
150.3199
 20
292.736200000000000
 11
154.3199
 21
292.735700000000010
  0
LINE
  8
PT2-Wymiarowanie7
  6
CONTINUOUS
 62
     7
 10
149.3199
 20
292.736300000000030
 11
150.3199
 21
292.736200000000000
  0
LINE
  8
PT2-Wymiarowanie7
  6
CONTINUOUS
 62
     7
 10
155.3199
 20
292.735500000000000
 11
154.3199
 21
292.735700000000010
  0
LINE
  8
PT2-Wymiarowanie7
  6
CONTINUOUS
 62
     7
 10
150.8199
 20
293.235999999999990
 11
149.82
 21
292.236300000000030
  0
LINE
  8
PT2-Wymiarowanie7
  6
CONTINUOUS
 62
     7
 10
154.8199
 20
293.235500000000000
 11
153.82
 21
292.235799999999980
  0
LINE
  8
PT2-Wymiarowanie7
  6
CONTINUOUS
 62
     7
 10
150.3201
 20
293.736200000000000
 11
150.3198
 21
291.736200000000000
  0
LINE
  8
PT2-Wymiarowanie7
  6
CONTINUOUS
 62
     7
 10
154.3201
 20
293.735700000000010
 11
154.3198
 21
291.735700000000010
  0
TEXT
  8
PT2-Wymiarowanie7
  6
CONTINUOUS
 62
     7
 10
150.556600000000000
 20
294.557900000000020
 40
2.000000000000000
 50
360.000000000000000
  1
40
  0
LINE
  8
PT2-Wymiarowanie7
  6
CONTINUOUS
 62
     7
 10
92.1683
 20
292.743600000000010
 11
150.3199
 21
292.736200000000000
  0
LINE
  8
PT2-Wymiarowanie7
  6
CONTINUOUS
 62
     7
 10
91.1683
 20
292.743699999999990
 11
92.1683
 21
292.743600000000010
  0
LINE
  8
PT2-Wymiarowanie7
  6
CONTINUOUS
 62
     7
 10
151.3199
 20
292.735999999999990
 11
150.3199
 21
292.736200000000000
  0
LINE
  8
PT2-Wymiarowanie7
  6
CONTINUOUS
 62
     7
 10
92.6683
 20
293.243400000000010
 11
91.6684
 21
292.243699999999990
  0
LINE
  8
PT2-Wymiarowanie7
  6
CONTINUOUS
 62
     7
 10
150.8199
 20
293.235999999999990
 11
149.82
 21
292.236300000000030
  0
LINE
  8
PT2-Wymiarowanie7
  6
CONTINUOUS
 62
     7
 10
92.1685
 20
293.743600000000010
 11
92.1682
 21
291.743600000000010
  0
LINE
  8
PT2-Wymiarowanie7
  6
CONTINUOUS
 62
     7
 10
150.3201
 20
293.736200000000000
 11
150.3198
 21
291.736200000000000
  0
TEXT
  8
PT2-Wymiarowanie7
  6
CONTINUOUS
 62
     7
 10
118.069599999999990
 20
294.562000000000010
 40
2.000000000000000
 50
360.000000000000000
  1
5,81
  0
TEXT
  8
PT2-Wymiarowanie7
  6
CONTINUOUS
 62
     7
 10
124.348699999999990
 20
295.556199999999990
 40
1.500000000000000
 50
360.000000000000000
  1
5
  0
LINE
  8
PT2-Wymiarowanie7
  6
CONTINUOUS
 62
     7
 10
88.1682
 20
292.744100000000000
 11
92.1683
 21
292.743600000000010
  0
LINE
  8
PT2-Wymiarowanie7
  6
CONTINUOUS
 62
     7
 10
87.1682
 20
292.744199999999980
 11
88.1682
 21
292.744100000000000
  0
LINE
  8
PT2-Wymiarowanie7
  6
CONTINUOUS
 62
     7
 10
93.1683
 20
292.743400000000010
 11
92.1683
 21
292.743600000000010
  0
LINE
  8
PT2-Wymiarowanie7
  6
CONTINUOUS
 62
     7
 10
88.6682
 20
293.243900000000000
 11
87.6683
 21
292.244199999999980
  0
LINE
  8
PT2-Wymiarowanie7
  6
CONTINUOUS
 62
     7
 10
92.6683
 20
293.243400000000010
 11
91.6684
 21
292.243699999999990
  0
LINE
  8
PT2-Wymiarowanie7
  6
CONTINUOUS
 62
     7
 10
88.1684
 20
293.744100000000000
 11
88.1681
 21
291.744100000000000
  0
LINE
  8
PT2-Wymiarowanie7
  6
CONTINUOUS
 62
     7
 10
92.1685
 20
293.743600000000010
 11
92.1682
 21
291.743600000000010
  0
TEXT
  8
PT2-Wymiarowanie7
  6
CONTINUOUS
 62
     7
 10
88.404799999999994
 20
294.565799999999970
 40
2.000000000000000
 50
360.000000000000000
  1
40
  0
LINE
  8
PT2-Wymiarowanie7
  6
CONTINUOUS
 62
     7
 10
118.3883
 20
167.195600000000010
 11
120.3883
 21
170.659699999999990
  0
LINE
  8
PT2-Wymiarowanie7
  6
CONTINUOUS
 62
     7
 10
120.3883
 20
170.659699999999990
 11
116.3883
 21
170.659699999999990
  0
TEXT
  8
PT2-Wymiarowanie7
  6
CONTINUOUS
 62
     7
 10
115.998300000000000
 20
172.628999999999990
 40
2.022300000000000
  1
- 2.35
  0
LINE
  8
PT2-Wymiarowanie7
  6
CONTINUOUS
 62
     7
 10
118.3883
 20
167.195600000000010
 11
116.3883
 21
170.659699999999990
  0
LINE
  8
PT3-Rzut8
  6
CONTINUOUS
 62
     7
 10
220.5929
 20
339.530800000000000
 11
220.452
 21
339.153799999999990
  0
LINE
  8
PT3-Rzut8
  6
CONTINUOUS
 62
     7
 10
220.4543
 20
339.152899999999990
 11
126.5157
 21
374.244000000000030
  0
LINE
  8
PT3-Rzut8
  6
CONTINUOUS
 62
     7
 10
126.5148
 20
374.241600000000010
 11
128.1755
 21
378.687000000000010
  0
LINE
  8
PT3-Rzut8
  6
CONTINUOUS
 62
     7
 10
248.9969
 20
378.687000000000010
 11
232.6764
 21
335.014299999999990
  0
LINE
  8
PT3-Rzut8
  6
CONTINUOUS
 62
     7
 10
232.6787
 20
335.013399999999990
 11
220.592
 21
339.528399999999980
  0
LINE
  8
PT3-Rzut8
  6
CONTINUOUS
 62
     7
 10
219.0494
 20
335.407699999999980
 11
234.8831
 21
329.492500000000010
  0
LINE
  8
PT3-Rzut8
  6
CONTINUOUS
 62
     7
 10
236.2835
 20
333.239899999999980
 11
253.267
 21
378.687000000000010
  0
LINE
  8
PT3-Rzut8
  6
CONTINUOUS
 62
     7
 10
123.9054
 20
378.687000000000010
 11
121.3688
 21
371.896599999999980
  0
LINE
  8
PT3-Rzut8
  6
CONTINUOUS
 62
     7
 10
121.3665
 20
371.897499999999980
 11
219.0518
 21
335.406900000000010
  0
LINE
  8
PT4-Rzut9
  6
CONTINUOUS
 62
     7
 10
234.8814
 20
329.493600000000010
 11
267.9533
 21
317.139500000000000
  0
LINE
  8
PT4-Rzut9
  6
CONTINUOUS
 62
     7
 10
267.9525
 20
317.137200000000010
 11
290.8967
 21
378.534699999999990
  0
LINE
  8
PT4-Rzut9
  6
CONTINUOUS
 62
     7
 10
286.6379
 20
378.565400000000010
 11
265.6064
 21
322.286200000000010
  0
LINE
  8
PT4-Rzut9
  6
CONTINUOUS
 62
     7
 10
265.6088
 20
322.285300000000010
 11
236.2835
 21
333.239899999999980
  0
LINE
  8
PT3-Rzut8
  6
GESTRICHELT
 62
     7
 10
110.159
 20
378.687000000000010
 11
295.0616
 21
378.710500000000020
  0
POLYLINE
  8
PT3-Rzut8
  6
CONTINUOUS
 62
     7
 66
     1
 70
     1
  0
VERTEX
  8
PT3-Rzut8
 10
123.8765
 20
378.688800000000010
  0
VERTEX
  8
PT3-Rzut8
 10
121.3369
 20
371.897499999999980
  0
VERTEX
  8
PT3-Rzut8
 10
267.9229
 20
317.137200000000010
  0
VERTEX
  8
PT3-Rzut8
 10
290.9522
 20
378.709999999999980
  0
VERTEX
  8
PT3-Rzut8
 10
286.6817
 20
378.709400000000020
  0
VERTEX
  8
PT3-Rzut8
 10
265.5988
 20
322.285300000000010
  0
VERTEX
  8
PT3-Rzut8
 10
236.2735
 20
333.239899999999980
  0
VERTEX
  8
PT3-Rzut8
 10
253.2638
 20
378.705199999999990
  0
VERTEX
  8
PT3-Rzut8
 10
248.9934
 20
378.704600000000030
  0
VERTEX
  8
PT3-Rzut8
 10
232.6664
 20
335.014200000000020
  0
VERTEX
  8
PT3-Rzut8
 10
220.5829
 20
339.530800000000000
  0
VERTEX
  8
PT3-Rzut8
 10
220.4443
 20
339.152899999999990
  0
VERTEX
  8
PT3-Rzut8
 10
126.5148
 20
374.241600000000010
  0
VERTEX
  8
PT3-Rzut8
 10
128.1763
 20
378.689300000000000
  0
VERTEX
  8
PT3-Rzut8
 10
123.9061
 20
378.688800000000010
  0
SEQEND
  8
PT3-Rzut8
  0
LINE
  8
PT2-Rzut2
  6
CONTINUOUS
 62
     7
 10
92.166
 20
253.136400000000010
 11
150.3181
 21
280.545500000000000
  0
LINE
  8
PT2-Rzut2
  6
CONTINUOUS
 62
     7
 10
92.166
 20
280.545500000000000
 11
149.3576
 21
253.143599999999990
  0
LINE
  8
PT2-Rzut2
  6
CONTINUOUS
 62
     7
 10
131.0683
 20
241.745499999999990
 11
193.1683
 21
159.745499999999990
  0
LINE
  8
PT2-Rzut2
  6
CONTINUOUS
 62
     7
 10
131.0683
 20
159.745499999999990
 11
193.1578
 21
241.743599999999990
  0
LINE
  8
PT2-Rzut2
  6
CONTINUOUS
 62
     7
 10
131.0609
 20
96.142999999999972
 11
147.5683
 21
154.045500000000000
  0
LINE
  8
PT2-Rzut2
  6
CONTINUOUS
 62
     7
 10
131.0683
 20
154.045500000000000
 11
147.5683
 21
96.145500000000027
  0
LINE
  8
PT2-Rzut2
  6
CONTINUOUS
 62
     7
 10
153.0683
 20
96.142999999999972
 11
171.2683
 21
154.048000000000000
  0
LINE
  8
PT2-Rzut2
  6
CONTINUOUS
 62
     7
 10
153.0683
 20
154.045500000000000
 11
171.2683
 21
96.145500000000027
  0
LINE
  8
PT2-Rzut2
  6
CONTINUOUS
 62
     7
 10
176.7658
 20
154.045500000000000
 11
257.7683
 21
97.741899999999987
  0
LINE
  8
PT2-Rzut2
  6
CONTINUOUS
 62
     7
 10
176.7683
 20
96.145500000000027
 11
257.7683
 21
154.048000000000000
  0
LINE
  8
PT2-Rzut2
  6
CONTINUOUS
 62
     7
 10
198.6683
 20
159.745499999999990
 11
257.7683
 21
241.744300000000010
  0
LINE
  8
PT2-Rzut2
  6
CONTINUOUS
 62
     7
 10
198.6578
 20
241.744300000000010
 11
257.7683
 21
159.745499999999990
  0
LINE
  8
PT2-Rzut2
  6
CONTINUOUS
 62
     7
 10
198.1683
 20
248.944300000000000
 11
259.4717
 21
301.945600000000010
  0
LINE
  8
PT2-Rzut2
  6
CONTINUOUS
 62
     7
 10
198.1683
 20
301.945499999999980
 11
259.4708
 21
248.944300000000000
  0
LINE
  8
PT2-Rzut2
  6
CONTINUOUS
 62
     7
 10
160.0183
 20
248.945400000000010
 11
209.9506
 21
338.793999999999980
  0
LINE
  8
PT2-Rzut2
  6
CONTINUOUS
 62
     7
 10
160.0183
 20
357.459000000000000
 11
192.6683
 21
248.941300000000010
  0
LINE
  8
PT2-Rzut2
  6
CONTINUOUS
 62
     7
 10
298.4658
 20
244.445500000000010
 11
326.8047
 21
183.695500000000010
  0
LINE
  8
PT2-Rzut2
  6
CONTINUOUS
 62
     7
 10
298.4683
 20
183.695500000000010
 11
326.7183
 21
244.445500000000010
  0
LINE
  8
PT2-Rzut2
  6
CONTINUOUS
 62
     7
 10
330.653
 20
244.445500000000010
 11
463.9708
 21
183.695500000000010
  0
LINE
  8
PT2-Rzut2
  6
CONTINUOUS
 62
     7
 10
330.7183
 20
183.695500000000010
 11
463.9683
 21
244.445500000000010
  0
LINE
  8
PT2-Rzut2
  6
CONTINUOUS
 62
     7
 10
269.171
 20
158.370700000000000
 11
463.9683
 21
179.695500000000010
  0
LINE
  8
PT2-Rzut2
  6
CONTINUOUS
 62
     7
 10
269.1683
 20
179.695500000000010
 11
463.9683
 21
158.395500000000000
  0
LINE
  8
PT2-Rzut2
  6
CONTINUOUS
 62
     7
 10
269.169
 20
154.370700000000000
 11
463.9683
 21
93.466700000000003
  0
LINE
  8
PT2-Rzut2
  6
CONTINUOUS
 62
     7
 10
269.167
 20
87.435400000000016
 11
463.9683
 21
154.395500000000000
  0
LINE
  8
PT2-Rzut2
  6
ENG_PUNKTIERT
 62
     7
 10
313.0814
 20
294.302100000000000
 11
313.0814
 21
60.008899999999983
  0
POLYLINE
  8
PT2-Rzut2
  6
ENG_PUNKTIERT
 62
     7
 66
     1
 70
     1
  0
VERTEX
  8
PT2-Rzut2
 10
315.0814
 20
294.302100000000000
  0
VERTEX
  8
PT2-Rzut2
 10
318.0814
 20
290.552100000000000
  0
VERTEX
  8
PT2-Rzut2
 10
315.0814
 20
286.802100000000000
  0
SEQEND
  8
PT2-Rzut2
  0
POLYLINE
  8
PT2-Rzut2
  6
ENG_PUNKTIERT
 62
     7
 66
     1
 70
     1
  0
VERTEX
  8
PT2-Rzut2
 10
315.0814
 20
60.008899999999983
  0
VERTEX
  8
PT2-Rzut2
 10
318.0814
 20
63.758899999999983
  0
VERTEX
  8
PT2-Rzut2
 10
315.0814
 20
67.508899999999983
  0
SEQEND
  8
PT2-Rzut2
  0
TEXT
  8
PT2-Rzut2
  6
CONTINUOUS
 62
     7
 10
309.710899999999980
 20
59.468200000000024
 40
3.370500000000000
  1
A
  0
TEXT
  8
PT2-Rzut2
  6
CONTINUOUS
 62
     7
 10
309.710899999999980
 20
290.233600000000020
 40
3.370500000000000
  1
A
  0
LINE
  8
PT2-Rzut2
  6
ENG_PUNKTIERT
 62
     7
 10
293.1914
 20
274.642100000000030
 11
47.4614
 21
274.642100000000030
  0
POLYLINE
  8
PT2-Rzut2
  6
ENG_PUNKTIERT
 62
     7
 66
     1
 70
     1
  0
VERTEX
  8
PT2-Rzut2
 10
293.1914
 20
272.642100000000030
  0
VERTEX
  8
PT2-Rzut2
 10
289.4414
 20
269.642100000000030
  0
VERTEX
  8
PT2-Rzut2
 10
285.6914
 20
272.642100000000030
  0
SEQEND
  8
PT2-Rzut2
  0
POLYLINE
  8
PT2-Rzut2
  6
ENG_PUNKTIERT
 62
     7
 66
     1
 70
     1
  0
VERTEX
  8
PT2-Rzut2
 10
47.4614
 20
272.642100000000030
  0
VERTEX
  8
PT2-Rzut2
 10
51.2114
 20
269.642100000000030
  0
VERTEX
  8
PT2-Rzut2
 10
54.9614
 20
272.642100000000030
  0
SEQEND
  8
PT2-Rzut2
  0
TEXT
  8
PT2-Rzut2
  6
CONTINUOUS
 62
     7
 10
51.341900000000003
 20
277.563199999999990
 40
2.921100000000000
 50
180.000000000000000
  1
C
  0
TEXT
  8
PT2-Rzut2
  6
CONTINUOUS
 62
     7
 10
293.191399999999990
 20
277.563199999999990
 40
2.921100000000000
 50
180.000000000000000
  1
C
  0
LINE
  8
PT1-Tabelka_rysu1
  6
CONTINUOUS
 62
     7
 10
492.2875
 20
332.584200000000010
 11
492.2875
 21
312.502299999999990
  0
LINE
  8
PT1-Tabelka_rysu1
  6
CONTINUOUS
 62
     7
 10
492.2871
 20
312.502299999999990
 11
517.9389
 21
312.502299999999990
  0
LINE
  8
PT1-Tabelka_rysu1
  6
CONTINUOUS
 62
     7
 10
517.9389
 20
312.502600000000030
 11
517.9388
 21
311.744500000000020
  0
LINE
  8
PT1-Tabelka_rysu1
  6
CONTINUOUS
 62
     7
 10
517.9385
 20
311.744500000000020
 11
522.6372
 21
311.744500000000020
  0
LINE
  8
PT1-Tabelka_rysu1
  6
CONTINUOUS
 62
     7
 10
522.6372
 20
311.744199999999980
 11
522.6371
 21
312.502299999999990
  0
LINE
  8
PT1-Tabelka_rysu1
  6
CONTINUOUS
 62
     7
 10
522.6368
 20
312.502299999999990
 11
543.2493
 21
312.505000000000000
  0
LINE
  8
PT1-Tabelka_rysu1
  6
CONTINUOUS
 62
     7
 10
543.2493
 20
312.505300000000030
 11
543.2493
 21
312.502299999999990
  0
LINE
  8
PT1-Tabelka_rysu1
  6
CONTINUOUS
 62
     7
 10
543.249
 20
312.502299999999990
 11
543.7545
 21
312.502299999999990
  0
LINE
  8
PT1-Tabelka_rysu1
  6
CONTINUOUS
 62
     7
 10
543.7545
 20
312.502000000000010
 11
543.7545
 21
332.583899999999970
  0
LINE
  8
PT1-Tabelka_rysu1
  6
CONTINUOUS
 62
     7
 10
543.7548
 20
332.583899999999970
 11
521.8415
 21
332.583899999999970
  0
LINE
  8
PT1-Tabelka_rysu1
  6
CONTINUOUS
 62
     7
 10
521.8415
 20
332.584200000000010
 11
521.8415
 21
324.406000000000010
  0
LINE
  8
PT1-Tabelka_rysu1
  6
CONTINUOUS
 62
     7
 10
521.8418
 20
324.406000000000010
 11
518.0778
 21
324.406000000000010
  0
LINE
  8
PT1-Tabelka_rysu1
  6
CONTINUOUS
 62
     7
 10
518.0778
 20
324.406299999999990
 11
518.0778
 21
312.502299999999990
  0
LINE
  8
PT1-Tabelka_rysu1
  6
CONTINUOUS
 62
     7
 10
518.0781
 20
312.502299999999990
 11
518.0525
 21
312.502299999999990
  0
LINE
  8
PT1-Tabelka_rysu1
  6
CONTINUOUS
 62
     7
 10
518.0525
 20
312.502000000000010
 11
518.0525
 21
340.082099999999970
  0
LINE
  8
PT1-Tabelka_rysu1
  6
CONTINUOUS
 62
     7
 10
504.2606
 20
346.754900000000020
 11
504.2606
 21
332.583899999999970
  0
LINE
  8
PT1-Tabelka_rysu1
  6
CONTINUOUS
 62
     7
 10
504.261
 20
332.583899999999970
 11
492.2875
 21
332.583899999999970
  0
LINE
  8
PT1-Tabelka_rysu1
  6
CONTINUOUS
 62
     7
 10
495.7857
 20
337.143599999999990
 11
495.7859
 21
332.583899999999970
  0
LINE
  8
PT1-Tabelka_rysu1
  6
CONTINUOUS
 62
     7
 10
504.2606
 20
337.143300000000010
 11
495.7857
 21
337.143300000000010
  0
LINE
  8
PT1-Tabelka_rysu1
  6
CONTINUOUS
 62
     7
 10
509.517
 20
373.887099999999980
 11
499.9792
 21
348.354300000000020
  0
LINE
  8
PT1-Tabelka_rysu1
  6
CONTINUOUS
 62
     7
 10
499.9789
 20
348.354400000000000
 11
512.3165
 21
343.745600000000020
  0
LINE
  8
PT1-Tabelka_rysu1
  6
CONTINUOUS
 62
     7
 10
518.4927
 20
341.438499999999980
 11
527.1777
 21
364.679100000000010
  0
LINE
  8
PT1-Tabelka_rysu1
  6
CONTINUOUS
 62
     7
 10
527.1777
 20
364.679100000000010
 11
531.4369
 21
363.087800000000020
  0
LINE
  8
PT1-Tabelka_rysu1
  6
CONTINUOUS
 62
     7
 10
531.4368
 20
363.087499999999980
 11
534.4433
 21
371.132700000000000
  0
LINE
  8
PT1-Tabelka_rysu1
  6
CONTINUOUS
 62
     7
 10
534.4436
 20
371.132600000000020
 11
530.0658
 21
372.768300000000010
  0
LINE
  8
PT1-Tabelka_rysu1
  6
CONTINUOUS
 62
     7
 10
530.0659
 20
372.768599999999990
 11
529.564
 21
371.425500000000000
  0
LINE
  8
PT1-Tabelka_rysu1
  6
CONTINUOUS
 62
     7
 10
529.564
 20
371.425500000000000
 11
511.1654
 21
378.299899999999980
  0
LINE
  8
PT1-Tabelka_rysu1
  6
CONTINUOUS
 62
     7
 10
511.1654
 20
378.299899999999980
 11
509.5169
 21
373.886799999999990
  0
LINE
  8
PT1-Tabelka_rysu1
  6
CONTINUOUS
 62
     7
 10
509.517
 20
373.887099999999980
 11
499.9792
 21
348.354300000000020
  0
LINE
  8
PT1-Tabelka_rysu1
  6
CONTINUOUS
 62
     7
 10
499.9789
 20
348.354400000000000
 11
512.3165
 21
343.745600000000020
  0
LINE
  8
PT1-Tabelka_rysu1
  6
CONTINUOUS
 62
     7
 10
509.517
 20
373.887099999999980
 11
499.9792
 21
348.354300000000020
  0
LINE
  8
PT1-Tabelka_rysu1
  6
CONTINUOUS
 62
     7
 10
499.9789
 20
348.354400000000000
 11
518.4927
 21
341.438499999999980
  0
LINE
  8
PT1-Tabelka_rysu1
  6
CONTINUOUS
 62
     7
 10
518.4927
 20
341.438499999999980
 11
518.0525
 21
340.082099999999970
  0
POLYLINE
  8
PT1-Tabelka_rysu1
  6
CONTINUOUS
 62
     7
 66
     1
 70
     1
  0
VERTEX
  8
PT1-Tabelka_rysu1
 10
504.2606
 20
346.754900000000020
  0
VERTEX
  8
PT1-Tabelka_rysu1
 10
518.4927
 20
341.438499999999980
  0
VERTEX
  8
PT1-Tabelka_rysu1
 10
518.0525
 20
340.082099999999970
  0
VERTEX
  8
PT1-Tabelka_rysu1
 10
518.0778
 20
324.406000000000010
  0
VERTEX
  8
PT1-Tabelka_rysu1
 10
521.8418
 20
324.406000000000010
  0
VERTEX
  8
PT1-Tabelka_rysu1
 10
521.8415
 20
332.583899999999970
  0
VERTEX
  8
PT1-Tabelka_rysu1
 10
543.7548
 20
332.583899999999970
  0
VERTEX
  8
PT1-Tabelka_rysu1
 10
543.7545
 20
312.502299999999990
  0
VERTEX
  8
PT1-Tabelka_rysu1
 10
522.6368
 20
312.502299999999990
  0
VERTEX
  8
PT1-Tabelka_rysu1
 10
522.6371
 20
312.123299999999970
  0
VERTEX
  8
PT1-Tabelka_rysu1
 10
517.9389
 20
312.123600000000010
  0
VERTEX
  8
PT1-Tabelka_rysu1
 10
518.0781
 20
312.502299999999990
  0
VERTEX
  8
PT1-Tabelka_rysu1
 10
492.2875
 20
312.502299999999990
  0
VERTEX
  8
PT1-Tabelka_rysu1
 10
492.2875
 20
332.583899999999970
  0
VERTEX
  8
PT1-Tabelka_rysu1
 10
495.7859
 20
332.583899999999970
  0
VERTEX
  8
PT1-Tabelka_rysu1
 10
495.7857
 20
337.143300000000010
  0
VERTEX
  8
PT1-Tabelka_rysu1
 10
504.2606
 20
337.143300000000010
  0
SEQEND
  8
PT1-Tabelka_rysu1
  0
LINE
  8
PT1-Tabelka_rysu1
  6
CONTINUOUS
 62
     7
 10
504.2606
 20
346.754900000000020
 11
518.4927
 21
341.438499999999980
  0
POLYLINE
  8
PT1-Tabelka_rysu1
  6
CONTINUOUS
 62
     7
 66
     1
 70
     1
  0
VERTEX
  8
PT1-Tabelka_rysu1
 10
489.0953
 20
8.113600000000020
  0
VERTEX
  8
PT1-Tabelka_rysu1
 10
561.062
 20
8.113600000000020
  0
VERTEX
  8
PT1-Tabelka_rysu1
 10
561.062
 20
9.171899999999994
  0
VERTEX
  8
PT1-Tabelka_rysu1
 10
489.0953
 20
9.171899999999994
  0
SEQEND
  8
PT1-Tabelka_rysu1
  0
LINE
  8
PT1-Tabelka_rysu1
  6
CONTINUOUS
 62
     7
 10
488.037
 20
9.171800000000019
 11
560.0037
 21
9.171800000000019
  0
LINE
  8
PT1-Tabelka_rysu1
  6
CONTINUOUS
 62
     7
 10
488.7425
 20
9.877400000000023
 11
559.2981
 21
9.877400000000023
  0
LINE
  8
PT1-Tabelka_rysu1
  6
CONTINUOUS
 62
     7
 10
559.2981
 20
9.877400000000023
 11
559.2981
 21
55.033000000000015
  0
LINE
  8
PT1-Tabelka_rysu1
  6
CONTINUOUS
 62
     7
 10
559.2981
 20
55.033000000000015
 11
488.7425
 21
55.033000000000015
  0
LINE
  8
PT1-Tabelka_rysu1
  6
CONTINUOUS
 62
     7
 10
488.7425
 20
9.877400000000023
 11
488.7425
 21
55.033000000000015
  0
LINE
  8
PT1-Tabelka_rysu1
  6
CONTINUOUS
 62
     7
 10
488.7425
 20
26.810799999999972
 11
559.2981
 21
26.810799999999972
  0
TEXT
  8
PT1-Tabelka_rysu1
  6
CONTINUOUS
 62
     7
 10
489.448100000000010
 20
24.660400000000038
 40
1.797600000000000
  1
Skala:
  0
TEXT
  8
PT1-Tabelka_rysu1
  6
CONTINUOUS
 62
     7
 10
489.448100000000010
 20
24.660400000000038
 40
1.797600000000000
  1
1 : 100
  0
LINE
  8
PT1-Tabelka_rysu1
  6
CONTINUOUS
 62
     7
 10
512.0259
 20
26.810799999999972
 11
512.0259
 21
23.283000000000015
  0
TEXT
  8
PT1-Tabelka_rysu1
  6
CONTINUOUS
 62
     7
 10
512.731400000000010
 20
24.660400000000038
 40
1.797600000000000
  1
Data:
  0
TEXT
  8
PT1-Tabelka_rysu1
  6
CONTINUOUS
 62
     7
 10
512.731400000000010
 20
24.660400000000038
 40
1.797600000000000
  1
07.2004
  0
LINE
  8
PT1-Tabelka_rysu1
  6
CONTINUOUS
 62
     7
 10
535.3092
 20
26.810799999999972
 11
535.3092
 21
23.283000000000015
  0
TEXT
  8
PT1-Tabelka_rysu1
  6
CONTINUOUS
 62
     7
 10
536.314399999999980
 20
24.660400000000038
 40
1.797600000000000
  1
06-P-04/A
  0
LINE
  8
PT1-Tabelka_rysu1
  6
CONTINUOUS
 62
     7
 10
488.7425
 20
30.338500000000010
 11
559.2981
 21
30.338500000000010
  0
TEXT
  8
PT1-Tabelka_rysu1
  6
CONTINUOUS
 62
     7
 10
489.448100000000010
 20
28.188199999999995
 40
1.797600000000000
  1
Branża:  architektoniczna
  0
TEXT
  8
PT1-Tabelka_rysu1
  6
CONTINUOUS
 62
     7
 10
489.448100000000010
 20
52.529800000000023
 40
1.797600000000000
  1
Projekt: Rozbudowa Szkoły Podstawowej i Gimnazjum
  0
TEXT
  8
PT1-Tabelka_rysu1
  6
CONTINUOUS
 62
     7
 10
489.448100000000010
 20
49.833399999999983
 40
1.797600000000000
  1
              w Rzerzęczycach
  0
LINE
  8
PT1-Tabelka_rysu1
  6
CONTINUOUS
 62
     7
 10
488.7425
 20
46.919100000000014
 11
559.2981
 21
46.919100000000014
  0
TEXT
  8
PT1-Tabelka_rysu1
  6
CONTINUOUS
 62
     7
 10
489.597899999999980
 20
44.415900000000022
 40
1.797600000000000
  1
Inwestor: Urząd Gminy w Kłomnicach
  0
TEXT
  8
PT1-Tabelka_rysu1
  6
CONTINUOUS
 62
     7
 10
489.597899999999980
 20
41.719500000000039
 40
1.797600000000000
  1
                ul. Strażacka 20, 42-270 Kłomnice
  0
LINE
  8
PT1-Tabelka_rysu1
  6
CONTINUOUS
 62
     7
 10
488.7425
 20
38.805200000000013
 11
559.2981
 21
38.805200000000013
  0
TEXT
  8
PT1-Tabelka_rysu1
  6
CONTINUOUS
 62
     7
 10
489.448100000000010
 20
36.891600000000039
 40
1.797600000000000
  1
Projektował: Beata Król-Stroba UAB-VIII/83861/102/90
  0
TEXT
  8
PT1-Tabelka_rysu1
  6
CONTINUOUS
 62
     7
 10
501.089699999999990
 20
52.529800000000023
 40
1.797600000000000
  1

  0
TEXT
  8
PT1-Tabelka_rysu1
  6
CONTINUOUS
 62
     7
 10
501.089699999999990
 20
40.888199999999983
 40
1.797600000000000
  1
 
  0
LINE
  8
PT1-Tabelka_rysu1
  6
CONTINUOUS
 62
     7
 10
488.7425
 20
23.283000000000015
 11
559.2981
 21
23.283000000000015
  0
TEXT
  8
PT1-Tabelka_rysu1
  6
CONTINUOUS
 62
     7
 10
489.448100000000010
 20
20.427000000000021
 40
1.797600000000000
  1

  0
TEXT
  8
PT1-Tabelka_rysu1
  6
CONTINUOUS
 62
     7
 10
489.371500000000030
 20
33.996700000000033
 40
1.797600000000000
  1
Sprawdził: Witold Dominik   -  Decyzja Nr 65
  0
TEXT
  8
PT1-Tabelka_rysu1
  6
CONTINUOUS
 62
     7
 10
489.455699999999980
 20
31.217199999999991
 40
1.797600000000000
  1
Opracował: Michał Urbańczyk
  0
TEXT
  8
PT1-Tabelka_rysu1
  6
CONTINUOUS
 62
     7
 10
489.499599999999990
 20
20.904200000000003
 40
1.797600000000000
  1
Nazwa rysunku:
  0
TEXT
  8
PT1-Tabelka_rysu1
  6
CONTINUOUS
 62
     7
 10
489.158900000000020
 20
11.667800000000000
 40
2.500000000000000
  1
RZUT PIWNIC
  0
TEXT
  8
PT1-Tabelka_rysu1
  6
CONTINUOUS
 62
     7
 10
489.123100000000020
 20
16.121699999999976
 40
2.500000000000000
  1
Szkoła
  0
ENDSEC
  0
EOF
