  0
SECTION
  2
HEADER
  9
$ACADVER
  1
AC1004
  9
$EXTMIN
 10
0.0
 20
0.0
  9
$EXTMAX
 10
570.000000000000000
 20
390.000000000000000
  9
$LIMMIN
 10
0.0
 20
0.0
  9
$LIMMAX
 10
570.000000000000000
 20
390.000000000000000
  9
$CLAYER
  8
PT1-Tabelka_rysu1
  0
ENDSEC
  0
SECTION
  2
TABLES
  0
TABLE
  2
LTYPE
 70
11
  0
LTYPE
  2
CONTINUOUS
 70
     0
  3
Solid line
 72
    65
 73
     0
 40
     0.0
  0
LTYPE
  2
GESTRICHELT
 70
     0
  3
__ __ __ __ __ __ __ __ __ __ __ __ __ __ __
 72
    65
 73
     2
 40
     0.75
 49
0.5
 49
-0.25
  0
LTYPE
  2
VERDECKT
 70
     0
  3
_ _ _ _ _ _ _ _ _ _ _ _ _ _ _ _ _ _ _ _ _ _
 72
    65
 73
     2
 40
     0.25
 49
0.125
 49
-0.125
  0
LTYPE
  2
MITTELLINIE
 70
     0
  3
____ _ ____ _ ____ _ ____ _ ____ _ ____ _ __
 72
    65
 73
     4
 40
     2.0
 49
1.25
 49
-0.25
 49
0.25
 49
-0.25
  0
LTYPE
  2
PHANTOM
 70
     0
  3
_____ _ _ _____ _ _ _____ _ _ _____ _ _ ____
 72
    65
 73
     6
 40
     2.5
 49
1.25
 49
-0.25
 49
0.25
 49
-0.25
 49
0.25
 49
-0.25
  0
LTYPE
  2
PUNKTIERT
 70
     0
  3
............................................
 72
    65
 73
     2
 40
     0.25
 49
0.0
 49
-0.25
  0
LTYPE
  2
STRICHPUNKTIERT
 70
     0
  3
__ . __ . __ . __ . __ . __ . __ . __ . __ .
 72
    65
 73
     4
 40
     1.0
 49
0.5
 49
-0.25
 49
0.0
 49
-0.25
  0
LTYPE
  2
RAND
 70
     0
  3
__ __ . __ __ . __ __ . __ __ . __ __ . __ _
 72
    65
 73
     6
 40
     1.75
 49
0.5
 49
-0.25
 49
0.5
 49
-0.25
 49
0.0
 49
-0.25
  0
LTYPE
  2
TRENNLINIE
 70
     0
  3
__ . . __ . . __ . . __ . . __ . . __ . . __
 72
    65
 73
     6
 40
     1.25
 49
0.5
 49
-0.25
 49
0.0
 49
-0.25
 49
0.0
 49
-0.25
  0
LTYPE
  2
ENG_PUNKTIERT
 70
     0
  3
Schließen
 72
    65
 73
     2
 40
     0.1
 49
0.05
 49
-0.05
  0
LTYPE
  2
CLOSE
 70
     0
  3

 72
    65
 73
     0
 40
     0.0
  0
ENDTAB
  0
TABLE
  2
LAYER
 70
   53
  0
LAYER
  2
PT1-Tabelka_rysu1
 70
     0
 62
     7
  6
CONTINUOUS
  0
LAYER
  2
PT2-Rzut2
 70
     0
 62
     7
  6
CONTINUOUS
  0
LAYER
  2
PT2-Okna_i_drzwi3
 70
     0
 62
     7
  6
CONTINUOUS
  0
LAYER
  2
PT2-Opis4
 70
     0
 62
     7
  6
CONTINUOUS
  0
LAYER
  2
PT2-Wymiarowanie5
 70
     0
 62
     7
  6
CONTINUOUS
  0
LAYER
  2
PT2-LC-001-002--6
 70
     0
 62
     7
  6
CONTINUOUS
  0
LAYER
  2
PT2-LC-005-004--7
 70
     0
 62
     7
  6
CONTINUOUS
  0
LAYER
  2
PT3-Rzut8
 70
     0
 62
     7
  6
CONTINUOUS
  0
LAYER
  2
PT3-Kreskowanie9
 70
     0
 62
     7
  6
CONTINUOUS
  0
LAYER
  2
PT3-Okna_i_drzwi10
 70
     0
 62
     7
  6
CONTINUOUS
  0
LAYER
  2
PT3-Schody11
 70
     0
 62
     7
  6
CONTINUOUS
  0
LAYER
  2
PT3-Dachy12
 70
     0
 62
     7
  6
CONTINUOUS
  0
LAYER
  2
PT3-Konstrukcja_13
 70
     0
 62
     7
  6
CONTINUOUS
  0
LAYER
  2
PT3-Podciąg14
 70
     0
 62
     7
  6
CONTINUOUS
  0
LAYER
  2
PT3-Opis15
 70
     0
 62
     7
  6
CONTINUOUS
  0
LAYER
  2
PT3-Wymiarowanie16
 70
     0
 62
     7
  6
CONTINUOUS
  0
LAYER
  2
PT4-Rzut17
 70
     0
 62
    -7
  6
CONTINUOUS
  0
LAYER
  2
PT4-Kreskowanie18
 70
     0
 62
    -7
  6
CONTINUOUS
  0
LAYER
  2
PT4-Okna_i_drzwi19
 70
     0
 62
    -7
  6
CONTINUOUS
  0
LAYER
  2
PT4-Schody20
 70
     0
 62
    -7
  6
CONTINUOUS
  0
LAYER
  2
PT4-Dachy21
 70
     0
 62
    -7
  6
CONTINUOUS
  0
LAYER
  2
PT4-Konstrukcja_22
 70
     0
 62
    -7
  6
CONTINUOUS
  0
LAYER
  2
PT4-Podciąg23
 70
     0
 62
    -7
  6
CONTINUOUS
  0
LAYER
  2
PT4-Wymiarowanie24
 70
     0
 62
    -7
  6
CONTINUOUS
  0
LAYER
  2
PT4-Wyposażenie25
 70
     0
 62
    -7
  6
CONTINUOUS
  0
LAYER
  2
PT4-Linie_pomocn26
 70
     0
 62
    -7
  6
CONTINUOUS
  0
LAYER
  2
PT4-Grafika_2D27
 70
     0
 62
    -7
  6
CONTINUOUS
  0
LAYER
  2
PT4-Podesty28
 70
     0
 62
    -7
  6
CONTINUOUS
  0
LAYER
  2
PT5-Rzut29
 70
     0
 62
     7
  6
CONTINUOUS
  0
LAYER
  2
PT5-Okna_i_drzwi30
 70
     0
 62
     7
  6
CONTINUOUS
  0
LAYER
  2
PT5-Schody31
 70
     0
 62
     7
  6
CONTINUOUS
  0
LAYER
  2
PT5-Dachy32
 70
     0
 62
     7
  6
CONTINUOUS
  0
LAYER
  2
PT5-Konstrukcja_33
 70
     0
 62
     7
  6
CONTINUOUS
  0
LAYER
  2
PT5-Podciąg34
 70
     0
 62
     7
  6
CONTINUOUS
  0
LAYER
  2
PT5-Opis35
 70
     0
 62
     7
  6
CONTINUOUS
  0
LAYER
  2
PT5-Wymiarowanie36
 70
     0
 62
     7
  6
CONTINUOUS
  0
LAYER
  2
PT5-Wyposażenie37
 70
     0
 62
     7
  6
CONTINUOUS
  0
LAYER
  2
PT5-Symbole_prze38
 70
     0
 62
     7
  6
CONTINUOUS
  0
LAYER
  2
PT5-Linie_pomocn39
 70
     0
 62
     7
  6
CONTINUOUS
  0
LAYER
  2
PT5-Grafika_2D40
 70
     0
 62
     7
  6
CONTINUOUS
  0
LAYER
  2
PT5-Podesty41
 70
     0
 62
     7
  6
CONTINUOUS
  0
LAYER
  2
PT6-Rzut42
 70
     0
 62
     7
  6
CONTINUOUS
  0
LAYER
  2
PT6-Okna_i_drzwi43
 70
     0
 62
     7
  6
CONTINUOUS
  0
LAYER
  2
PT6-Schody44
 70
     0
 62
     7
  6
CONTINUOUS
  0
LAYER
  2
PT6-Dachy45
 70
     0
 62
     7
  6
CONTINUOUS
  0
LAYER
  2
PT6-Konstrukcja_46
 70
     0
 62
     7
  6
CONTINUOUS
  0
LAYER
  2
PT6-Podciąg47
 70
     0
 62
     7
  6
CONTINUOUS
  0
LAYER
  2
PT6-Wymiarowanie48
 70
     0
 62
     7
  6
CONTINUOUS
  0
LAYER
  2
PT6-Wyposażenie49
 70
     0
 62
     7
  6
CONTINUOUS
  0
LAYER
  2
PT6-Symbole_prze50
 70
     0
 62
     7
  6
CONTINUOUS
  0
LAYER
  2
PT6-Linie_pomocn51
 70
     0
 62
     7
  6
CONTINUOUS
  0
LAYER
  2
PT6-Grafika_2D52
 70
     0
 62
     7
  6
CONTINUOUS
  0
LAYER
  2
PT6-Podesty53
 70
     0
 62
     7
  6
CONTINUOUS
  0
ENDTAB
  0
TABLE
  2
STYLE
 70
    1
  0
STYLE
  2
STANDARD
 70
    0
 40
0.0
 41
1.0
 50
0.0
71
     0
 42
0.2
  3
txt
  4

  0
ENDTAB
  0
ENDSEC
  0
SECTION
  2
ENTITIES
  0
POLYLINE
  8
PT1-Tabelka_rysu1
  6
CONTINUOUS
 62
     7
 66
     1
 70
     1
  0
VERTEX
  8
PT1-Tabelka_rysu1
 10
559.333
 20
12.496500000000026
  0
VERTEX
  8
PT1-Tabelka_rysu1
 10
560.3913
 20
12.496500000000026
  0
VERTEX
  8
PT1-Tabelka_rysu1
 10
560.3913
 20
73.527100000000019
  0
VERTEX
  8
PT1-Tabelka_rysu1
 10
559.333
 20
73.527100000000019
  0
SEQEND
  8
PT1-Tabelka_rysu1
  0
LINE
  8
PT1-Tabelka_rysu1
  6
CONTINUOUS
 62
     7
 10
559.333
 20
13.554800000000000
 11
559.333
 21
74.585399999999993
  0
LINE
  8
PT1-Tabelka_rysu1
  6
CONTINUOUS
 62
     7
 10
559.333
 20
74.585399999999993
 11
487.3663
 21
74.585399999999993
  0
LINE
  8
PT1-Tabelka_rysu1
  6
CONTINUOUS
 62
     7
 10
487.3663
 20
13.554800000000000
 11
487.3663
 21
74.585399999999993
  0
LINE
  8
PT2-Rzut2
  6
CONTINUOUS
 62
     7
 10
59.9683
 20
248.948000000000010
 11
59.9683
 21
88.945499999999981
  0
LINE
  8
PT2-Rzut2
  6
CONTINUOUS
 62
     7
 10
59.9658
 20
88.945499999999981
 11
264.9683
 21
88.945499999999981
  0
LINE
  8
PT2-Rzut2
  6
CONTINUOUS
 62
     7
 10
264.9683
 20
248.941800000000000
 11
265.0313
 21
316.629799999999990
  0
LINE
  8
PT2-Rzut2
  6
CONTINUOUS
 62
     7
 10
259.4727
 20
318.706199999999970
 11
259.472
 21
307.445600000000010
  0
LINE
  8
PT2-Rzut2
  6
CONTINUOUS
 62
     7
 10
259.4745
 20
307.445600000000010
 11
192.6683
 21
307.445499999999980
  0
LINE
  8
PT2-Rzut2
  6
CONTINUOUS
 62
     7
 10
192.6683
 20
307.447999999999980
 11
192.6683
 21
248.941300000000010
  0
LINE
  8
PT2-Rzut2
  6
CONTINUOUS
 62
     7
 10
192.6708
 20
248.941300000000010
 11
160.0183
 21
248.945400000000010
  0
LINE
  8
PT2-Rzut2
  6
CONTINUOUS
 62
     7
 10
154.5208
 20
248.945500000000010
 11
59.9683
 21
248.945500000000010
  0
LINE
  8
PT2-Rzut2
  6
CONTINUOUS
 62
     7
 10
67.1683
 20
96.142999999999972
 11
67.1683
 21
154.045500000000000
  0
LINE
  8
PT2-Rzut2
  6
CONTINUOUS
 62
     7
 10
67.1658
 20
154.045500000000000
 11
125.5683
 21
154.045500000000000
  0
LINE
  8
PT2-Rzut2
  6
CONTINUOUS
 62
     7
 10
125.5683
 20
154.048000000000000
 11
125.5609
 21
96.145500000000027
  0
LINE
  8
PT2-Rzut2
  6
CONTINUOUS
 62
     7
 10
125.5634
 20
96.145500000000027
 11
67.1683
 21
96.145500000000027
  0
LINE
  8
PT2-Rzut2
  6
CONTINUOUS
 62
     7
 10
67.1683
 20
159.742999999999990
 11
67.1683
 21
178.945500000000010
  0
LINE
  8
PT2-Rzut2
  6
CONTINUOUS
 62
     7
 10
67.1658
 20
178.945500000000010
 11
125.5683
 21
178.945500000000010
  0
LINE
  8
PT2-Rzut2
  6
CONTINUOUS
 62
     7
 10
125.5683
 20
178.948000000000010
 11
125.5683
 21
159.745499999999990
  0
LINE
  8
PT2-Rzut2
  6
CONTINUOUS
 62
     7
 10
125.5708
 20
159.745499999999990
 11
67.1683
 21
159.745499999999990
  0
LINE
  8
PT2-Rzut2
  6
CONTINUOUS
 62
     7
 10
67.1683
 20
184.643000000000000
 11
67.1683
 21
215.445600000000010
  0
LINE
  8
PT2-Rzut2
  6
CONTINUOUS
 62
     7
 10
67.1658
 20
215.445500000000010
 11
125.5683
 21
215.453000000000000
  0
LINE
  8
PT2-Rzut2
  6
CONTINUOUS
 62
     7
 10
125.5683
 20
215.455500000000000
 11
125.5683
 21
184.645500000000000
  0
LINE
  8
PT2-Rzut2
  6
CONTINUOUS
 62
     7
 10
125.5708
 20
184.645500000000000
 11
67.1683
 21
184.645500000000000
  0
LINE
  8
PT2-Rzut2
  6
CONTINUOUS
 62
     7
 10
67.1683
 20
218.443000000000010
 11
67.1683
 21
241.745499999999990
  0
LINE
  8
PT2-Rzut2
  6
CONTINUOUS
 62
     7
 10
67.1658
 20
241.745499999999990
 11
125.5683
 21
241.745499999999990
  0
LINE
  8
PT2-Rzut2
  6
CONTINUOUS
 62
     7
 10
125.5683
 20
241.747999999999990
 11
125.5683
 21
218.453000000000000
  0
LINE
  8
PT2-Rzut2
  6
CONTINUOUS
 62
     7
 10
125.5708
 20
218.453000000000000
 11
67.1683
 21
218.445600000000010
  0
LINE
  8
PT2-Rzut2
  6
CONTINUOUS
 62
     7
 10
257.7708
 20
96.145500000000027
 11
176.7683
 21
96.145500000000027
  0
LINE
  8
PT2-Rzut2
  6
CONTINUOUS
 62
     7
 10
176.7683
 20
96.142999999999972
 11
176.7683
 21
154.045500000000000
  0
LINE
  8
PT2-Rzut2
  6
CONTINUOUS
 62
     7
 10
176.7658
 20
154.045500000000000
 11
257.7683
 21
154.045500000000000
  0
LINE
  8
PT2-Rzut2
  6
CONTINUOUS
 62
     7
 10
171.2708
 20
96.145500000000027
 11
153.0683
 21
96.145500000000027
  0
LINE
  8
PT2-Rzut2
  6
CONTINUOUS
 62
     7
 10
153.0683
 20
96.142999999999972
 11
153.0683
 21
154.045500000000000
  0
LINE
  8
PT2-Rzut2
  6
CONTINUOUS
 62
     7
 10
153.0658
 20
154.045500000000000
 11
171.2683
 21
154.045500000000000
  0
LINE
  8
PT2-Rzut2
  6
CONTINUOUS
 62
     7
 10
171.2683
 20
154.048000000000000
 11
171.2683
 21
96.145500000000027
  0
LINE
  8
PT2-Rzut2
  6
CONTINUOUS
 62
     7
 10
147.5708
 20
96.145500000000027
 11
131.0609
 21
96.145500000000027
  0
LINE
  8
PT2-Rzut2
  6
CONTINUOUS
 62
     7
 10
131.0609
 20
96.142999999999972
 11
131.0683
 21
154.045500000000000
  0
LINE
  8
PT2-Rzut2
  6
CONTINUOUS
 62
     7
 10
131.0658
 20
154.045500000000000
 11
147.5683
 21
154.045500000000000
  0
LINE
  8
PT2-Rzut2
  6
CONTINUOUS
 62
     7
 10
147.5683
 20
154.048000000000000
 11
147.5683
 21
96.145500000000027
  0
LINE
  8
PT2-Rzut2
  6
CONTINUOUS
 62
     7
 10
257.7708
 20
159.745499999999990
 11
198.6683
 21
159.745499999999990
  0
LINE
  8
PT2-Rzut2
  6
CONTINUOUS
 62
     7
 10
198.6683
 20
159.742999999999990
 11
198.6578
 21
241.744300000000010
  0
LINE
  8
PT2-Rzut2
  6
CONTINUOUS
 62
     7
 10
198.6553
 20
241.744300000000010
 11
257.7683
 21
241.744300000000010
  0
LINE
  8
PT2-Rzut2
  6
CONTINUOUS
 62
     7
 10
257.7683
 20
241.746800000000010
 11
257.7683
 21
159.745499999999990
  0
LINE
  8
PT2-Rzut2
  6
CONTINUOUS
 62
     7
 10
193.1708
 20
159.745499999999990
 11
131.0683
 21
159.745499999999990
  0
LINE
  8
PT2-Rzut2
  6
CONTINUOUS
 62
     7
 10
131.0683
 20
159.742999999999990
 11
131.0683
 21
241.745499999999990
  0
LINE
  8
PT2-Rzut2
  6
CONTINUOUS
 62
     7
 10
131.0658
 20
241.745499999999990
 11
193.1578
 21
241.743599999999990
  0
LINE
  8
PT2-Rzut2
  6
CONTINUOUS
 62
     7
 10
193.1578
 20
241.746100000000010
 11
193.1683
 21
159.745499999999990
  0
LINE
  8
PT2-Rzut2
  6
CONTINUOUS
 62
     7
 10
198.1683
 20
248.941800000000000
 11
198.1683
 21
301.945499999999980
  0
LINE
  8
PT2-Rzut2
  6
CONTINUOUS
 62
     7
 10
198.1658
 20
301.945499999999980
 11
259.4717
 21
301.945600000000010
  0
LINE
  8
PT2-Rzut2
  6
CONTINUOUS
 62
     7
 10
259.4717
 20
301.948100000000010
 11
259.4683
 21
248.944300000000000
  0
LINE
  8
PT2-Rzut2
  6
CONTINUOUS
 62
     7
 10
259.4708
 20
248.944300000000000
 11
198.1683
 21
248.944300000000000
  0
LINE
  8
PT2-Rzut2
  6
CONTINUOUS
 62
     7
 10
299.9683
 20
185.193000000000010
 11
299.9683
 21
242.945500000000010
  0
LINE
  8
PT2-Rzut2
  6
CONTINUOUS
 62
     7
 10
299.9658
 20
242.945500000000010
 11
325.2183
 21
242.945500000000010
  0
LINE
  8
PT2-Rzut2
  6
CONTINUOUS
 62
     7
 10
325.2183
 20
242.948000000000010
 11
325.2183
 21
185.195500000000010
  0
LINE
  8
PT2-Rzut2
  6
CONTINUOUS
 62
     7
 10
325.2208
 20
185.195500000000010
 11
299.9683
 21
185.195500000000010
  0
LINE
  8
PT2-Rzut2
  6
CONTINUOUS
 62
     7
 10
292.9683
 20
249.948000000000010
 11
292.9683
 21
185.195500000000010
  0
LINE
  8
PT2-Rzut2
  6
CONTINUOUS
 62
     7
 10
292.9708
 20
185.195500000000010
 11
265.1683
 21
185.195500000000010
  0
LINE
  8
PT2-Rzut2
  6
CONTINUOUS
 62
     7
 10
265.1824
 20
88.743800000000022
 11
262.8799
 21
88.743699999999990
  0
LINE
  8
PT2-Rzut2
  6
CONTINUOUS
 62
     7
 10
262.8799
 20
88.746199999999988
 11
262.8803
 21
81.934300000000007
  0
LINE
  8
PT2-Rzut2
  6
CONTINUOUS
 62
     7
 10
262.8778
 20
81.934300000000007
 11
302.2679
 21
81.943800000000010
  0
LINE
  8
PT2-Rzut2
  6
CONTINUOUS
 62
     7
 10
302.2679
 20
81.941300000000012
 11
302.2676
 21
87.946100000000001
  0
LINE
  8
PT2-Rzut2
  6
CONTINUOUS
 62
     7
 10
302.2651
 20
87.946100000000001
 11
469.4683
 21
87.967399999999998
  0
LINE
  8
PT2-Rzut2
  6
CONTINUOUS
 62
     7
 10
469.4708
 20
249.945500000000010
 11
292.9683
 21
249.945500000000010
  0
LINE
  8
PT2-Rzut2
  6
CONTINUOUS
 62
     7
 10
332.2158
 20
242.945500000000010
 11
462.4683
 21
242.945500000000010
  0
LINE
  8
PT2-Rzut2
  6
CONTINUOUS
 62
     7
 10
462.4708
 20
185.195500000000010
 11
332.2183
 21
185.195500000000010
  0
LINE
  8
PT2-Rzut2
  6
CONTINUOUS
 62
     7
 10
332.2183
 20
185.193000000000010
 11
332.2183
 21
242.945500000000010
  0
LINE
  8
PT2-Rzut2
  6
CONTINUOUS
 62
     7
 10
462.4683
 20
178.198000000000010
 11
462.4683
 21
159.895299999999990
  0
LINE
  8
PT2-Rzut2
  6
CONTINUOUS
 62
     7
 10
462.4708
 20
159.895299999999990
 11
272.1708
 21
159.871100000000010
  0
LINE
  8
PT2-Rzut2
  6
CONTINUOUS
 62
     7
 10
272.1708
 20
159.868599999999990
 11
272.1685
 21
178.195500000000010
  0
LINE
  8
PT2-Rzut2
  6
CONTINUOUS
 62
     7
 10
272.166
 20
178.195500000000010
 11
462.4683
 21
178.195500000000010
  0
LINE
  8
PT2-Rzut2
  6
CONTINUOUS
 62
     7
 10
462.4683
 20
152.897799999999990
 11
462.4683
 21
94.966499999999996
  0
LINE
  8
PT2-Rzut2
  6
CONTINUOUS
 62
     7
 10
462.4708
 20
94.966499999999996
 11
295.2671
 21
94.945200000000000
  0
LINE
  8
PT2-Rzut2
  6
CONTINUOUS
 62
     7
 10
295.2671
 20
94.947699999999998
 11
295.2675
 21
88.942099999999982
  0
LINE
  8
PT2-Rzut2
  6
CONTINUOUS
 62
     7
 10
295.27
 20
88.942099999999982
 11
272.1799
 21
88.936100000000010
  0
LINE
  8
PT2-Rzut2
  6
CONTINUOUS
 62
     7
 10
272.1692
 20
152.871100000000010
 11
462.4683
 21
152.895299999999990
  0
LINE
  8
PT2-Rzut2
  6
CONTINUOUS
 62
     7
 10
86.666
 20
286.048000000000000
 11
86.666
 21
249.135700000000010
  0
LINE
  8
PT2-Rzut2
  6
CONTINUOUS
 62
     7
 10
86.6635
 20
249.135700000000010
 11
154.3161
 21
249.144299999999990
  0
LINE
  8
PT2-Rzut2
  6
CONTINUOUS
 62
     7
 10
154.3161
 20
249.141799999999990
 11
154.3183
 21
286.045500000000000
  0
LINE
  8
PT2-Rzut2
  6
CONTINUOUS
 62
     7
 10
154.3208
 20
286.045500000000000
 11
86.666
 21
286.045500000000000
  0
LINE
  8
PT2-Rzut2
  6
CONTINUOUS
 62
     7
 10
93.666
 20
256.134099999999990
 11
93.666
 21
279.045500000000000
  0
LINE
  8
PT2-Rzut2
  6
CONTINUOUS
 62
     7
 10
93.6635
 20
279.045500000000000
 11
147.318
 21
279.045500000000000
  0
LINE
  8
PT2-Rzut2
  6
CONTINUOUS
 62
     7
 10
147.318
 20
279.048000000000000
 11
147.3165
 21
256.143400000000040
  0
LINE
  8
PT2-Rzut2
  6
CONTINUOUS
 62
     7
 10
147.319
 20
256.143400000000040
 11
93.666
 21
256.136599999999990
  0
LINE
  8
PT2-Rzut2
  6
CONTINUOUS
 62
     7
 10
330.2654
 20
116.546100000000020
 11
330.2631
 21
128.746600000000000
  0
LINE
  8
PT2-Rzut2
  6
CONTINUOUS
 62
     7
 10
323.2631
 20
128.745299999999990
 11
323.2654
 21
116.544600000000000
  0
LINE
  8
PT2-Rzut2
  6
CONTINUOUS
 62
     7
 10
438.359
 20
138.864800000000000
 11
415.7585
 21
138.874900000000000
  0
LINE
  8
PT2-Rzut2
  6
CONTINUOUS
 62
     7
 10
415.7554
 20
131.874900000000030
 11
438.3559
 21
131.864800000000000
  0
POLYLINE
  8
PT3-Kreskowanie9
  6
CONTINUOUS
 62
     7
 66
     1
 70
     1
  0
VERTEX
  8
PT3-Kreskowanie9
 10
67.1683
 20
241.745499999999990
  0
VERTEX
  8
PT3-Kreskowanie9
 10
59.9683
 20
248.945500000000010
  0
VERTEX
  8
PT3-Kreskowanie9
 10
59.9683
 20
88.945499999999981
  0
VERTEX
  8
PT3-Kreskowanie9
 10
67.1683
 20
96.145500000000027
  0
SEQEND
  8
PT3-Kreskowanie9
  0
POLYLINE
  8
PT3-Kreskowanie9
  6
CONTINUOUS
 62
     7
 66
     1
 70
     1
  0
VERTEX
  8
PT3-Kreskowanie9
 10
67.1683
 20
96.145500000000027
  0
VERTEX
  8
PT3-Kreskowanie9
 10
59.9683
 20
88.945499999999981
  0
VERTEX
  8
PT3-Kreskowanie9
 10
264.9683
 20
88.945499999999981
  0
VERTEX
  8
PT3-Kreskowanie9
 10
257.7683
 20
96.145500000000027
  0
SEQEND
  8
PT3-Kreskowanie9
  0
POLYLINE
  8
PT3-Kreskowanie9
  6
CONTINUOUS
 62
     7
 66
     1
 70
     1
  0
VERTEX
  8
PT3-Kreskowanie9
 10
257.7683
 20
154.045500000000000
  0
VERTEX
  8
PT3-Kreskowanie9
 10
257.7683
 20
159.745499999999990
  0
VERTEX
  8
PT3-Kreskowanie9
 10
125.0683
 20
159.745499999999990
  0
VERTEX
  8
PT3-Kreskowanie9
 10
125.0683
 20
154.045500000000000
  0
SEQEND
  8
PT3-Kreskowanie9
  0
POLYLINE
  8
PT3-Kreskowanie9
  6
CONTINUOUS
 62
     7
 66
     1
 70
     1
  0
VERTEX
  8
PT3-Kreskowanie9
 10
125.5683
 20
154.048000000000000
  0
VERTEX
  8
PT3-Kreskowanie9
 10
125.5683
 20
159.745499999999990
  0
VERTEX
  8
PT3-Kreskowanie9
 10
67.1683
 20
159.745499999999990
  0
VERTEX
  8
PT3-Kreskowanie9
 10
67.1683
 20
154.045500000000000
  0
SEQEND
  8
PT3-Kreskowanie9
  0
POLYLINE
  8
PT3-Kreskowanie9
  6
CONTINUOUS
 62
     7
 66
     1
 70
     1
  0
VERTEX
  8
PT3-Kreskowanie9
 10
147.5683
 20
96.145500000000027
  0
VERTEX
  8
PT3-Kreskowanie9
 10
153.0683
 20
96.145500000000027
  0
VERTEX
  8
PT3-Kreskowanie9
 10
153.0683
 20
154.045500000000000
  0
VERTEX
  8
PT3-Kreskowanie9
 10
147.5683
 20
154.045500000000000
  0
SEQEND
  8
PT3-Kreskowanie9
  0
POLYLINE
  8
PT3-Kreskowanie9
  6
CONTINUOUS
 62
     7
 66
     1
 70
     1
  0
VERTEX
  8
PT3-Kreskowanie9
 10
171.2683
 20
96.145500000000027
  0
VERTEX
  8
PT3-Kreskowanie9
 10
176.7683
 20
96.145500000000027
  0
VERTEX
  8
PT3-Kreskowanie9
 10
176.7683
 20
154.045500000000000
  0
VERTEX
  8
PT3-Kreskowanie9
 10
171.2683
 20
154.045500000000000
  0
SEQEND
  8
PT3-Kreskowanie9
  0
POLYLINE
  8
PT3-Kreskowanie9
  6
CONTINUOUS
 62
     7
 66
     1
 70
     1
  0
VERTEX
  8
PT3-Kreskowanie9
 10
125.5683
 20
159.745499999999990
  0
VERTEX
  8
PT3-Kreskowanie9
 10
131.0683
 20
159.745499999999990
  0
VERTEX
  8
PT3-Kreskowanie9
 10
131.0683
 20
241.745499999999990
  0
VERTEX
  8
PT3-Kreskowanie9
 10
125.5683
 20
241.745499999999990
  0
SEQEND
  8
PT3-Kreskowanie9
  0
POLYLINE
  8
PT3-Kreskowanie9
  6
CONTINUOUS
 62
     7
 66
     1
 70
     1
  0
VERTEX
  8
PT3-Kreskowanie9
 10
125.5683
 20
178.945500000000010
  0
VERTEX
  8
PT3-Kreskowanie9
 10
125.5683
 20
184.645500000000000
  0
VERTEX
  8
PT3-Kreskowanie9
 10
125.0657
 20
184.645500000000000
  0
VERTEX
  8
PT3-Kreskowanie9
 10
125.0657
 20
178.945500000000010
  0
SEQEND
  8
PT3-Kreskowanie9
  0
POLYLINE
  8
PT3-Kreskowanie9
  6
CONTINUOUS
 62
     7
 66
     1
 70
     1
  0
VERTEX
  8
PT3-Kreskowanie9
 10
125.5683
 20
178.945500000000010
  0
VERTEX
  8
PT3-Kreskowanie9
 10
125.5683
 20
184.645500000000000
  0
VERTEX
  8
PT3-Kreskowanie9
 10
67.1683
 20
184.645500000000000
  0
VERTEX
  8
PT3-Kreskowanie9
 10
67.1683
 20
178.945500000000010
  0
SEQEND
  8
PT3-Kreskowanie9
  0
POLYLINE
  8
PT3-Kreskowanie9
  6
CONTINUOUS
 62
     7
 66
     1
 70
     1
  0
VERTEX
  8
PT3-Kreskowanie9
 10
154.5183
 20
248.945500000000010
  0
VERTEX
  8
PT3-Kreskowanie9
 10
160.0183
 20
241.745399999999990
  0
VERTEX
  8
PT3-Kreskowanie9
 10
159.9998
 20
357.465899999999980
  0
VERTEX
  8
PT3-Kreskowanie9
 10
154.5183
 20
359.513500000000020
  0
SEQEND
  8
PT3-Kreskowanie9
  0
POLYLINE
  8
PT3-Kreskowanie9
  6
CONTINUOUS
 62
     7
 66
     1
 70
     1
  0
VERTEX
  8
PT3-Kreskowanie9
 10
192.6683
 20
248.941300000000010
  0
VERTEX
  8
PT3-Kreskowanie9
 10
198.1683
 20
241.744300000000010
  0
VERTEX
  8
PT3-Kreskowanie9
 10
198.1683
 20
301.945499999999980
  0
VERTEX
  8
PT3-Kreskowanie9
 10
192.6683
 20
307.445499999999980
  0
SEQEND
  8
PT3-Kreskowanie9
  0
POLYLINE
  8
PT3-Kreskowanie9
  6
CONTINUOUS
 62
     7
 66
     1
 70
     1
  0
VERTEX
  8
PT3-Kreskowanie9
 10
192.6683
 20
307.445499999999980
  0
VERTEX
  8
PT3-Kreskowanie9
 10
198.1683
 20
301.945499999999980
  0
VERTEX
  8
PT3-Kreskowanie9
 10
259.4717
 20
301.945600000000010
  0
VERTEX
  8
PT3-Kreskowanie9
 10
259.472
 20
307.445600000000010
  0
SEQEND
  8
PT3-Kreskowanie9
  0
POLYLINE
  8
PT3-Kreskowanie9
  6
CONTINUOUS
 62
     7
 66
     1
 70
     1
  0
VERTEX
  8
PT3-Kreskowanie9
 10
59.9683
 20
248.945500000000010
  0
VERTEX
  8
PT3-Kreskowanie9
 10
67.1683
 20
241.745499999999990
  0
VERTEX
  8
PT3-Kreskowanie9
 10
160.0183
 20
241.745399999999990
  0
VERTEX
  8
PT3-Kreskowanie9
 10
154.5183
 20
248.945500000000010
  0
SEQEND
  8
PT3-Kreskowanie9
  0
POLYLINE
  8
PT3-Kreskowanie9
  6
CONTINUOUS
 62
     7
 66
     1
 70
     1
  0
VERTEX
  8
PT3-Kreskowanie9
 10
160.0183
 20
248.945400000000010
  0
VERTEX
  8
PT3-Kreskowanie9
 10
160.0183
 20
241.745399999999990
  0
VERTEX
  8
PT3-Kreskowanie9
 10
198.1683
 20
241.744300000000010
  0
VERTEX
  8
PT3-Kreskowanie9
 10
192.6683
 20
248.941300000000010
  0
SEQEND
  8
PT3-Kreskowanie9
  0
POLYLINE
  8
PT3-Kreskowanie9
  6
CONTINUOUS
 62
     7
 66
     1
 70
     1
  0
VERTEX
  8
PT3-Kreskowanie9
 10
257.7683
 20
143.741000000000010
  0
VERTEX
  8
PT3-Kreskowanie9
 10
264.9683
 20
143.741000000000010
  0
VERTEX
  8
PT3-Kreskowanie9
 10
264.9688
 20
248.943800000000010
  0
VERTEX
  8
PT3-Kreskowanie9
 10
257.7688
 20
241.743799999999990
  0
SEQEND
  8
PT3-Kreskowanie9
  0
POLYLINE
  8
PT3-Kreskowanie9
  6
CONTINUOUS
 62
     7
 66
     1
 70
     1
  0
VERTEX
  8
PT3-Kreskowanie9
 10
257.7683
 20
241.744300000000010
  0
VERTEX
  8
PT3-Kreskowanie9
 10
264.9683
 20
248.944300000000000
  0
VERTEX
  8
PT3-Kreskowanie9
 10
198.1683
 20
248.944300000000000
  0
VERTEX
  8
PT3-Kreskowanie9
 10
198.1683
 20
241.744300000000010
  0
SEQEND
  8
PT3-Kreskowanie9
  0
POLYLINE
  8
PT3-Kreskowanie9
  6
CONTINUOUS
 62
     7
 66
     1
 70
     1
  0
VERTEX
  8
PT3-Kreskowanie9
 10
67.1683
 20
218.445600000000010
  0
VERTEX
  8
PT3-Kreskowanie9
 10
67.1683
 20
215.445600000000010
  0
VERTEX
  8
PT3-Kreskowanie9
 10
125.5683
 20
215.455500000000000
  0
VERTEX
  8
PT3-Kreskowanie9
 10
125.5683
 20
218.453000000000000
  0
SEQEND
  8
PT3-Kreskowanie9
  0
POLYLINE
  8
PT3-Kreskowanie9
  6
CONTINUOUS
 62
     7
 66
     1
 70
     1
  0
VERTEX
  8
PT3-Kreskowanie9
 10
125.0179
 20
218.452900000000000
  0
VERTEX
  8
PT3-Kreskowanie9
 10
125.0183
 20
215.452900000000000
  0
VERTEX
  8
PT3-Kreskowanie9
 10
125.5683
 20
215.453000000000000
  0
VERTEX
  8
PT3-Kreskowanie9
 10
125.5683
 20
218.453000000000000
  0
SEQEND
  8
PT3-Kreskowanie9
  0
POLYLINE
  8
PT3-Kreskowanie9
  6
CONTINUOUS
 62
     7
 66
     1
 70
     1
  0
VERTEX
  8
PT3-Kreskowanie9
 10
131.0683
 20
154.045500000000000
  0
VERTEX
  8
PT3-Kreskowanie9
 10
125.5683
 20
154.045500000000000
  0
VERTEX
  8
PT3-Kreskowanie9
 10
125.5609
 20
96.145500000000027
  0
VERTEX
  8
PT3-Kreskowanie9
 10
131.0609
 20
96.145500000000027
  0
SEQEND
  8
PT3-Kreskowanie9
  0
POLYLINE
  8
PT3-Kreskowanie9
  6
CONTINUOUS
 62
     7
 66
     1
 70
     1
  0
VERTEX
  8
PT3-Kreskowanie9
 10
193.1683
 20
159.745499999999990
  0
VERTEX
  8
PT3-Kreskowanie9
 10
198.6683
 20
159.745499999999990
  0
VERTEX
  8
PT3-Kreskowanie9
 10
198.6578
 20
241.744300000000010
  0
VERTEX
  8
PT3-Kreskowanie9
 10
193.1578
 20
241.743599999999990
  0
SEQEND
  8
PT3-Kreskowanie9
  0
POLYLINE
  8
PT3-Kreskowanie9
  6
CONTINUOUS
 62
     7
 66
     1
 70
     1
  0
VERTEX
  8
PT3-Kreskowanie9
 10
259.4683
 20
248.944300000000000
  0
VERTEX
  8
PT3-Kreskowanie9
 10
264.9683
 20
248.944300000000000
  0
VERTEX
  8
PT3-Kreskowanie9
 10
264.9726
 20
316.651700000000010
  0
VERTEX
  8
PT3-Kreskowanie9
 10
259.4727
 20
318.706199999999970
  0
SEQEND
  8
PT3-Kreskowanie9
  0
LINE
  8
PT3-Rzut8
  6
CONTINUOUS
 62
     7
 10
59.9683
 20
248.948000000000010
 11
59.9683
 21
88.945499999999981
  0
LINE
  8
PT3-Rzut8
  6
CONTINUOUS
 62
     7
 10
59.9658
 20
88.945499999999981
 11
264.9683
 21
88.945499999999981
  0
LINE
  8
PT3-Rzut8
  6
CONTINUOUS
 62
     7
 10
264.9683
 20
248.941800000000000
 11
265.0313
 21
316.629799999999990
  0
LINE
  8
PT3-Rzut8
  6
CONTINUOUS
 62
     7
 10
259.4727
 20
318.706199999999970
 11
259.472
 21
307.445600000000010
  0
LINE
  8
PT3-Rzut8
  6
CONTINUOUS
 62
     7
 10
259.4745
 20
307.445600000000010
 11
192.6683
 21
307.445499999999980
  0
LINE
  8
PT3-Rzut8
  6
CONTINUOUS
 62
     7
 10
192.6683
 20
307.447999999999980
 11
192.6683
 21
248.941300000000010
  0
LINE
  8
PT3-Rzut8
  6
CONTINUOUS
 62
     7
 10
192.6708
 20
248.941300000000010
 11
160.0183
 21
248.945400000000010
  0
LINE
  8
PT3-Rzut8
  6
CONTINUOUS
 62
     7
 10
160.0183
 20
248.942900000000010
 11
160.0183
 21
357.459000000000000
  0
LINE
  8
PT3-Rzut8
  6
CONTINUOUS
 62
     7
 10
154.5183
 20
359.513500000000020
 11
154.5183
 21
248.945500000000010
  0
LINE
  8
PT3-Rzut8
  6
CONTINUOUS
 62
     7
 10
154.5208
 20
248.945500000000010
 11
59.9683
 21
248.945500000000010
  0
LINE
  8
PT3-Rzut8
  6
CONTINUOUS
 62
     7
 10
67.1683
 20
96.142999999999972
 11
67.1683
 21
154.045500000000000
  0
LINE
  8
PT3-Rzut8
  6
CONTINUOUS
 62
     7
 10
67.1658
 20
154.045500000000000
 11
125.5683
 21
154.045500000000000
  0
LINE
  8
PT3-Rzut8
  6
CONTINUOUS
 62
     7
 10
125.5683
 20
154.048000000000000
 11
125.5609
 21
96.145500000000027
  0
LINE
  8
PT3-Rzut8
  6
CONTINUOUS
 62
     7
 10
125.5634
 20
96.145500000000027
 11
67.1683
 21
96.145500000000027
  0
LINE
  8
PT3-Rzut8
  6
CONTINUOUS
 62
     7
 10
67.1683
 20
159.742999999999990
 11
67.1683
 21
178.945500000000010
  0
LINE
  8
PT3-Rzut8
  6
CONTINUOUS
 62
     7
 10
67.1658
 20
178.945500000000010
 11
125.5683
 21
178.945500000000010
  0
LINE
  8
PT3-Rzut8
  6
CONTINUOUS
 62
     7
 10
125.5683
 20
178.948000000000010
 11
125.5683
 21
159.745499999999990
  0
LINE
  8
PT3-Rzut8
  6
CONTINUOUS
 62
     7
 10
125.5683
 20
159.745499999999990
 11
67.1683
 21
159.745499999999990
  0
LINE
  8
PT3-Rzut8
  6
CONTINUOUS
 62
     7
 10
67.1683
 20
184.643000000000000
 11
67.1683
 21
215.445600000000010
  0
LINE
  8
PT3-Rzut8
  6
CONTINUOUS
 62
     7
 10
67.1658
 20
215.445500000000010
 11
125.5683
 21
215.453000000000000
  0
LINE
  8
PT3-Rzut8
  6
CONTINUOUS
 62
     7
 10
125.5683
 20
215.455500000000000
 11
125.5683
 21
184.645500000000000
  0
LINE
  8
PT3-Rzut8
  6
CONTINUOUS
 62
     7
 10
125.5683
 20
184.645500000000000
 11
67.1683
 21
184.645500000000000
  0
LINE
  8
PT3-Rzut8
  6
CONTINUOUS
 62
     7
 10
67.1683
 20
218.443000000000010
 11
67.1683
 21
241.745499999999990
  0
LINE
  8
PT3-Rzut8
  6
CONTINUOUS
 62
     7
 10
67.1658
 20
241.745499999999990
 11
125.5683
 21
241.745499999999990
  0
LINE
  8
PT3-Rzut8
  6
CONTINUOUS
 62
     7
 10
125.5683
 20
241.747999999999990
 11
125.5683
 21
218.453000000000000
  0
LINE
  8
PT3-Rzut8
  6
CONTINUOUS
 62
     7
 10
125.5683
 20
218.453000000000000
 11
67.1683
 21
218.445600000000010
  0
LINE
  8
PT3-Rzut8
  6
CONTINUOUS
 62
     7
 10
257.7708
 20
96.145500000000027
 11
176.7683
 21
96.145500000000027
  0
LINE
  8
PT3-Rzut8
  6
CONTINUOUS
 62
     7
 10
176.7683
 20
96.142999999999972
 11
176.7683
 21
154.045500000000000
  0
LINE
  8
PT3-Rzut8
  6
CONTINUOUS
 62
     7
 10
176.7658
 20
154.045500000000000
 11
257.7683
 21
154.045500000000000
  0
LINE
  8
PT3-Rzut8
  6
CONTINUOUS
 62
     7
 10
171.2708
 20
96.145500000000027
 11
153.0683
 21
96.145500000000027
  0
LINE
  8
PT3-Rzut8
  6
CONTINUOUS
 62
     7
 10
153.0683
 20
96.142999999999972
 11
153.0683
 21
154.045500000000000
  0
LINE
  8
PT3-Rzut8
  6
CONTINUOUS
 62
     7
 10
153.0658
 20
154.045500000000000
 11
171.2683
 21
154.045500000000000
  0
LINE
  8
PT3-Rzut8
  6
CONTINUOUS
 62
     7
 10
171.2683
 20
154.048000000000000
 11
171.2683
 21
96.145500000000027
  0
LINE
  8
PT3-Rzut8
  6
CONTINUOUS
 62
     7
 10
147.5708
 20
96.145500000000027
 11
131.0609
 21
96.145500000000027
  0
LINE
  8
PT3-Rzut8
  6
CONTINUOUS
 62
     7
 10
131.0609
 20
96.142999999999972
 11
131.0683
 21
154.045500000000000
  0
LINE
  8
PT3-Rzut8
  6
CONTINUOUS
 62
     7
 10
131.0658
 20
154.045500000000000
 11
147.5683
 21
154.045500000000000
  0
LINE
  8
PT3-Rzut8
  6
CONTINUOUS
 62
     7
 10
147.5683
 20
154.048000000000000
 11
147.5683
 21
96.145500000000027
  0
LINE
  8
PT3-Rzut8
  6
CONTINUOUS
 62
     7
 10
257.7708
 20
159.745499999999990
 11
198.6683
 21
159.745499999999990
  0
LINE
  8
PT3-Rzut8
  6
CONTINUOUS
 62
     7
 10
198.6683
 20
159.742999999999990
 11
198.6578
 21
241.744300000000010
  0
LINE
  8
PT3-Rzut8
  6
CONTINUOUS
 62
     7
 10
198.6553
 20
241.744300000000010
 11
257.7683
 21
241.744300000000010
  0
LINE
  8
PT3-Rzut8
  6
CONTINUOUS
 62
     7
 10
257.7683
 20
241.746800000000010
 11
257.7683
 21
159.745499999999990
  0
LINE
  8
PT3-Rzut8
  6
CONTINUOUS
 62
     7
 10
193.1708
 20
159.745499999999990
 11
131.0683
 21
159.745499999999990
  0
LINE
  8
PT3-Rzut8
  6
CONTINUOUS
 62
     7
 10
131.0683
 20
159.742999999999990
 11
131.0683
 21
241.745499999999990
  0
LINE
  8
PT3-Rzut8
  6
CONTINUOUS
 62
     7
 10
131.0658
 20
241.745499999999990
 11
193.1578
 21
241.743599999999990
  0
LINE
  8
PT3-Rzut8
  6
CONTINUOUS
 62
     7
 10
193.1578
 20
241.746100000000010
 11
193.1683
 21
159.745499999999990
  0
LINE
  8
PT3-Rzut8
  6
CONTINUOUS
 62
     7
 10
198.1683
 20
248.941800000000000
 11
198.1683
 21
301.945499999999980
  0
LINE
  8
PT3-Rzut8
  6
CONTINUOUS
 62
     7
 10
198.1658
 20
301.945499999999980
 11
259.4717
 21
301.945600000000010
  0
LINE
  8
PT3-Rzut8
  6
CONTINUOUS
 62
     7
 10
259.4717
 20
301.948100000000010
 11
259.4683
 21
248.944300000000000
  0
LINE
  8
PT3-Rzut8
  6
CONTINUOUS
 62
     7
 10
259.4708
 20
248.944300000000000
 11
198.1683
 21
248.944300000000000
  0
LINE
  8
PT3-Rzut8
  6
CONTINUOUS
 62
     7
 10
298.4683
 20
183.693000000000010
 11
298.4683
 21
244.445500000000010
  0
LINE
  8
PT3-Rzut8
  6
CONTINUOUS
 62
     7
 10
298.4658
 20
244.445500000000010
 11
326.7183
 21
244.445500000000010
  0
LINE
  8
PT3-Rzut8
  6
CONTINUOUS
 62
     7
 10
326.7183
 20
244.448000000000010
 11
326.7183
 21
183.695500000000010
  0
LINE
  8
PT3-Rzut8
  6
CONTINUOUS
 62
     7
 10
326.7208
 20
183.695500000000010
 11
298.4683
 21
183.695500000000010
  0
LINE
  8
PT3-Rzut8
  6
CONTINUOUS
 62
     7
 10
294.4683
 20
248.448000000000010
 11
294.4683
 21
183.695500000000010
  0
LINE
  8
PT3-Rzut8
  6
CONTINUOUS
 62
     7
 10
294.4708
 20
183.695500000000010
 11
265.1683
 21
183.695500000000010
  0
LINE
  8
PT3-Rzut8
  6
CONTINUOUS
 62
     7
 10
265.1824
 20
88.744199999999978
 11
263.5666
 21
88.743699999999990
  0
LINE
  8
PT3-Rzut8
  6
CONTINUOUS
 62
     7
 10
263.5666
 20
88.746199999999988
 11
263.5683
 21
83.433499999999981
  0
LINE
  8
PT3-Rzut8
  6
CONTINUOUS
 62
     7
 10
263.5658
 20
83.433899999999994
 11
300.7679
 21
83.445800000000020
  0
LINE
  8
PT3-Rzut8
  6
CONTINUOUS
 62
     7
 10
300.7679
 20
83.443300000000022
 11
300.7675
 21
89.445899999999995
  0
LINE
  8
PT3-Rzut8
  6
CONTINUOUS
 62
     7
 10
300.765
 20
89.445899999999995
 11
463.9683
 21
89.466700000000003
  0
LINE
  8
PT3-Rzut8
  6
CONTINUOUS
 62
     7
 10
463.9683
 20
89.469200000000001
 11
463.9683
 21
89.445499999999981
  0
LINE
  8
PT3-Rzut8
  6
CONTINUOUS
 62
     7
 10
463.9658
 20
89.445499999999981
 11
467.9683
 21
89.445499999999981
  0
LINE
  8
PT3-Rzut8
  6
CONTINUOUS
 62
     7
 10
467.9708
 20
248.445500000000010
 11
294.4683
 21
248.445500000000010
  0
LINE
  8
PT3-Rzut8
  6
CONTINUOUS
 62
     7
 10
330.7158
 20
244.445500000000010
 11
463.9683
 21
244.445500000000010
  0
LINE
  8
PT3-Rzut8
  6
CONTINUOUS
 62
     7
 10
463.9708
 20
183.695500000000010
 11
330.7183
 21
183.695500000000010
  0
LINE
  8
PT3-Rzut8
  6
CONTINUOUS
 62
     7
 10
330.7183
 20
183.693000000000010
 11
330.7183
 21
244.445500000000010
  0
LINE
  8
PT3-Rzut8
  6
CONTINUOUS
 62
     7
 10
463.9683
 20
179.698000000000010
 11
463.9683
 21
158.395500000000000
  0
LINE
  8
PT3-Rzut8
  6
CONTINUOUS
 62
     7
 10
463.9708
 20
158.395500000000000
 11
268.1714
 21
158.370499999999990
  0
LINE
  8
PT3-Rzut8
  6
CONTINUOUS
 62
     7
 10
268.1688
 20
179.695500000000010
 11
463.9683
 21
179.695500000000010
  0
LINE
  8
PT3-Rzut8
  6
CONTINUOUS
 62
     7
 10
463.9683
 20
154.398100000000000
 11
463.9683
 21
93.466700000000003
  0
LINE
  8
PT3-Rzut8
  6
CONTINUOUS
 62
     7
 10
463.9708
 20
93.466700000000003
 11
296.7672
 21
93.445400000000006
  0
LINE
  8
PT3-Rzut8
  6
CONTINUOUS
 62
     7
 10
296.7672
 20
93.447900000000004
 11
296.7676
 21
87.442400000000021
  0
LINE
  8
PT3-Rzut8
  6
CONTINUOUS
 62
     7
 10
296.7701
 20
87.442400000000021
 11
268.1801
 21
87.435099999999977
  0
LINE
  8
PT3-Rzut8
  6
CONTINUOUS
 62
     7
 10
268.1719
 20
154.370499999999990
 11
463.9683
 21
154.395500000000000
  0
LINE
  8
PT3-Rzut8
  6
CONTINUOUS
 62
     7
 10
88.166
 20
284.548000000000000
 11
88.166
 21
249.145500000000000
  0
LINE
  8
PT3-Rzut8
  6
CONTINUOUS
 62
     7
 10
88.1635
 20
249.135899999999990
 11
154.3161
 21
249.144299999999990
  0
LINE
  8
PT3-Rzut8
  6
CONTINUOUS
 62
     7
 10
154.3161
 20
249.141799999999990
 11
154.3183
 21
284.545500000000000
  0
LINE
  8
PT3-Rzut8
  6
CONTINUOUS
 62
     7
 10
154.3208
 20
284.545500000000000
 11
88.166
 21
284.545500000000000
  0
LINE
  8
PT3-Rzut8
  6
CONTINUOUS
 62
     7
 10
92.166
 20
252.136400000000010
 11
92.166
 21
280.545500000000000
  0
LINE
  8
PT3-Rzut8
  6
CONTINUOUS
 62
     7
 10
92.1635
 20
280.545500000000000
 11
151.3181
 21
280.545500000000000
  0
LINE
  8
PT3-Rzut8
  6
CONTINUOUS
 62
     7
 10
328.6651
 20
118.143300000000010
 11
328.6634
 21
127.146300000000000
  0
LINE
  8
PT3-Rzut8
  6
CONTINUOUS
 62
     7
 10
328.6659
 20
127.146300000000000
 11
324.8633
 21
127.145600000000000
  0
LINE
  8
PT3-Rzut8
  6
CONTINUOUS
 62
     7
 10
324.8633
 20
127.148100000000000
 11
324.8651
 21
118.144999999999980
  0
LINE
  8
PT3-Rzut8
  6
CONTINUOUS
 62
     7
 10
324.8626
 20
118.144999999999980
 11
328.6651
 21
118.145800000000010
  0
LINE
  8
PT3-Rzut8
  6
CONTINUOUS
 62
     7
 10
436.7607
 20
137.265600000000010
 11
417.3578
 21
137.274200000000010
  0
LINE
  8
PT3-Rzut8
  6
CONTINUOUS
 62
     7
 10
417.3578
 20
137.276700000000010
 11
417.3561
 21
133.474300000000030
  0
LINE
  8
PT3-Rzut8
  6
CONTINUOUS
 62
     7
 10
417.3536
 20
133.474300000000030
 11
436.7566
 21
133.465599999999990
  0
LINE
  8
PT3-Rzut8
  6
CONTINUOUS
 62
     7
 10
436.7566
 20
133.463100000000000
 11
436.7583
 21
137.265600000000010
  0
POLYLINE
  8
PT4-Kreskowanie18
  6
CONTINUOUS
 62
     7
 66
     1
 70
     1
  0
VERTEX
  8
PT4-Kreskowanie18
 10
196.0054
 20
390.000000000000000
  0
VERTEX
  8
PT4-Kreskowanie18
 10
200.1131
 20
390.000000000000000
  0
VERTEX
  8
PT4-Kreskowanie18
 10
296.3198
 20
390.000000000000000
  0
VERTEX
  8
PT4-Kreskowanie18
 10
298.7698
 20
390.000000000000000
  0
SEQEND
  8
PT4-Kreskowanie18
  0
POLYLINE
  8
PT4-Kreskowanie18
  6
CONTINUOUS
 62
     7
 66
     1
 70
     1
  0
VERTEX
  8
PT4-Kreskowanie18
 10
298.7698
 20
390.000000000000000
  0
VERTEX
  8
PT4-Kreskowanie18
 10
296.3198
 20
390.000000000000000
  0
VERTEX
  8
PT4-Kreskowanie18
 10
303.3455
 20
390.000000000000000
  0
VERTEX
  8
PT4-Kreskowanie18
 10
305.7958
 20
390.000000000000000
  0
SEQEND
  8
PT4-Kreskowanie18
  0
LINE
  8
PT4-Rzut17
  6
CONTINUOUS
 62
     7
 10
231.6563
 20
336.569599999999980
 11
128.4457
 21
375.124199999999970
  0
LINE
  8
PT4-Rzut17
  6
CONTINUOUS
 62
     7
 10
128.4448
 20
375.121899999999980
 11
129.6905
 21
378.456500000000010
  0
LINE
  8
PT4-Rzut17
  6
CONTINUOUS
 62
     7
 10
247.3094
 20
378.456500000000010
 11
231.6563
 21
336.569599999999980
  0
LINE
  8
PT4-Rzut17
  6
CONTINUOUS
 62
     7
 10
238.2137
 20
334.120000000000000
 11
254.7822
 21
378.456500000000010
  0
LINE
  8
PT4-Rzut17
  6
CONTINUOUS
 62
     7
 10
122.218
 20
378.456500000000010
 11
119.4387
 21
371.016399999999980
  0
LINE
  8
PT5-Rzut29
  6
CONTINUOUS
 62
     7
 10
220.5929
 20
339.530800000000000
 11
220.452
 21
339.153799999999990
  0
LINE
  8
PT5-Rzut29
  6
CONTINUOUS
 62
     7
 10
220.4543
 20
339.152899999999990
 11
126.5157
 21
374.244000000000030
  0
LINE
  8
PT5-Rzut29
  6
CONTINUOUS
 62
     7
 10
126.5148
 20
374.241600000000010
 11
128.0893
 21
378.456500000000010
  0
LINE
  8
PT5-Rzut29
  6
CONTINUOUS
 62
     7
 10
248.9107
 20
378.456500000000010
 11
232.6764
 21
335.014299999999990
  0
LINE
  8
PT5-Rzut29
  6
CONTINUOUS
 62
     7
 10
232.6787
 20
335.013399999999990
 11
220.592
 21
339.528399999999980
  0
LINE
  8
PT5-Rzut29
  6
CONTINUOUS
 62
     7
 10
219.0494
 20
335.407699999999980
 11
234.8831
 21
329.492500000000010
  0
LINE
  8
PT5-Rzut29
  6
CONTINUOUS
 62
     7
 10
236.8086
 20
334.644900000000010
 11
253.1809
 21
378.456500000000010
  0
LINE
  8
PT5-Rzut29
  6
CONTINUOUS
 62
     7
 10
123.8193
 20
378.456500000000010
 11
121.3688
 21
371.896599999999980
  0
LINE
  8
PT5-Rzut29
  6
CONTINUOUS
 62
     7
 10
121.3665
 20
371.897499999999980
 11
219.0518
 21
335.406900000000010
  0
LINE
  8
PT6-Rzut42
  6
CONTINUOUS
 62
     7
 10
234.3565
 20
328.088500000000010
 11
268.8431
 21
315.205899999999990
  0
LINE
  8
PT6-Rzut42
  6
CONTINUOUS
 62
     7
 10
268.8422
 20
315.203599999999990
 11
292.476
 21
378.456500000000010
  0
LINE
  8
PT6-Rzut42
  6
CONTINUOUS
 62
     7
 10
285.0033
 20
378.456500000000010
 11
264.7357
 21
324.212699999999980
  0
LINE
  8
PT6-Rzut42
  6
CONTINUOUS
 62
     7
 10
264.738
 20
324.211799999999980
 11
236.8084
 21
334.644999999999980
  0
LINE
  8
PT2-Rzut2
  6
CONTINUOUS
 62
     7
 10
323.2631
 20
128.745299999999990
 11
330.2631
 21
128.746600000000000
  0
LINE
  8
PT2-Rzut2
  6
CONTINUOUS
 62
     7
 10
323.2654
 20
116.544600000000000
 11
330.2654
 21
116.546100000000020
  0
LINE
  8
PT2-Rzut2
  6
CONTINUOUS
 62
     7
 10
415.7554
 20
131.874900000000030
 11
415.7585
 21
138.874900000000000
  0
LINE
  8
PT2-Rzut2
  6
CONTINUOUS
 62
     7
 10
438.3559
 20
131.864800000000000
 11
438.359
 21
138.864800000000000
  0
LINE
  8
PT4-Rzut17
  6
GESTRICHELT
 62
     7
 10
115.9837
 20
378.456500000000010
 11
295.4998
 21
378.098599999999980
  0
LINE
  8
PT4-Rzut17
  6
CONTINUOUS
 62
     7
 10
119.4364
 20
371.017200000000000
 11
154.4945
 21
357.920900000000020
  0
LINE
  8
PT4-Rzut17
  6
CONTINUOUS
 62
     7
 10
160.0116
 20
355.859899999999980
 11
235.7631
 21
327.562299999999990
  0
LINE
  8
PT5-Okna_i_drzwi30
  6
CONTINUOUS
 62
     7
 10
234.8831
 20
329.492500000000010
 11
234.5001
 21
328.034100000000020
  0
POLYLINE
  8
PT4-Kreskowanie18
  6
CONTINUOUS
 62
     7
 66
     1
 70
     1
  0
VERTEX
  8
PT4-Kreskowanie18
 10
123.8193
 20
378.456500000000010
  0
VERTEX
  8
PT4-Kreskowanie18
 10
128.0893
 20
378.456500000000010
  0
VERTEX
  8
PT4-Kreskowanie18
 10
126.5148
 20
374.241600000000010
  0
VERTEX
  8
PT4-Kreskowanie18
 10
232.6764
 20
335.014200000000020
  0
VERTEX
  8
PT4-Kreskowanie18
 10
248.9107
 20
378.456500000000010
  0
VERTEX
  8
PT4-Kreskowanie18
 10
253.1809
 20
378.456500000000010
  0
VERTEX
  8
PT4-Kreskowanie18
 10
236.8084
 20
334.644999999999980
  0
VERTEX
  8
PT4-Kreskowanie18
 10
264.738
 20
324.211799999999980
  0
VERTEX
  8
PT4-Kreskowanie18
 10
285.0033
 20
378.456500000000010
  0
VERTEX
  8
PT4-Kreskowanie18
 10
292.476
 20
378.456500000000010
  0
VERTEX
  8
PT4-Kreskowanie18
 10
268.8422
 20
315.203599999999990
  0
VERTEX
  8
PT4-Kreskowanie18
 10
234.5003
 20
328.034800000000020
  0
VERTEX
  8
PT4-Kreskowanie18
 10
234.8831
 20
329.492500000000010
  0
VERTEX
  8
PT4-Kreskowanie18
 10
121.3689
 20
371.896599999999980
  0
SEQEND
  8
PT4-Kreskowanie18
  0
LINE
  8
PT2-Wymiarowanie5
  6
CONTINUOUS
 62
     7
 10
292.9683
 20
228.813999999999990
 11
294.4683
 21
228.813999999999990
  0
LINE
  8
PT2-Wymiarowanie5
  6
CONTINUOUS
 62
     7
 10
291.9683
 20
228.813999999999990
 11
292.9683
 21
228.813999999999990
  0
LINE
  8
PT2-Wymiarowanie5
  6
CONTINUOUS
 62
     7
 10
295.4683
 20
228.813999999999990
 11
294.4683
 21
228.813999999999990
  0
LINE
  8
PT2-Wymiarowanie5
  6
CONTINUOUS
 62
     7
 10
293.4683
 20
229.313899999999990
 11
292.4684
 21
228.313999999999990
  0
LINE
  8
PT2-Wymiarowanie5
  6
CONTINUOUS
 62
     7
 10
294.9683
 20
229.313899999999990
 11
293.9684
 21
228.313999999999990
  0
LINE
  8
PT2-Wymiarowanie5
  6
CONTINUOUS
 62
     7
 10
292.9683
 20
229.813999999999990
 11
292.9683
 21
227.813999999999990
  0
LINE
  8
PT2-Wymiarowanie5
  6
CONTINUOUS
 62
     7
 10
294.4683
 20
229.813999999999990
 11
294.4683
 21
227.813999999999990
  0
TEXT
  8
PT2-Wymiarowanie5
  6
CONTINUOUS
 62
     7
 10
289.704200000000010
 20
229.774100000000000
 40
2.000000000000000
  1
15
  0
LINE
  8
PT2-Wymiarowanie5
  6
CONTINUOUS
 62
     7
 10
294.4683
 20
228.813999999999990
 11
298.4683
 21
228.813999999999990
  0
LINE
  8
PT2-Wymiarowanie5
  6
CONTINUOUS
 62
     7
 10
293.4683
 20
228.813999999999990
 11
294.4683
 21
228.813999999999990
  0
LINE
  8
PT2-Wymiarowanie5
  6
CONTINUOUS
 62
     7
 10
299.4683
 20
228.813999999999990
 11
298.4683
 21
228.813999999999990
  0
LINE
  8
PT2-Wymiarowanie5
  6
CONTINUOUS
 62
     7
 10
294.9683
 20
229.313899999999990
 11
293.9684
 21
228.313999999999990
  0
LINE
  8
PT2-Wymiarowanie5
  6
CONTINUOUS
 62
     7
 10
298.9683
 20
229.313899999999990
 11
297.9684
 21
228.313999999999990
  0
LINE
  8
PT2-Wymiarowanie5
  6
CONTINUOUS
 62
     7
 10
294.4683
 20
229.813999999999990
 11
294.4683
 21
227.813999999999990
  0
LINE
  8
PT2-Wymiarowanie5
  6
CONTINUOUS
 62
     7
 10
298.4683
 20
229.813999999999990
 11
298.4683
 21
227.813999999999990
  0
TEXT
  8
PT2-Wymiarowanie5
  6
CONTINUOUS
 62
     7
 10
294.828899999999980
 20
229.694099999999990
 40
2.000000000000000
  1
40
  0
LINE
  8
PT2-Wymiarowanie5
  6
CONTINUOUS
 62
     7
 10
298.4683
 20
228.813999999999990
 11
299.9683
 21
228.813999999999990
  0
LINE
  8
PT2-Wymiarowanie5
  6
CONTINUOUS
 62
     7
 10
297.4683
 20
228.813999999999990
 11
298.4683
 21
228.813999999999990
  0
LINE
  8
PT2-Wymiarowanie5
  6
CONTINUOUS
 62
     7
 10
300.9683
 20
228.813999999999990
 11
299.9683
 21
228.813999999999990
  0
LINE
  8
PT2-Wymiarowanie5
  6
CONTINUOUS
 62
     7
 10
298.9683
 20
229.313899999999990
 11
297.9684
 21
228.313999999999990
  0
LINE
  8
PT2-Wymiarowanie5
  6
CONTINUOUS
 62
     7
 10
300.4683
 20
229.313899999999990
 11
299.4684
 21
228.313999999999990
  0
LINE
  8
PT2-Wymiarowanie5
  6
CONTINUOUS
 62
     7
 10
298.4683
 20
229.813999999999990
 11
298.4683
 21
227.813999999999990
  0
LINE
  8
PT2-Wymiarowanie5
  6
CONTINUOUS
 62
     7
 10
299.9683
 20
229.813999999999990
 11
299.9683
 21
227.813999999999990
  0
TEXT
  8
PT2-Wymiarowanie5
  6
CONTINUOUS
 62
     7
 10
300.193899999999990
 20
229.694099999999990
 40
2.000000000000000
  1
15
  0
LINE
  8
PT2-Wymiarowanie5
  6
CONTINUOUS
 62
     7
 10
325.2183
 20
228.933100000000000
 11
326.7183
 21
228.933100000000000
  0
LINE
  8
PT2-Wymiarowanie5
  6
CONTINUOUS
 62
     7
 10
324.2183
 20
228.933100000000000
 11
325.2183
 21
228.933100000000000
  0
LINE
  8
PT2-Wymiarowanie5
  6
CONTINUOUS
 62
     7
 10
327.7183
 20
228.933100000000000
 11
326.7183
 21
228.933100000000000
  0
LINE
  8
PT2-Wymiarowanie5
  6
CONTINUOUS
 62
     7
 10
325.7183
 20
229.433100000000000
 11
324.7184
 21
228.433200000000000
  0
LINE
  8
PT2-Wymiarowanie5
  6
CONTINUOUS
 62
     7
 10
327.2183
 20
229.433100000000000
 11
326.2184
 21
228.433200000000000
  0
LINE
  8
PT2-Wymiarowanie5
  6
CONTINUOUS
 62
     7
 10
325.2183
 20
229.933100000000000
 11
325.2183
 21
227.933100000000000
  0
LINE
  8
PT2-Wymiarowanie5
  6
CONTINUOUS
 62
     7
 10
326.7183
 20
229.933100000000000
 11
326.7183
 21
227.933100000000000
  0
TEXT
  8
PT2-Wymiarowanie5
  6
CONTINUOUS
 62
     7
 10
321.843900000000020
 20
229.934300000000010
 40
2.000000000000000
  1
15
  0
LINE
  8
PT2-Wymiarowanie5
  6
CONTINUOUS
 62
     7
 10
326.7183
 20
228.933100000000000
 11
330.7183
 21
228.933100000000000
  0
LINE
  8
PT2-Wymiarowanie5
  6
CONTINUOUS
 62
     7
 10
325.7183
 20
228.933100000000000
 11
326.7183
 21
228.933100000000000
  0
LINE
  8
PT2-Wymiarowanie5
  6
CONTINUOUS
 62
     7
 10
331.7183
 20
228.933100000000000
 11
330.7183
 21
228.933100000000000
  0
LINE
  8
PT2-Wymiarowanie5
  6
CONTINUOUS
 62
     7
 10
327.2183
 20
229.433100000000000
 11
326.2184
 21
228.433200000000000
  0
LINE
  8
PT2-Wymiarowanie5
  6
CONTINUOUS
 62
     7
 10
331.2183
 20
229.433100000000000
 11
330.2184
 21
228.433200000000000
  0
LINE
  8
PT2-Wymiarowanie5
  6
CONTINUOUS
 62
     7
 10
326.7183
 20
229.933100000000000
 11
326.7183
 21
227.933100000000000
  0
LINE
  8
PT2-Wymiarowanie5
  6
CONTINUOUS
 62
     7
 10
330.7183
 20
229.933100000000000
 11
330.7183
 21
227.933100000000000
  0
TEXT
  8
PT2-Wymiarowanie5
  6
CONTINUOUS
 62
     7
 10
327.178800000000020
 20
229.934300000000010
 40
2.000000000000000
  1
40
  0
LINE
  8
PT2-Wymiarowanie5
  6
CONTINUOUS
 62
     7
 10
330.7183
 20
228.933100000000000
 11
332.2183
 21
228.933100000000000
  0
LINE
  8
PT2-Wymiarowanie5
  6
CONTINUOUS
 62
     7
 10
329.7183
 20
228.933100000000000
 11
330.7183
 21
228.933100000000000
  0
LINE
  8
PT2-Wymiarowanie5
  6
CONTINUOUS
 62
     7
 10
333.2183
 20
228.933100000000000
 11
332.2183
 21
228.933100000000000
  0
LINE
  8
PT2-Wymiarowanie5
  6
CONTINUOUS
 62
     7
 10
331.2183
 20
229.433100000000000
 11
330.2184
 21
228.433200000000000
  0
LINE
  8
PT2-Wymiarowanie5
  6
CONTINUOUS
 62
     7
 10
332.7183
 20
229.433100000000000
 11
331.7184
 21
228.433200000000000
  0
LINE
  8
PT2-Wymiarowanie5
  6
CONTINUOUS
 62
     7
 10
330.7183
 20
229.933100000000000
 11
330.7183
 21
227.933100000000000
  0
LINE
  8
PT2-Wymiarowanie5
  6
CONTINUOUS
 62
     7
 10
332.2183
 20
229.933100000000000
 11
332.2183
 21
227.933100000000000
  0
TEXT
  8
PT2-Wymiarowanie5
  6
CONTINUOUS
 62
     7
 10
332.463700000000020
 20
229.854199999999990
 40
2.000000000000000
  1
15
  0
LINE
  8
PT2-Wymiarowanie5
  6
CONTINUOUS
 62
     7
 10
462.4683
 20
228.853100000000010
 11
463.9683
 21
228.853100000000010
  0
LINE
  8
PT2-Wymiarowanie5
  6
CONTINUOUS
 62
     7
 10
461.4683
 20
228.853100000000010
 11
462.4683
 21
228.853100000000010
  0
LINE
  8
PT2-Wymiarowanie5
  6
CONTINUOUS
 62
     7
 10
464.9683
 20
228.853100000000010
 11
463.9683
 21
228.853100000000010
  0
LINE
  8
PT2-Wymiarowanie5
  6
CONTINUOUS
 62
     7
 10
462.9683
 20
229.353000000000010
 11
461.9684
 21
228.353100000000010
  0
LINE
  8
PT2-Wymiarowanie5
  6
CONTINUOUS
 62
     7
 10
464.4683
 20
229.353000000000010
 11
463.4684
 21
228.353100000000010
  0
LINE
  8
PT2-Wymiarowanie5
  6
CONTINUOUS
 62
     7
 10
462.4683
 20
229.853100000000010
 11
462.4683
 21
227.853100000000010
  0
LINE
  8
PT2-Wymiarowanie5
  6
CONTINUOUS
 62
     7
 10
463.9683
 20
229.853100000000010
 11
463.9683
 21
227.853100000000010
  0
TEXT
  8
PT2-Wymiarowanie5
  6
CONTINUOUS
 62
     7
 10
459.300900000000010
 20
229.934300000000010
 40
2.000000000000000
  1
15
  0
LINE
  8
PT2-Wymiarowanie5
  6
CONTINUOUS
 62
     7
 10
463.9683
 20
228.853100000000010
 11
467.9683
 21
228.853100000000010
  0
LINE
  8
PT2-Wymiarowanie5
  6
CONTINUOUS
 62
     7
 10
462.9683
 20
228.853100000000010
 11
463.9683
 21
228.853100000000010
  0
LINE
  8
PT2-Wymiarowanie5
  6
CONTINUOUS
 62
     7
 10
468.9683
 20
228.853100000000010
 11
467.9683
 21
228.853100000000010
  0
LINE
  8
PT2-Wymiarowanie5
  6
CONTINUOUS
 62
     7
 10
464.4683
 20
229.353000000000010
 11
463.4684
 21
228.353100000000010
  0
LINE
  8
PT2-Wymiarowanie5
  6
CONTINUOUS
 62
     7
 10
468.4683
 20
229.353000000000010
 11
467.4684
 21
228.353100000000010
  0
LINE
  8
PT2-Wymiarowanie5
  6
CONTINUOUS
 62
     7
 10
463.9683
 20
229.853100000000010
 11
463.9683
 21
227.853100000000010
  0
LINE
  8
PT2-Wymiarowanie5
  6
CONTINUOUS
 62
     7
 10
467.9683
 20
229.853100000000010
 11
467.9683
 21
227.853100000000010
  0
TEXT
  8
PT2-Wymiarowanie5
  6
CONTINUOUS
 62
     7
 10
464.505699999999990
 20
230.094400000000010
 40
2.000000000000000
  1
40
  0
LINE
  8
PT2-Wymiarowanie5
  6
CONTINUOUS
 62
     7
 10
467.9683
 20
228.853100000000010
 11
469.4683
 21
228.853100000000010
  0
LINE
  8
PT2-Wymiarowanie5
  6
CONTINUOUS
 62
     7
 10
466.9683
 20
228.853100000000010
 11
467.9683
 21
228.853100000000010
  0
LINE
  8
PT2-Wymiarowanie5
  6
CONTINUOUS
 62
     7
 10
470.4683
 20
228.853100000000010
 11
469.4683
 21
228.853100000000010
  0
LINE
  8
PT2-Wymiarowanie5
  6
CONTINUOUS
 62
     7
 10
468.4683
 20
229.353000000000010
 11
467.4684
 21
228.353100000000010
  0
LINE
  8
PT2-Wymiarowanie5
  6
CONTINUOUS
 62
     7
 10
469.9683
 20
229.353000000000010
 11
468.9684
 21
228.353100000000010
  0
LINE
  8
PT2-Wymiarowanie5
  6
CONTINUOUS
 62
     7
 10
467.9683
 20
229.853100000000010
 11
467.9683
 21
227.853100000000010
  0
LINE
  8
PT2-Wymiarowanie5
  6
CONTINUOUS
 62
     7
 10
469.4683
 20
229.853100000000010
 11
469.4683
 21
227.853100000000010
  0
TEXT
  8
PT2-Wymiarowanie5
  6
CONTINUOUS
 62
     7
 10
469.550400000000020
 20
230.014399999999990
 40
2.000000000000000
  1
15
  0
LINE
  8
PT2-Wymiarowanie5
  6
CONTINUOUS
 62
     7
 10
264.9683
 20
98.463300000000004
 11
265.1766
 21
98.463300000000004
  0
LINE
  8
PT2-Wymiarowanie5
  6
CONTINUOUS
 62
     7
 10
263.9683
 20
98.463300000000004
 11
264.9683
 21
98.463300000000004
  0
LINE
  8
PT2-Wymiarowanie5
  6
CONTINUOUS
 62
     7
 10
266.1766
 20
98.463300000000004
 11
265.1766
 21
98.463300000000004
  0
LINE
  8
PT2-Wymiarowanie5
  6
CONTINUOUS
 62
     7
 10
265.4683
 20
98.963300000000004
 11
264.4684
 21
97.963399999999979
  0
LINE
  8
PT2-Wymiarowanie5
  6
CONTINUOUS
 62
     7
 10
265.6765
 20
98.963300000000004
 11
264.6766
 21
97.963399999999979
  0
LINE
  8
PT2-Wymiarowanie5
  6
CONTINUOUS
 62
     7
 10
264.9683
 20
99.463300000000004
 11
264.9683
 21
97.463300000000004
  0
LINE
  8
PT2-Wymiarowanie5
  6
CONTINUOUS
 62
     7
 10
265.1766
 20
99.463300000000004
 11
265.1766
 21
97.463300000000004
  0
TEXT
  8
PT2-Wymiarowanie5
  6
CONTINUOUS
 62
     7
 10
262.955300000000020
 20
99.686599999999999
 40
2.000000000000000
  1
2
  0
LINE
  8
PT2-Wymiarowanie5
  6
CONTINUOUS
 62
     7
 10
265.1703
 20
98.463300000000004
 11
268.1728
 21
98.469600000000014
  0
LINE
  8
PT2-Wymiarowanie5
  6
CONTINUOUS
 62
     7
 10
264.1703
 20
98.461200000000019
 11
265.1703
 21
98.463300000000004
  0
LINE
  8
PT2-Wymiarowanie5
  6
CONTINUOUS
 62
     7
 10
269.1728
 20
98.471699999999998
 11
268.1728
 21
98.469600000000014
  0
LINE
  8
PT2-Wymiarowanie5
  6
CONTINUOUS
 62
     7
 10
265.6692
 20
98.964299999999980
 11
264.6714
 21
97.962400000000002
  0
LINE
  8
PT2-Wymiarowanie5
  6
CONTINUOUS
 62
     7
 10
268.6717
 20
98.970599999999990
 11
267.674
 21
97.968599999999981
  0
LINE
  8
PT2-Wymiarowanie5
  6
CONTINUOUS
 62
     7
 10
265.1682
 20
99.463300000000004
 11
265.1724
 21
97.463300000000004
  0
LINE
  8
PT2-Wymiarowanie5
  6
CONTINUOUS
 62
     7
 10
268.1708
 20
99.469600000000014
 11
268.1749
 21
97.469600000000014
  0
TEXT
  8
PT2-Wymiarowanie5
  6
CONTINUOUS
 62
     7
 10
265.788299999999990
 20
99.602599999999995
 40
2.000000000000000
 50
0.100000000000000
  1
30
  0
LINE
  8
PT2-Wymiarowanie5
  6
CONTINUOUS
 62
     7
 10
268.1838
 20
98.469600000000014
 11
272.1809
 21
98.463300000000004
  0
LINE
  8
PT2-Wymiarowanie5
  6
CONTINUOUS
 62
     7
 10
267.1838
 20
98.471200000000010
 11
268.1838
 21
98.469600000000014
  0
LINE
  8
PT2-Wymiarowanie5
  6
CONTINUOUS
 62
     7
 10
273.1809
 20
98.461799999999982
 11
272.1809
 21
98.463300000000004
  0
LINE
  8
PT2-Wymiarowanie5
  6
CONTINUOUS
 62
     7
 10
268.6846
 20
98.968799999999987
 11
267.6831
 21
97.970500000000015
  0
LINE
  8
PT2-Wymiarowanie5
  6
CONTINUOUS
 62
     7
 10
272.6816
 20
98.962499999999977
 11
271.6802
 21
97.964200000000005
  0
LINE
  8
PT2-Wymiarowanie5
  6
CONTINUOUS
 62
     7
 10
268.1854
 20
99.469600000000014
 11
268.1823
 21
97.469600000000014
  0
LINE
  8
PT2-Wymiarowanie5
  6
CONTINUOUS
 62
     7
 10
272.1825
 20
99.463300000000004
 11
272.1793
 21
97.463300000000004
  0
TEXT
  8
PT2-Wymiarowanie5
  6
CONTINUOUS
 62
     7
 10
269.466799999999980
 20
99.634900000000016
 40
2.000000000000000
 50
359.899999999999980
  1
40
  0
LINE
  8
PT2-Wymiarowanie5
  6
CONTINUOUS
 62
     7
 10
399.1447
 20
87.958300000000008
 11
399.1447
 21
89.458300000000008
  0
LINE
  8
PT2-Wymiarowanie5
  6
CONTINUOUS
 62
     7
 10
399.1447
 20
86.958300000000008
 11
399.1447
 21
87.958300000000008
  0
LINE
  8
PT2-Wymiarowanie5
  6
CONTINUOUS
 62
     7
 10
399.1447
 20
90.458300000000008
 11
399.1447
 21
89.458300000000008
  0
LINE
  8
PT2-Wymiarowanie5
  6
CONTINUOUS
 62
     7
 10
398.6448
 20
88.458199999999977
 11
399.6446
 21
87.458300000000008
  0
LINE
  8
PT2-Wymiarowanie5
  6
CONTINUOUS
 62
     7
 10
398.6448
 20
89.958199999999977
 11
399.6446
 21
88.958399999999983
  0
LINE
  8
PT2-Wymiarowanie5
  6
CONTINUOUS
 62
     7
 10
400.1447
 20
87.958300000000008
 11
398.1447
 21
87.958300000000008
  0
LINE
  8
PT2-Wymiarowanie5
  6
CONTINUOUS
 62
     7
 10
400.1447
 20
89.458300000000008
 11
398.1447
 21
89.458300000000008
  0
TEXT
  8
PT2-Wymiarowanie5
  6
CONTINUOUS
 62
     7
 10
397.618400000000010
 20
84.875200000000007
 40
2.000000000000000
 50
90.000000000000000
  1
15
  0
LINE
  8
PT2-Wymiarowanie5
  6
CONTINUOUS
 62
     7
 10
399.1447
 20
89.458300000000008
 11
399.1447
 21
93.458799999999997
  0
LINE
  8
PT2-Wymiarowanie5
  6
CONTINUOUS
 62
     7
 10
399.1447
 20
88.458300000000008
 11
399.1447
 21
89.458300000000008
  0
LINE
  8
PT2-Wymiarowanie5
  6
CONTINUOUS
 62
     7
 10
399.1447
 20
94.458799999999997
 11
399.1447
 21
93.458799999999997
  0
LINE
  8
PT2-Wymiarowanie5
  6
CONTINUOUS
 62
     7
 10
398.6448
 20
89.958199999999977
 11
399.6446
 21
88.958399999999983
  0
LINE
  8
PT2-Wymiarowanie5
  6
CONTINUOUS
 62
     7
 10
398.6448
 20
93.958799999999997
 11
399.6446
 21
92.958900000000028
  0
LINE
  8
PT2-Wymiarowanie5
  6
CONTINUOUS
 62
     7
 10
400.1447
 20
89.458300000000008
 11
398.1447
 21
89.458300000000008
  0
LINE
  8
PT2-Wymiarowanie5
  6
CONTINUOUS
 62
     7
 10
400.1447
 20
93.458799999999997
 11
398.1447
 21
93.458799999999997
  0
TEXT
  8
PT2-Wymiarowanie5
  6
CONTINUOUS
 62
     7
 10
397.697700000000000
 20
90.030399999999986
 40
2.000000000000000
 50
90.000000000000000
  1
40
  0
LINE
  8
PT2-Wymiarowanie5
  6
CONTINUOUS
 62
     7
 10
399.1447
 20
93.458799999999997
 11
399.1447
 21
94.958900000000028
  0
LINE
  8
PT2-Wymiarowanie5
  6
CONTINUOUS
 62
     7
 10
399.1447
 20
92.458799999999997
 11
399.1447
 21
93.458799999999997
  0
LINE
  8
PT2-Wymiarowanie5
  6
CONTINUOUS
 62
     7
 10
399.1447
 20
95.958900000000028
 11
399.1447
 21
94.958900000000028
  0
LINE
  8
PT2-Wymiarowanie5
  6
CONTINUOUS
 62
     7
 10
398.6448
 20
93.958799999999997
 11
399.6446
 21
92.958900000000028
  0
LINE
  8
PT2-Wymiarowanie5
  6
CONTINUOUS
 62
     7
 10
398.6448
 20
95.458799999999997
 11
399.6446
 21
94.459000000000003
  0
LINE
  8
PT2-Wymiarowanie5
  6
CONTINUOUS
 62
     7
 10
400.1447
 20
93.458799999999997
 11
398.1447
 21
93.458799999999997
  0
LINE
  8
PT2-Wymiarowanie5
  6
CONTINUOUS
 62
     7
 10
400.1447
 20
94.958900000000028
 11
398.1447
 21
94.958900000000028
  0
TEXT
  8
PT2-Wymiarowanie5
  6
CONTINUOUS
 62
     7
 10
397.776999999999990
 20
95.264999999999986
 40
2.000000000000000
 50
90.000000000000000
  1
15
  0
LINE
  8
PT2-Wymiarowanie5
  6
CONTINUOUS
 62
     7
 10
400.839
 20
152.887700000000000
 11
400.839
 21
154.387700000000000
  0
LINE
  8
PT2-Wymiarowanie5
  6
CONTINUOUS
 62
     7
 10
400.839
 20
151.887700000000000
 11
400.839
 21
152.887700000000000
  0
LINE
  8
PT2-Wymiarowanie5
  6
CONTINUOUS
 62
     7
 10
400.839
 20
155.387700000000000
 11
400.839
 21
154.387700000000000
  0
LINE
  8
PT2-Wymiarowanie5
  6
CONTINUOUS
 62
     7
 10
400.3391
 20
153.387599999999990
 11
401.339
 21
152.387700000000000
  0
LINE
  8
PT2-Wymiarowanie5
  6
CONTINUOUS
 62
     7
 10
400.3391
 20
154.887700000000000
 11
401.339
 21
153.887800000000000
  0
LINE
  8
PT2-Wymiarowanie5
  6
CONTINUOUS
 62
     7
 10
399.839
 20
152.887700000000000
 11
401.839
 21
152.887700000000000
  0
LINE
  8
PT2-Wymiarowanie5
  6
CONTINUOUS
 62
     7
 10
399.839
 20
154.387700000000000
 11
401.839
 21
154.387700000000000
  0
TEXT
  8
PT2-Wymiarowanie5
  6
CONTINUOUS
 62
     7
 10
399.204600000000030
 20
150.069500000000010
 40
2.000000000000000
 50
90.000000000000000
  1
15
  0
LINE
  8
PT2-Wymiarowanie5
  6
CONTINUOUS
 62
     7
 10
400.839
 20
154.387700000000000
 11
400.839
 21
158.387700000000000
  0
LINE
  8
PT2-Wymiarowanie5
  6
CONTINUOUS
 62
     7
 10
400.839
 20
153.387700000000000
 11
400.839
 21
154.387700000000000
  0
LINE
  8
PT2-Wymiarowanie5
  6
CONTINUOUS
 62
     7
 10
400.839
 20
159.387700000000000
 11
400.839
 21
158.387700000000000
  0
LINE
  8
PT2-Wymiarowanie5
  6
CONTINUOUS
 62
     7
 10
400.3391
 20
154.887700000000000
 11
401.339
 21
153.887800000000000
  0
LINE
  8
PT2-Wymiarowanie5
  6
CONTINUOUS
 62
     7
 10
400.3391
 20
158.887599999999990
 11
401.339
 21
157.887800000000000
  0
LINE
  8
PT2-Wymiarowanie5
  6
CONTINUOUS
 62
     7
 10
399.839
 20
154.387700000000000
 11
401.839
 21
154.387700000000000
  0
LINE
  8
PT2-Wymiarowanie5
  6
CONTINUOUS
 62
     7
 10
399.839
 20
158.387700000000000
 11
401.839
 21
158.387700000000000
  0
TEXT
  8
PT2-Wymiarowanie5
  6
CONTINUOUS
 62
     7
 10
399.204600000000030
 20
155.145500000000000
 40
2.000000000000000
 50
90.000000000000000
  1
40
  0
LINE
  8
PT2-Wymiarowanie5
  6
CONTINUOUS
 62
     7
 10
400.839
 20
158.387700000000000
 11
400.839
 21
159.887800000000000
  0
LINE
  8
PT2-Wymiarowanie5
  6
CONTINUOUS
 62
     7
 10
400.839
 20
157.387700000000000
 11
400.839
 21
158.387700000000000
  0
LINE
  8
PT2-Wymiarowanie5
  6
CONTINUOUS
 62
     7
 10
400.839
 20
160.887800000000000
 11
400.839
 21
159.887800000000000
  0
LINE
  8
PT2-Wymiarowanie5
  6
CONTINUOUS
 62
     7
 10
400.3391
 20
158.887599999999990
 11
401.339
 21
157.887800000000000
  0
LINE
  8
PT2-Wymiarowanie5
  6
CONTINUOUS
 62
     7
 10
400.3391
 20
160.387700000000000
 11
401.339
 21
159.387800000000000
  0
LINE
  8
PT2-Wymiarowanie5
  6
CONTINUOUS
 62
     7
 10
399.839
 20
158.387700000000000
 11
401.839
 21
158.387700000000000
  0
LINE
  8
PT2-Wymiarowanie5
  6
CONTINUOUS
 62
     7
 10
399.839
 20
159.887800000000000
 11
401.839
 21
159.887800000000000
  0
TEXT
  8
PT2-Wymiarowanie5
  6
CONTINUOUS
 62
     7
 10
399.442500000000000
 20
160.221399999999990
 40
2.000000000000000
 50
90.000000000000000
  1
15
  0
LINE
  8
PT2-Wymiarowanie5
  6
CONTINUOUS
 62
     7
 10
401.0298
 20
178.195500000000010
 11
401.0298
 21
179.695500000000010
  0
LINE
  8
PT2-Wymiarowanie5
  6
CONTINUOUS
 62
     7
 10
401.0298
 20
177.195500000000010
 11
401.0298
 21
178.195500000000010
  0
LINE
  8
PT2-Wymiarowanie5
  6
CONTINUOUS
 62
     7
 10
401.0298
 20
180.695500000000010
 11
401.0298
 21
179.695500000000010
  0
LINE
  8
PT2-Wymiarowanie5
  6
CONTINUOUS
 62
     7
 10
400.5299
 20
178.695400000000010
 11
401.5298
 21
177.695500000000010
  0
LINE
  8
PT2-Wymiarowanie5
  6
CONTINUOUS
 62
     7
 10
400.5299
 20
180.195400000000010
 11
401.5298
 21
179.195500000000010
  0
LINE
  8
PT2-Wymiarowanie5
  6
CONTINUOUS
 62
     7
 10
400.0298
 20
178.195500000000010
 11
402.0298
 21
178.195500000000010
  0
LINE
  8
PT2-Wymiarowanie5
  6
CONTINUOUS
 62
     7
 10
400.0298
 20
179.695500000000010
 11
402.0298
 21
179.695500000000010
  0
TEXT
  8
PT2-Wymiarowanie5
  6
CONTINUOUS
 62
     7
 10
399.521900000000020
 20
175.290699999999990
 40
2.000000000000000
 50
90.000000000000000
  1
15
  0
LINE
  8
PT2-Wymiarowanie5
  6
CONTINUOUS
 62
     7
 10
401.0298
 20
179.695500000000010
 11
401.0298
 21
183.695500000000010
  0
LINE
  8
PT2-Wymiarowanie5
  6
CONTINUOUS
 62
     7
 10
401.0298
 20
178.695500000000010
 11
401.0298
 21
179.695500000000010
  0
LINE
  8
PT2-Wymiarowanie5
  6
CONTINUOUS
 62
     7
 10
401.0298
 20
184.695500000000010
 11
401.0298
 21
183.695500000000010
  0
LINE
  8
PT2-Wymiarowanie5
  6
CONTINUOUS
 62
     7
 10
400.5299
 20
180.195400000000010
 11
401.5298
 21
179.195500000000010
  0
LINE
  8
PT2-Wymiarowanie5
  6
CONTINUOUS
 62
     7
 10
400.5299
 20
184.195400000000010
 11
401.5298
 21
183.195500000000010
  0
LINE
  8
PT2-Wymiarowanie5
  6
CONTINUOUS
 62
     7
 10
400.0298
 20
179.695500000000010
 11
402.0298
 21
179.695500000000010
  0
LINE
  8
PT2-Wymiarowanie5
  6
CONTINUOUS
 62
     7
 10
400.0298
 20
183.695500000000010
 11
402.0298
 21
183.695500000000010
  0
TEXT
  8
PT2-Wymiarowanie5
  6
CONTINUOUS
 62
     7
 10
399.442500000000000
 20
180.366600000000010
 40
2.000000000000000
 50
90.000000000000000
  1
40
  0
LINE
  8
PT2-Wymiarowanie5
  6
CONTINUOUS
 62
     7
 10
401.0298
 20
183.695500000000010
 11
401.0298
 21
185.195500000000010
  0
LINE
  8
PT2-Wymiarowanie5
  6
CONTINUOUS
 62
     7
 10
401.0298
 20
182.695500000000010
 11
401.0298
 21
183.695500000000010
  0
LINE
  8
PT2-Wymiarowanie5
  6
CONTINUOUS
 62
     7
 10
401.0298
 20
186.195500000000010
 11
401.0298
 21
185.195500000000010
  0
LINE
  8
PT2-Wymiarowanie5
  6
CONTINUOUS
 62
     7
 10
400.5299
 20
184.195400000000010
 11
401.5298
 21
183.195500000000010
  0
LINE
  8
PT2-Wymiarowanie5
  6
CONTINUOUS
 62
     7
 10
400.5299
 20
185.695400000000010
 11
401.5298
 21
184.695500000000010
  0
LINE
  8
PT2-Wymiarowanie5
  6
CONTINUOUS
 62
     7
 10
400.0298
 20
183.695500000000010
 11
402.0298
 21
183.695500000000010
  0
LINE
  8
PT2-Wymiarowanie5
  6
CONTINUOUS
 62
     7
 10
400.0298
 20
185.195500000000010
 11
402.0298
 21
185.195500000000010
  0
TEXT
  8
PT2-Wymiarowanie5
  6
CONTINUOUS
 62
     7
 10
399.759799999999980
 20
185.601200000000010
 40
2.000000000000000
 50
90.000000000000000
  1
15
  0
LINE
  8
PT2-Wymiarowanie5
  6
CONTINUOUS
 62
     7
 10
400.8734
 20
242.945500000000010
 11
400.8734
 21
244.445500000000010
  0
LINE
  8
PT2-Wymiarowanie5
  6
CONTINUOUS
 62
     7
 10
400.8734
 20
241.945500000000010
 11
400.8734
 21
242.945500000000010
  0
LINE
  8
PT2-Wymiarowanie5
  6
CONTINUOUS
 62
     7
 10
400.8734
 20
245.445500000000010
 11
400.8734
 21
244.445500000000010
  0
LINE
  8
PT2-Wymiarowanie5
  6
CONTINUOUS
 62
     7
 10
400.3734
 20
243.445400000000010
 11
401.3733
 21
242.445500000000010
  0
LINE
  8
PT2-Wymiarowanie5
  6
CONTINUOUS
 62
     7
 10
400.3734
 20
244.945400000000010
 11
401.3733
 21
243.945500000000010
  0
LINE
  8
PT2-Wymiarowanie5
  6
CONTINUOUS
 62
     7
 10
399.8734
 20
242.945500000000010
 11
401.8734
 21
242.945500000000010
  0
LINE
  8
PT2-Wymiarowanie5
  6
CONTINUOUS
 62
     7
 10
399.8734
 20
244.445500000000010
 11
401.8734
 21
244.445500000000010
  0
TEXT
  8
PT2-Wymiarowanie5
  6
CONTINUOUS
 62
     7
 10
399.541299999999980
 20
239.942500000000000
 40
2.000000000000000
 50
90.000000000000000
  1
15
  0
LINE
  8
PT2-Wymiarowanie5
  6
CONTINUOUS
 62
     7
 10
400.8734
 20
244.445500000000010
 11
400.8734
 21
248.445500000000010
  0
LINE
  8
PT2-Wymiarowanie5
  6
CONTINUOUS
 62
     7
 10
400.8734
 20
243.445500000000010
 11
400.8734
 21
244.445500000000010
  0
LINE
  8
PT2-Wymiarowanie5
  6
CONTINUOUS
 62
     7
 10
400.8734
 20
249.445500000000010
 11
400.8734
 21
248.445500000000010
  0
LINE
  8
PT2-Wymiarowanie5
  6
CONTINUOUS
 62
     7
 10
400.3734
 20
244.945400000000010
 11
401.3733
 21
243.945500000000010
  0
LINE
  8
PT2-Wymiarowanie5
  6
CONTINUOUS
 62
     7
 10
400.3734
 20
248.945400000000010
 11
401.3733
 21
247.945500000000010
  0
LINE
  8
PT2-Wymiarowanie5
  6
CONTINUOUS
 62
     7
 10
399.8734
 20
244.445500000000010
 11
401.8734
 21
244.445500000000010
  0
LINE
  8
PT2-Wymiarowanie5
  6
CONTINUOUS
 62
     7
 10
399.8734
 20
248.445500000000010
 11
401.8734
 21
248.445500000000010
  0
TEXT
  8
PT2-Wymiarowanie5
  6
CONTINUOUS
 62
     7
 10
399.297900000000030
 20
245.342299999999990
 40
2.000000000000000
 50
90.000000000000000
  1
40
  0
LINE
  8
PT2-Wymiarowanie5
  6
CONTINUOUS
 62
     7
 10
400.8734
 20
248.445500000000010
 11
400.8734
 21
249.945500000000010
  0
LINE
  8
PT2-Wymiarowanie5
  6
CONTINUOUS
 62
     7
 10
400.8734
 20
247.445500000000010
 11
400.8734
 21
248.445500000000010
  0
LINE
  8
PT2-Wymiarowanie5
  6
CONTINUOUS
 62
     7
 10
400.8734
 20
250.945500000000010
 11
400.8734
 21
249.945500000000010
  0
LINE
  8
PT2-Wymiarowanie5
  6
CONTINUOUS
 62
     7
 10
400.3734
 20
248.945400000000010
 11
401.3733
 21
247.945500000000010
  0
LINE
  8
PT2-Wymiarowanie5
  6
CONTINUOUS
 62
     7
 10
400.3734
 20
250.445400000000010
 11
401.3733
 21
249.445500000000010
  0
LINE
  8
PT2-Wymiarowanie5
  6
CONTINUOUS
 62
     7
 10
399.8734
 20
248.445500000000010
 11
401.8734
 21
248.445500000000010
  0
LINE
  8
PT2-Wymiarowanie5
  6
CONTINUOUS
 62
     7
 10
399.8734
 20
249.945500000000010
 11
401.8734
 21
249.945500000000010
  0
TEXT
  8
PT2-Wymiarowanie5
  6
CONTINUOUS
 62
     7
 10
399.402899999999990
 20
250.331500000000010
 40
2.000000000000000
 50
90.000000000000000
  1
15
  0
TEXT
  8
PT2-Wymiarowanie5
  6
CONTINUOUS
 62
     7
 10
490.714900000000000
 20
83.797900000000027
 40
2.000000000000000
 50
90.000000000000000
  1
60
  0
LINE
  8
PT2-Wymiarowanie5
  6
CONTINUOUS
 62
     7
 10
492.2679
 20
81.941300000000012
 11
492.2679
 21
87.946100000000001
  0
LINE
  8
PT2-Wymiarowanie5
  6
CONTINUOUS
 62
     7
 10
492.2679
 20
80.941300000000012
 11
492.2679
 21
81.941300000000012
  0
LINE
  8
PT2-Wymiarowanie5
  6
CONTINUOUS
 62
     7
 10
492.2679
 20
88.946100000000001
 11
492.2679
 21
87.946100000000001
  0
LINE
  8
PT2-Wymiarowanie5
  6
CONTINUOUS
 62
     7
 10
491.768
 20
82.441199999999981
 11
492.7679
 21
81.441300000000012
  0
LINE
  8
PT2-Wymiarowanie5
  6
CONTINUOUS
 62
     7
 10
491.768
 20
88.446000000000026
 11
492.7679
 21
87.446100000000001
  0
LINE
  8
PT2-Wymiarowanie5
  6
CONTINUOUS
 62
     7
 10
493.2679
 20
81.941300000000012
 11
491.2679
 21
81.941300000000012
  0
LINE
  8
PT2-Wymiarowanie5
  6
CONTINUOUS
 62
     7
 10
493.2679
 20
87.946100000000001
 11
491.2679
 21
87.946100000000001
  0
TEXT
  8
PT2-Wymiarowanie5
  6
CONTINUOUS
 62
     7
 10
490.714900000000000
 20
90.310200000000009
 40
2.000000000000000
 50
90.000000000000000
  1
70
  0
LINE
  8
PT2-Wymiarowanie5
  6
CONTINUOUS
 62
     7
 10
492.2679
 20
87.946100000000001
 11
492.2679
 21
94.966000000000008
  0
LINE
  8
PT2-Wymiarowanie5
  6
CONTINUOUS
 62
     7
 10
492.2679
 20
86.946100000000001
 11
492.2679
 21
87.946100000000001
  0
LINE
  8
PT2-Wymiarowanie5
  6
CONTINUOUS
 62
     7
 10
492.2679
 20
95.966000000000008
 11
492.2679
 21
94.966000000000008
  0
LINE
  8
PT2-Wymiarowanie5
  6
CONTINUOUS
 62
     7
 10
491.768
 20
88.446000000000026
 11
492.7679
 21
87.446100000000001
  0
LINE
  8
PT2-Wymiarowanie5
  6
CONTINUOUS
 62
     7
 10
491.768
 20
95.465899999999976
 11
492.7679
 21
94.466099999999983
  0
LINE
  8
PT2-Wymiarowanie5
  6
CONTINUOUS
 62
     7
 10
493.2679
 20
87.946100000000001
 11
491.2679
 21
87.946100000000001
  0
LINE
  8
PT2-Wymiarowanie5
  6
CONTINUOUS
 62
     7
 10
493.2679
 20
94.966000000000008
 11
491.2679
 21
94.966000000000008
  0
TEXT
  8
PT2-Wymiarowanie5
  6
CONTINUOUS
 62
     7
 10
490.714900000000000
 20
121.614600000000000
 40
2.000000000000000
 50
90.000000000000000
  1
5,79
  0
TEXT
  8
PT2-Wymiarowanie5
  6
CONTINUOUS
 62
     7
 10
489.961900000000010
 20
127.790000000000020
 40
1.500000000000000
 50
90.000000000000000
  1
5
  0
LINE
  8
PT2-Wymiarowanie5
  6
CONTINUOUS
 62
     7
 10
492.2679
 20
94.966000000000008
 11
492.2679
 21
152.894800000000000
  0
LINE
  8
PT2-Wymiarowanie5
  6
CONTINUOUS
 62
     7
 10
492.2679
 20
93.966000000000008
 11
492.2679
 21
94.966000000000008
  0
LINE
  8
PT2-Wymiarowanie5
  6
CONTINUOUS
 62
     7
 10
492.2679
 20
153.894800000000000
 11
492.2679
 21
152.894800000000000
  0
LINE
  8
PT2-Wymiarowanie5
  6
CONTINUOUS
 62
     7
 10
491.768
 20
95.465899999999976
 11
492.7679
 21
94.466099999999983
  0
LINE
  8
PT2-Wymiarowanie5
  6
CONTINUOUS
 62
     7
 10
491.768
 20
153.394700000000000
 11
492.7679
 21
152.394900000000010
  0
LINE
  8
PT2-Wymiarowanie5
  6
CONTINUOUS
 62
     7
 10
493.2679
 20
94.966000000000008
 11
491.2679
 21
94.966000000000008
  0
LINE
  8
PT2-Wymiarowanie5
  6
CONTINUOUS
 62
     7
 10
493.2679
 20
152.894800000000000
 11
491.2679
 21
152.894800000000000
  0
TEXT
  8
PT2-Wymiarowanie5
  6
CONTINUOUS
 62
     7
 10
490.714900000000000
 20
155.249000000000000
 40
2.000000000000000
 50
90.000000000000000
  1
70
  0
LINE
  8
PT2-Wymiarowanie5
  6
CONTINUOUS
 62
     7
 10
492.2679
 20
152.894800000000000
 11
492.2679
 21
159.894800000000000
  0
LINE
  8
PT2-Wymiarowanie5
  6
CONTINUOUS
 62
     7
 10
492.2679
 20
151.894800000000000
 11
492.2679
 21
152.894800000000000
  0
LINE
  8
PT2-Wymiarowanie5
  6
CONTINUOUS
 62
     7
 10
492.2679
 20
160.894800000000000
 11
492.2679
 21
159.894800000000000
  0
LINE
  8
PT2-Wymiarowanie5
  6
CONTINUOUS
 62
     7
 10
491.768
 20
153.394700000000000
 11
492.7679
 21
152.394900000000010
  0
LINE
  8
PT2-Wymiarowanie5
  6
CONTINUOUS
 62
     7
 10
491.768
 20
160.394800000000000
 11
492.7679
 21
159.394900000000010
  0
LINE
  8
PT2-Wymiarowanie5
  6
CONTINUOUS
 62
     7
 10
493.2679
 20
152.894800000000000
 11
491.2679
 21
152.894800000000000
  0
LINE
  8
PT2-Wymiarowanie5
  6
CONTINUOUS
 62
     7
 10
493.2679
 20
159.894800000000000
 11
491.2679
 21
159.894800000000000
  0
TEXT
  8
PT2-Wymiarowanie5
  6
CONTINUOUS
 62
     7
 10
490.714900000000000
 20
166.729400000000000
 40
2.000000000000000
 50
90.000000000000000
  1
1,83
  0
LINE
  8
PT2-Wymiarowanie5
  6
CONTINUOUS
 62
     7
 10
492.2679
 20
159.894800000000000
 11
492.2679
 21
178.195500000000010
  0
LINE
  8
PT2-Wymiarowanie5
  6
CONTINUOUS
 62
     7
 10
492.2679
 20
158.894800000000000
 11
492.2679
 21
159.894800000000000
  0
LINE
  8
PT2-Wymiarowanie5
  6
CONTINUOUS
 62
     7
 10
492.2679
 20
179.195500000000010
 11
492.2679
 21
178.195500000000010
  0
LINE
  8
PT2-Wymiarowanie5
  6
CONTINUOUS
 62
     7
 10
491.768
 20
160.394800000000000
 11
492.7679
 21
159.394900000000010
  0
LINE
  8
PT2-Wymiarowanie5
  6
CONTINUOUS
 62
     7
 10
491.768
 20
178.695400000000010
 11
492.7679
 21
177.695500000000010
  0
LINE
  8
PT2-Wymiarowanie5
  6
CONTINUOUS
 62
     7
 10
493.2679
 20
159.894800000000000
 11
491.2679
 21
159.894800000000000
  0
LINE
  8
PT2-Wymiarowanie5
  6
CONTINUOUS
 62
     7
 10
493.2679
 20
178.195500000000010
 11
491.2679
 21
178.195500000000010
  0
TEXT
  8
PT2-Wymiarowanie5
  6
CONTINUOUS
 62
     7
 10
490.714900000000000
 20
180.549700000000000
 40
2.000000000000000
 50
90.000000000000000
  1
70
  0
LINE
  8
PT2-Wymiarowanie5
  6
CONTINUOUS
 62
     7
 10
492.2679
 20
178.195500000000010
 11
492.2679
 21
185.195500000000010
  0
LINE
  8
PT2-Wymiarowanie5
  6
CONTINUOUS
 62
     7
 10
492.2679
 20
177.195500000000010
 11
492.2679
 21
178.195500000000010
  0
LINE
  8
PT2-Wymiarowanie5
  6
CONTINUOUS
 62
     7
 10
492.2679
 20
186.195500000000010
 11
492.2679
 21
185.195500000000010
  0
LINE
  8
PT2-Wymiarowanie5
  6
CONTINUOUS
 62
     7
 10
491.768
 20
178.695400000000010
 11
492.7679
 21
177.695500000000010
  0
LINE
  8
PT2-Wymiarowanie5
  6
CONTINUOUS
 62
     7
 10
491.768
 20
185.695400000000010
 11
492.7679
 21
184.695500000000010
  0
LINE
  8
PT2-Wymiarowanie5
  6
CONTINUOUS
 62
     7
 10
493.2679
 20
178.195500000000010
 11
491.2679
 21
178.195500000000010
  0
LINE
  8
PT2-Wymiarowanie5
  6
CONTINUOUS
 62
     7
 10
493.2679
 20
185.195500000000010
 11
491.2679
 21
185.195500000000010
  0
TEXT
  8
PT2-Wymiarowanie5
  6
CONTINUOUS
 62
     7
 10
490.714900000000000
 20
211.754700000000010
 40
2.000000000000000
 50
90.000000000000000
  1
5,77
  0
TEXT
  8
PT2-Wymiarowanie5
  6
CONTINUOUS
 62
     7
 10
489.961900000000010
 20
217.930100000000010
 40
1.500000000000000
 50
90.000000000000000
  1
5
  0
LINE
  8
PT2-Wymiarowanie5
  6
CONTINUOUS
 62
     7
 10
492.2679
 20
185.195500000000010
 11
492.2679
 21
242.945500000000010
  0
LINE
  8
PT2-Wymiarowanie5
  6
CONTINUOUS
 62
     7
 10
492.2679
 20
184.195500000000010
 11
492.2679
 21
185.195500000000010
  0
LINE
  8
PT2-Wymiarowanie5
  6
CONTINUOUS
 62
     7
 10
492.2679
 20
243.945500000000010
 11
492.2679
 21
242.945500000000010
  0
LINE
  8
PT2-Wymiarowanie5
  6
CONTINUOUS
 62
     7
 10
491.768
 20
185.695400000000010
 11
492.7679
 21
184.695500000000010
  0
LINE
  8
PT2-Wymiarowanie5
  6
CONTINUOUS
 62
     7
 10
491.768
 20
243.445400000000010
 11
492.7679
 21
242.445500000000010
  0
LINE
  8
PT2-Wymiarowanie5
  6
CONTINUOUS
 62
     7
 10
493.2679
 20
185.195500000000010
 11
491.2679
 21
185.195500000000010
  0
LINE
  8
PT2-Wymiarowanie5
  6
CONTINUOUS
 62
     7
 10
493.2679
 20
242.945500000000010
 11
491.2679
 21
242.945500000000010
  0
TEXT
  8
PT2-Wymiarowanie5
  6
CONTINUOUS
 62
     7
 10
490.714900000000000
 20
245.299700000000000
 40
2.000000000000000
 50
90.000000000000000
  1
70
  0
LINE
  8
PT2-Wymiarowanie5
  6
CONTINUOUS
 62
     7
 10
492.2679
 20
242.945500000000010
 11
492.2679
 21
249.945500000000010
  0
LINE
  8
PT2-Wymiarowanie5
  6
CONTINUOUS
 62
     7
 10
492.2679
 20
241.945500000000010
 11
492.2679
 21
242.945500000000010
  0
LINE
  8
PT2-Wymiarowanie5
  6
CONTINUOUS
 62
     7
 10
492.2679
 20
250.945500000000010
 11
492.2679
 21
249.945500000000010
  0
LINE
  8
PT2-Wymiarowanie5
  6
CONTINUOUS
 62
     7
 10
491.768
 20
243.445400000000010
 11
492.7679
 21
242.445500000000010
  0
LINE
  8
PT2-Wymiarowanie5
  6
CONTINUOUS
 62
     7
 10
491.768
 20
250.445400000000010
 11
492.7679
 21
249.445500000000010
  0
LINE
  8
PT2-Wymiarowanie5
  6
CONTINUOUS
 62
     7
 10
493.2679
 20
242.945500000000010
 11
491.2679
 21
242.945500000000010
  0
LINE
  8
PT2-Wymiarowanie5
  6
CONTINUOUS
 62
     7
 10
493.2679
 20
249.945500000000010
 11
491.2679
 21
249.945500000000010
  0
TEXT
  8
PT2-Wymiarowanie5
  6
CONTINUOUS
 62
     7
 10
498.023599999999990
 20
162.848299999999990
 40
2.000000000000000
 50
90.000000000000000
  1
16,80
  0
LINE
  8
PT2-Wymiarowanie5
  6
CONTINUOUS
 62
     7
 10
499.5766
 20
81.942600000000027
 11
499.5766
 21
249.945500000000010
  0
LINE
  8
PT2-Wymiarowanie5
  6
CONTINUOUS
 62
     7
 10
499.5766
 20
80.942600000000027
 11
499.5766
 21
81.942600000000027
  0
LINE
  8
PT2-Wymiarowanie5
  6
CONTINUOUS
 62
     7
 10
499.5766
 20
250.945500000000010
 11
499.5766
 21
249.945500000000010
  0
LINE
  8
PT2-Wymiarowanie5
  6
CONTINUOUS
 62
     7
 10
499.0767
 20
82.442499999999995
 11
500.0765
 21
81.442700000000002
  0
LINE
  8
PT2-Wymiarowanie5
  6
CONTINUOUS
 62
     7
 10
499.0767
 20
250.445400000000010
 11
500.0765
 21
249.445500000000010
  0
LINE
  8
PT2-Wymiarowanie5
  6
CONTINUOUS
 62
     7
 10
500.5766
 20
81.942600000000027
 11
498.5766
 21
81.942600000000027
  0
LINE
  8
PT2-Wymiarowanie5
  6
CONTINUOUS
 62
     7
 10
500.5766
 20
249.945500000000010
 11
498.5766
 21
249.945500000000010
  0
TEXT
  8
PT2-Wymiarowanie5
  6
CONTINUOUS
 62
     7
 10
445.809199999999980
 20
111.099200000000000
 40
2.000000000000000
 50
90.000000000000000
  1
3,69
  0
LINE
  8
PT2-Wymiarowanie5
  6
CONTINUOUS
 62
     7
 10
447.3622
 20
94.962899999999991
 11
447.3622
 21
131.867099999999990
  0
LINE
  8
PT2-Wymiarowanie5
  6
CONTINUOUS
 62
     7
 10
447.3622
 20
93.962899999999991
 11
447.3622
 21
94.962899999999991
  0
LINE
  8
PT2-Wymiarowanie5
  6
CONTINUOUS
 62
     7
 10
447.3622
 20
132.867099999999990
 11
447.3622
 21
131.867099999999990
  0
LINE
  8
PT2-Wymiarowanie5
  6
CONTINUOUS
 62
     7
 10
446.8623
 20
95.462800000000016
 11
447.8621
 21
94.463000000000022
  0
LINE
  8
PT2-Wymiarowanie5
  6
CONTINUOUS
 62
     7
 10
446.8623
 20
132.367000000000020
 11
447.8621
 21
131.367200000000030
  0
LINE
  8
PT2-Wymiarowanie5
  6
CONTINUOUS
 62
     7
 10
448.3622
 20
94.962899999999991
 11
446.3622
 21
94.962899999999991
  0
LINE
  8
PT2-Wymiarowanie5
  6
CONTINUOUS
 62
     7
 10
448.3622
 20
131.867099999999990
 11
446.3622
 21
131.867099999999990
  0
TEXT
  8
PT2-Wymiarowanie5
  6
CONTINUOUS
 62
     7
 10
445.809199999999980
 20
134.221399999999990
 40
2.000000000000000
 50
90.000000000000000
  1
70
  0
LINE
  8
PT2-Wymiarowanie5
  6
CONTINUOUS
 62
     7
 10
447.3622
 20
131.867099999999990
 11
447.3622
 21
138.867300000000000
  0
LINE
  8
PT2-Wymiarowanie5
  6
CONTINUOUS
 62
     7
 10
447.3622
 20
130.867099999999990
 11
447.3622
 21
131.867099999999990
  0
LINE
  8
PT2-Wymiarowanie5
  6
CONTINUOUS
 62
     7
 10
447.3622
 20
139.867300000000000
 11
447.3622
 21
138.867300000000000
  0
LINE
  8
PT2-Wymiarowanie5
  6
CONTINUOUS
 62
     7
 10
446.8623
 20
132.367000000000020
 11
447.8621
 21
131.367200000000030
  0
LINE
  8
PT2-Wymiarowanie5
  6
CONTINUOUS
 62
     7
 10
446.8623
 20
139.367200000000000
 11
447.8621
 21
138.367300000000000
  0
LINE
  8
PT2-Wymiarowanie5
  6
CONTINUOUS
 62
     7
 10
448.3622
 20
131.867099999999990
 11
446.3622
 21
131.867099999999990
  0
LINE
  8
PT2-Wymiarowanie5
  6
CONTINUOUS
 62
     7
 10
448.3622
 20
138.867300000000000
 11
446.3622
 21
138.867300000000000
  0
TEXT
  8
PT2-Wymiarowanie5
  6
CONTINUOUS
 62
     7
 10
445.809199999999980
 20
143.563700000000010
 40
2.000000000000000
 50
90.000000000000000
  1
1,40
  0
LINE
  8
PT2-Wymiarowanie5
  6
CONTINUOUS
 62
     7
 10
447.3622
 20
138.867300000000000
 11
447.3622
 21
152.891699999999990
  0
LINE
  8
PT2-Wymiarowanie5
  6
CONTINUOUS
 62
     7
 10
447.3622
 20
137.867300000000000
 11
447.3622
 21
138.867300000000000
  0
LINE
  8
PT2-Wymiarowanie5
  6
CONTINUOUS
 62
     7
 10
447.3622
 20
153.891699999999990
 11
447.3622
 21
152.891699999999990
  0
LINE
  8
PT2-Wymiarowanie5
  6
CONTINUOUS
 62
     7
 10
446.8623
 20
139.367200000000000
 11
447.8621
 21
138.367300000000000
  0
LINE
  8
PT2-Wymiarowanie5
  6
CONTINUOUS
 62
     7
 10
446.8623
 20
153.391600000000010
 11
447.8621
 21
152.391799999999990
  0
LINE
  8
PT2-Wymiarowanie5
  6
CONTINUOUS
 62
     7
 10
448.3622
 20
138.867300000000000
 11
446.3622
 21
138.867300000000000
  0
LINE
  8
PT2-Wymiarowanie5
  6
CONTINUOUS
 62
     7
 10
448.3622
 20
152.891699999999990
 11
446.3622
 21
152.891699999999990
  0
TEXT
  8
PT2-Wymiarowanie5
  6
CONTINUOUS
 62
     7
 10
337.256899999999970
 20
103.431699999999980
 40
2.000000000000000
 50
90.000000000000000
  1
2,16
  0
LINE
  8
PT2-Wymiarowanie5
  6
CONTINUOUS
 62
     7
 10
338.8099
 20
94.949299999999994
 11
338.8099
 21
116.545700000000010
  0
LINE
  8
PT2-Wymiarowanie5
  6
CONTINUOUS
 62
     7
 10
338.8099
 20
93.949299999999994
 11
338.8099
 21
94.949299999999994
  0
LINE
  8
PT2-Wymiarowanie5
  6
CONTINUOUS
 62
     7
 10
338.8099
 20
117.545700000000010
 11
338.8099
 21
116.545700000000010
  0
LINE
  8
PT2-Wymiarowanie5
  6
CONTINUOUS
 62
     7
 10
338.3099
 20
95.449200000000019
 11
339.3098
 21
94.449400000000026
  0
LINE
  8
PT2-Wymiarowanie5
  6
CONTINUOUS
 62
     7
 10
338.3099
 20
117.045599999999980
 11
339.3098
 21
116.045700000000010
  0
LINE
  8
PT2-Wymiarowanie5
  6
CONTINUOUS
 62
     7
 10
339.8099
 20
94.949299999999994
 11
337.8099
 21
94.949299999999994
  0
LINE
  8
PT2-Wymiarowanie5
  6
CONTINUOUS
 62
     7
 10
339.8099
 20
116.545700000000010
 11
337.8099
 21
116.545700000000010
  0
TEXT
  8
PT2-Wymiarowanie5
  6
CONTINUOUS
 62
     7
 10
337.256899999999970
 20
120.330199999999990
 40
2.000000000000000
 50
90.000000000000000
  1
1,22
  0
LINE
  8
PT2-Wymiarowanie5
  6
CONTINUOUS
 62
     7
 10
338.8099
 20
116.545700000000010
 11
338.8099
 21
128.746300000000020
  0
LINE
  8
PT2-Wymiarowanie5
  6
CONTINUOUS
 62
     7
 10
338.8099
 20
115.545700000000010
 11
338.8099
 21
116.545700000000010
  0
LINE
  8
PT2-Wymiarowanie5
  6
CONTINUOUS
 62
     7
 10
338.8099
 20
129.746300000000020
 11
338.8099
 21
128.746300000000020
  0
LINE
  8
PT2-Wymiarowanie5
  6
CONTINUOUS
 62
     7
 10
338.3099
 20
117.045599999999980
 11
339.3098
 21
116.045700000000010
  0
LINE
  8
PT2-Wymiarowanie5
  6
CONTINUOUS
 62
     7
 10
338.3099
 20
129.246199999999990
 11
339.3098
 21
128.246399999999990
  0
LINE
  8
PT2-Wymiarowanie5
  6
CONTINUOUS
 62
     7
 10
339.8099
 20
116.545700000000010
 11
337.8099
 21
116.545700000000010
  0
LINE
  8
PT2-Wymiarowanie5
  6
CONTINUOUS
 62
     7
 10
339.8099
 20
128.746300000000020
 11
337.8099
 21
128.746300000000020
  0
TEXT
  8
PT2-Wymiarowanie5
  6
CONTINUOUS
 62
     7
 10
337.256899999999970
 20
138.496500000000000
 40
2.000000000000000
 50
90.000000000000000
  1
2,41
  0
TEXT
  8
PT2-Wymiarowanie5
  6
CONTINUOUS
 62
     7
 10
336.503899999999990
 20
144.671899999999990
 40
1.500000000000000
 50
90.000000000000000
  1
5
  0
LINE
  8
PT2-Wymiarowanie5
  6
CONTINUOUS
 62
     7
 10
338.8099
 20
128.746300000000020
 11
338.8099
 21
152.878300000000000
  0
LINE
  8
PT2-Wymiarowanie5
  6
CONTINUOUS
 62
     7
 10
338.8099
 20
127.746300000000020
 11
338.8099
 21
128.746300000000020
  0
LINE
  8
PT2-Wymiarowanie5
  6
CONTINUOUS
 62
     7
 10
338.8099
 20
153.878300000000000
 11
338.8099
 21
152.878300000000000
  0
LINE
  8
PT2-Wymiarowanie5
  6
CONTINUOUS
 62
     7
 10
338.3099
 20
129.246199999999990
 11
339.3098
 21
128.246399999999990
  0
LINE
  8
PT2-Wymiarowanie5
  6
CONTINUOUS
 62
     7
 10
338.3099
 20
153.378199999999990
 11
339.3098
 21
152.378300000000000
  0
LINE
  8
PT2-Wymiarowanie5
  6
CONTINUOUS
 62
     7
 10
339.8099
 20
128.746300000000020
 11
337.8099
 21
128.746300000000020
  0
LINE
  8
PT2-Wymiarowanie5
  6
CONTINUOUS
 62
     7
 10
339.8099
 20
152.878300000000000
 11
337.8099
 21
152.878300000000000
  0
TEXT
  8
PT2-Wymiarowanie5
  6
CONTINUOUS
 62
     7
 10
294.991199999999990
 20
110.905800000000000
 40
2.000000000000000
  1
5,11
  0
LINE
  8
PT2-Wymiarowanie5
  6
CONTINUOUS
 62
     7
 10
272.1777
 20
109.451799999999990
 11
323.2648
 21
109.451799999999990
  0
LINE
  8
PT2-Wymiarowanie5
  6
CONTINUOUS
 62
     7
 10
271.1777
 20
109.451799999999990
 11
272.1777
 21
109.451799999999990
  0
LINE
  8
PT2-Wymiarowanie5
  6
CONTINUOUS
 62
     7
 10
324.2648
 20
109.451799999999990
 11
323.2648
 21
109.451799999999990
  0
LINE
  8
PT2-Wymiarowanie5
  6
CONTINUOUS
 62
     7
 10
272.6776
 20
109.951700000000020
 11
271.6778
 21
108.951900000000020
  0
LINE
  8
PT2-Wymiarowanie5
  6
CONTINUOUS
 62
     7
 10
323.7647
 20
109.951700000000020
 11
322.7648
 21
108.951900000000020
  0
LINE
  8
PT2-Wymiarowanie5
  6
CONTINUOUS
 62
     7
 10
272.1777
 20
110.451799999999990
 11
272.1777
 21
108.451799999999990
  0
LINE
  8
PT2-Wymiarowanie5
  6
CONTINUOUS
 62
     7
 10
323.2648
 20
110.451799999999990
 11
323.2648
 21
108.451799999999990
  0
TEXT
  8
PT2-Wymiarowanie5
  6
CONTINUOUS
 62
     7
 10
325.204799999999980
 20
110.905800000000000
 40
2.000000000000000
  1
70
  0
LINE
  8
PT2-Wymiarowanie5
  6
CONTINUOUS
 62
     7
 10
323.2648
 20
109.451799999999990
 11
330.2649
 21
109.451799999999990
  0
LINE
  8
PT2-Wymiarowanie5
  6
CONTINUOUS
 62
     7
 10
322.2648
 20
109.451799999999990
 11
323.2648
 21
109.451799999999990
  0
LINE
  8
PT2-Wymiarowanie5
  6
CONTINUOUS
 62
     7
 10
331.2649
 20
109.451799999999990
 11
330.2649
 21
109.451799999999990
  0
LINE
  8
PT2-Wymiarowanie5
  6
CONTINUOUS
 62
     7
 10
323.7647
 20
109.951700000000020
 11
322.7648
 21
108.951900000000020
  0
LINE
  8
PT2-Wymiarowanie5
  6
CONTINUOUS
 62
     7
 10
330.7648
 20
109.951700000000020
 11
329.765
 21
108.951900000000020
  0
LINE
  8
PT2-Wymiarowanie5
  6
CONTINUOUS
 62
     7
 10
323.2648
 20
110.451799999999990
 11
323.2648
 21
108.451799999999990
  0
LINE
  8
PT2-Wymiarowanie5
  6
CONTINUOUS
 62
     7
 10
330.2649
 20
110.451799999999990
 11
330.2649
 21
108.451799999999990
  0
TEXT
  8
PT2-Wymiarowanie5
  6
CONTINUOUS
 62
     7
 10
370.280899999999970
 20
110.905800000000000
 40
2.000000000000000
  1
8,55
  0
LINE
  8
PT2-Wymiarowanie5
  6
CONTINUOUS
 62
     7
 10
330.2649
 20
109.451799999999990
 11
415.757
 21
109.451799999999990
  0
LINE
  8
PT2-Wymiarowanie5
  6
CONTINUOUS
 62
     7
 10
329.2649
 20
109.451799999999990
 11
330.2649
 21
109.451799999999990
  0
LINE
  8
PT2-Wymiarowanie5
  6
CONTINUOUS
 62
     7
 10
416.757
 20
109.451799999999990
 11
415.757
 21
109.451799999999990
  0
LINE
  8
PT2-Wymiarowanie5
  6
CONTINUOUS
 62
     7
 10
330.7648
 20
109.951700000000020
 11
329.765
 21
108.951900000000020
  0
LINE
  8
PT2-Wymiarowanie5
  6
CONTINUOUS
 62
     7
 10
416.2569
 20
109.951700000000020
 11
415.2571
 21
108.951900000000020
  0
LINE
  8
PT2-Wymiarowanie5
  6
CONTINUOUS
 62
     7
 10
330.2649
 20
110.451799999999990
 11
330.2649
 21
108.451799999999990
  0
LINE
  8
PT2-Wymiarowanie5
  6
CONTINUOUS
 62
     7
 10
415.757
 20
110.451799999999990
 11
415.757
 21
108.451799999999990
  0
TEXT
  8
PT2-Wymiarowanie5
  6
CONTINUOUS
 62
     7
 10
424.327200000000000
 20
110.905800000000000
 40
2.000000000000000
  1
2,26
  0
LINE
  8
PT2-Wymiarowanie5
  6
CONTINUOUS
 62
     7
 10
415.757
 20
109.451799999999990
 11
438.3575
 21
109.451799999999990
  0
LINE
  8
PT2-Wymiarowanie5
  6
CONTINUOUS
 62
     7
 10
414.757
 20
109.451799999999990
 11
415.757
 21
109.451799999999990
  0
LINE
  8
PT2-Wymiarowanie5
  6
CONTINUOUS
 62
     7
 10
439.3575
 20
109.451799999999990
 11
438.3575
 21
109.451799999999990
  0
LINE
  8
PT2-Wymiarowanie5
  6
CONTINUOUS
 62
     7
 10
416.2569
 20
109.951700000000020
 11
415.2571
 21
108.951900000000020
  0
LINE
  8
PT2-Wymiarowanie5
  6
CONTINUOUS
 62
     7
 10
438.8574
 20
109.951700000000020
 11
437.8576
 21
108.951900000000020
  0
LINE
  8
PT2-Wymiarowanie5
  6
CONTINUOUS
 62
     7
 10
415.757
 20
110.451799999999990
 11
415.757
 21
108.451799999999990
  0
LINE
  8
PT2-Wymiarowanie5
  6
CONTINUOUS
 62
     7
 10
438.3575
 20
110.451799999999990
 11
438.3575
 21
108.451799999999990
  0
TEXT
  8
PT2-Wymiarowanie5
  6
CONTINUOUS
 62
     7
 10
447.682900000000020
 20
110.905800000000000
 40
2.000000000000000
  1
2,41
  0
LINE
  8
PT2-Wymiarowanie5
  6
CONTINUOUS
 62
     7
 10
438.3575
 20
109.451799999999990
 11
462.4683
 21
109.451799999999990
  0
LINE
  8
PT2-Wymiarowanie5
  6
CONTINUOUS
 62
     7
 10
437.3575
 20
109.451799999999990
 11
438.3575
 21
109.451799999999990
  0
LINE
  8
PT2-Wymiarowanie5
  6
CONTINUOUS
 62
     7
 10
463.4683
 20
109.451799999999990
 11
462.4683
 21
109.451799999999990
  0
LINE
  8
PT2-Wymiarowanie5
  6
CONTINUOUS
 62
     7
 10
438.8574
 20
109.951700000000020
 11
437.8576
 21
108.951900000000020
  0
LINE
  8
PT2-Wymiarowanie5
  6
CONTINUOUS
 62
     7
 10
462.9683
 20
109.951700000000020
 11
461.9684
 21
108.951900000000020
  0
LINE
  8
PT2-Wymiarowanie5
  6
CONTINUOUS
 62
     7
 10
438.3575
 20
110.451799999999990
 11
438.3575
 21
108.451799999999990
  0
LINE
  8
PT2-Wymiarowanie5
  6
CONTINUOUS
 62
     7
 10
462.4683
 20
110.451799999999990
 11
462.4683
 21
108.451799999999990
  0
TEXT
  8
PT2-Wymiarowanie5
  6
CONTINUOUS
 62
     7
 10
265.968900000000020
 20
68.388300000000015
 40
2.000000000000000
  1
93
  0
LINE
  8
PT2-Wymiarowanie5
  6
CONTINUOUS
 62
     7
 10
262.8778
 20
66.934300000000007
 11
272.1799
 21
66.934300000000007
  0
LINE
  8
PT2-Wymiarowanie5
  6
CONTINUOUS
 62
     7
 10
261.8778
 20
66.934300000000007
 11
262.8778
 21
66.934300000000007
  0
LINE
  8
PT2-Wymiarowanie5
  6
CONTINUOUS
 62
     7
 10
273.1799
 20
66.934300000000007
 11
272.1799
 21
66.934300000000007
  0
LINE
  8
PT2-Wymiarowanie5
  6
CONTINUOUS
 62
     7
 10
263.3778
 20
67.434199999999976
 11
262.3779
 21
66.434300000000007
  0
LINE
  8
PT2-Wymiarowanie5
  6
CONTINUOUS
 62
     7
 10
272.6799
 20
67.434199999999976
 11
271.68
 21
66.434300000000007
  0
LINE
  8
PT2-Wymiarowanie5
  6
CONTINUOUS
 62
     7
 10
262.8778
 20
65.934300000000007
 11
262.8778
 21
67.934300000000007
  0
LINE
  8
PT2-Wymiarowanie5
  6
CONTINUOUS
 62
     7
 10
272.1799
 20
65.934300000000007
 11
272.1799
 21
67.934300000000007
  0
TEXT
  8
PT2-Wymiarowanie5
  6
CONTINUOUS
 62
     7
 10
280.993699999999990
 20
68.388300000000015
 40
2.000000000000000
  1
2,31
  0
LINE
  8
PT2-Wymiarowanie5
  6
CONTINUOUS
 62
     7
 10
272.1799
 20
66.934300000000007
 11
295.2674
 21
66.934300000000007
  0
LINE
  8
PT2-Wymiarowanie5
  6
CONTINUOUS
 62
     7
 10
271.1799
 20
66.934300000000007
 11
272.1799
 21
66.934300000000007
  0
LINE
  8
PT2-Wymiarowanie5
  6
CONTINUOUS
 62
     7
 10
296.2674
 20
66.934300000000007
 11
295.2674
 21
66.934300000000007
  0
LINE
  8
PT2-Wymiarowanie5
  6
CONTINUOUS
 62
     7
 10
272.6799
 20
67.434199999999976
 11
271.68
 21
66.434300000000007
  0
LINE
  8
PT2-Wymiarowanie5
  6
CONTINUOUS
 62
     7
 10
295.7674
 20
67.434199999999976
 11
294.7675
 21
66.434300000000007
  0
LINE
  8
PT2-Wymiarowanie5
  6
CONTINUOUS
 62
     7
 10
272.1799
 20
65.934300000000007
 11
272.1799
 21
67.934300000000007
  0
LINE
  8
PT2-Wymiarowanie5
  6
CONTINUOUS
 62
     7
 10
295.2674
 20
65.934300000000007
 11
295.2674
 21
67.934300000000007
  0
TEXT
  8
PT2-Wymiarowanie5
  6
CONTINUOUS
 62
     7
 10
297.207600000000010
 20
68.388300000000015
 40
2.000000000000000
  1
70
  0
LINE
  8
PT2-Wymiarowanie5
  6
CONTINUOUS
 62
     7
 10
295.2674
 20
66.934300000000007
 11
302.2678
 21
66.934300000000007
  0
LINE
  8
PT2-Wymiarowanie5
  6
CONTINUOUS
 62
     7
 10
294.2674
 20
66.934300000000007
 11
295.2674
 21
66.934300000000007
  0
LINE
  8
PT2-Wymiarowanie5
  6
CONTINUOUS
 62
     7
 10
303.2678
 20
66.934300000000007
 11
302.2678
 21
66.934300000000007
  0
LINE
  8
PT2-Wymiarowanie5
  6
CONTINUOUS
 62
     7
 10
295.7674
 20
67.434199999999976
 11
294.7675
 21
66.434300000000007
  0
LINE
  8
PT2-Wymiarowanie5
  6
CONTINUOUS
 62
     7
 10
302.7677
 20
67.434199999999976
 11
301.7679
 21
66.434300000000007
  0
LINE
  8
PT2-Wymiarowanie5
  6
CONTINUOUS
 62
     7
 10
295.2674
 20
65.934300000000007
 11
295.2674
 21
67.934300000000007
  0
LINE
  8
PT2-Wymiarowanie5
  6
CONTINUOUS
 62
     7
 10
302.2678
 20
65.934300000000007
 11
302.2678
 21
67.934300000000007
  0
TEXT
  8
PT2-Wymiarowanie5
  6
CONTINUOUS
 62
     7
 10
378.858099999999980
 20
68.388300000000015
 40
2.000000000000000
  1
16,02
  0
LINE
  8
PT2-Wymiarowanie5
  6
CONTINUOUS
 62
     7
 10
302.2678
 20
66.934300000000007
 11
462.4683
 21
66.934300000000007
  0
LINE
  8
PT2-Wymiarowanie5
  6
CONTINUOUS
 62
     7
 10
301.2678
 20
66.934300000000007
 11
302.2678
 21
66.934300000000007
  0
LINE
  8
PT2-Wymiarowanie5
  6
CONTINUOUS
 62
     7
 10
463.4683
 20
66.934300000000007
 11
462.4683
 21
66.934300000000007
  0
LINE
  8
PT2-Wymiarowanie5
  6
CONTINUOUS
 62
     7
 10
302.7677
 20
67.434199999999976
 11
301.7679
 21
66.434300000000007
  0
LINE
  8
PT2-Wymiarowanie5
  6
CONTINUOUS
 62
     7
 10
462.9683
 20
67.434199999999976
 11
461.9684
 21
66.434300000000007
  0
LINE
  8
PT2-Wymiarowanie5
  6
CONTINUOUS
 62
     7
 10
302.2678
 20
65.934300000000007
 11
302.2678
 21
67.934300000000007
  0
LINE
  8
PT2-Wymiarowanie5
  6
CONTINUOUS
 62
     7
 10
462.4683
 20
65.934300000000007
 11
462.4683
 21
67.934300000000007
  0
TEXT
  8
PT2-Wymiarowanie5
  6
CONTINUOUS
 62
     7
 10
464.408300000000000
 20
68.388300000000015
 40
2.000000000000000
  1
70
  0
LINE
  8
PT2-Wymiarowanie5
  6
CONTINUOUS
 62
     7
 10
462.4683
 20
66.934300000000007
 11
469.4683
 21
66.934300000000007
  0
LINE
  8
PT2-Wymiarowanie5
  6
CONTINUOUS
 62
     7
 10
461.4683
 20
66.934300000000007
 11
462.4683
 21
66.934300000000007
  0
LINE
  8
PT2-Wymiarowanie5
  6
CONTINUOUS
 62
     7
 10
470.4683
 20
66.934300000000007
 11
469.4683
 21
66.934300000000007
  0
LINE
  8
PT2-Wymiarowanie5
  6
CONTINUOUS
 62
     7
 10
462.9683
 20
67.434199999999976
 11
461.9684
 21
66.434300000000007
  0
LINE
  8
PT2-Wymiarowanie5
  6
CONTINUOUS
 62
     7
 10
469.9683
 20
67.434199999999976
 11
468.9684
 21
66.434300000000007
  0
LINE
  8
PT2-Wymiarowanie5
  6
CONTINUOUS
 62
     7
 10
462.4683
 20
65.934300000000007
 11
462.4683
 21
67.934300000000007
  0
LINE
  8
PT2-Wymiarowanie5
  6
CONTINUOUS
 62
     7
 10
469.4683
 20
65.934300000000007
 11
469.4683
 21
67.934300000000007
  0
TEXT
  8
PT2-Wymiarowanie5
  6
CONTINUOUS
 62
     7
 10
362.664199999999990
 20
61.996399999999994
 40
2.000000000000000
  1
20,66
  0
LINE
  8
PT2-Wymiarowanie5
  6
CONTINUOUS
 62
     7
 10
262.8801
 20
60.542399999999986
 11
469.4683
 21
60.542399999999986
  0
LINE
  8
PT2-Wymiarowanie5
  6
CONTINUOUS
 62
     7
 10
261.8801
 20
60.542399999999986
 11
262.8801
 21
60.542399999999986
  0
LINE
  8
PT2-Wymiarowanie5
  6
CONTINUOUS
 62
     7
 10
470.4683
 20
60.542399999999986
 11
469.4683
 21
60.542399999999986
  0
LINE
  8
PT2-Wymiarowanie5
  6
CONTINUOUS
 62
     7
 10
263.38
 20
61.042300000000012
 11
262.3801
 21
60.042399999999986
  0
LINE
  8
PT2-Wymiarowanie5
  6
CONTINUOUS
 62
     7
 10
469.9683
 20
61.042300000000012
 11
468.9684
 21
60.042399999999986
  0
LINE
  8
PT2-Wymiarowanie5
  6
CONTINUOUS
 62
     7
 10
262.8801
 20
59.542399999999986
 11
262.8801
 21
61.542399999999986
  0
LINE
  8
PT2-Wymiarowanie5
  6
CONTINUOUS
 62
     7
 10
469.4683
 20
59.542399999999986
 11
469.4683
 21
61.542399999999986
  0
LINE
  8
PT2-Wymiarowanie5
  6
CONTINUOUS
 62
     7
 10
264.9683
 20
258.386700000000020
 11
265.1685
 21
258.386700000000020
  0
LINE
  8
PT2-Wymiarowanie5
  6
CONTINUOUS
 62
     7
 10
263.9683
 20
258.386700000000020
 11
264.9683
 21
258.386700000000020
  0
LINE
  8
PT2-Wymiarowanie5
  6
CONTINUOUS
 62
     7
 10
266.1685
 20
258.386700000000020
 11
265.1685
 21
258.386700000000020
  0
LINE
  8
PT2-Wymiarowanie5
  6
CONTINUOUS
 62
     7
 10
265.4683
 20
258.886700000000020
 11
264.4684
 21
257.886799999999990
  0
LINE
  8
PT2-Wymiarowanie5
  6
CONTINUOUS
 62
     7
 10
265.6684
 20
258.886700000000020
 11
264.6686
 21
257.886799999999990
  0
LINE
  8
PT2-Wymiarowanie5
  6
CONTINUOUS
 62
     7
 10
264.9683
 20
259.386700000000020
 11
264.9683
 21
257.386700000000020
  0
LINE
  8
PT2-Wymiarowanie5
  6
CONTINUOUS
 62
     7
 10
265.1685
 20
259.386700000000020
 11
265.1685
 21
257.386700000000020
  0
TEXT
  8
PT2-Wymiarowanie5
  6
CONTINUOUS
 62
     7
 10
263.002099999999980
 20
259.599500000000030
 40
2.000000000000000
  1
2
  0
LINE
  8
PT2-Wymiarowanie5
  6
CONTINUOUS
 62
     7
 10
265.1685
 20
258.386700000000020
 11
272.1689
 21
258.386700000000020
  0
LINE
  8
PT2-Wymiarowanie5
  6
CONTINUOUS
 62
     7
 10
264.1685
 20
258.386700000000020
 11
265.1685
 21
258.386700000000020
  0
LINE
  8
PT2-Wymiarowanie5
  6
CONTINUOUS
 62
     7
 10
273.1689
 20
258.386700000000020
 11
272.1689
 21
258.386700000000020
  0
LINE
  8
PT2-Wymiarowanie5
  6
CONTINUOUS
 62
     7
 10
265.6684
 20
258.886700000000020
 11
264.6686
 21
257.886799999999990
  0
LINE
  8
PT2-Wymiarowanie5
  6
CONTINUOUS
 62
     7
 10
272.6688
 20
258.886700000000020
 11
271.669
 21
257.886799999999990
  0
LINE
  8
PT2-Wymiarowanie5
  6
CONTINUOUS
 62
     7
 10
265.1685
 20
259.386700000000020
 11
265.1685
 21
257.386700000000020
  0
LINE
  8
PT2-Wymiarowanie5
  6
CONTINUOUS
 62
     7
 10
272.1689
 20
259.386700000000020
 11
272.1689
 21
257.386700000000020
  0
TEXT
  8
PT2-Wymiarowanie5
  6
CONTINUOUS
 62
     7
 10
267.032500000000030
 20
259.492799999999990
 40
2.000000000000000
  1
70
  0
TEXT
  8
PT2-Wymiarowanie5
  6
CONTINUOUS
 62
     7
 10
279.838599999999990
 20
259.840699999999970
 40
2.000000000000000
  1
2,08
  0
LINE
  8
PT2-Wymiarowanie5
  6
CONTINUOUS
 62
     7
 10
272.1689
 20
258.386700000000020
 11
292.9683
 21
258.386700000000020
  0
LINE
  8
PT2-Wymiarowanie5
  6
CONTINUOUS
 62
     7
 10
271.1689
 20
258.386700000000020
 11
272.1689
 21
258.386700000000020
  0
LINE
  8
PT2-Wymiarowanie5
  6
CONTINUOUS
 62
     7
 10
293.9683
 20
258.386700000000020
 11
292.9683
 21
258.386700000000020
  0
LINE
  8
PT2-Wymiarowanie5
  6
CONTINUOUS
 62
     7
 10
272.6688
 20
258.886700000000020
 11
271.669
 21
257.886799999999990
  0
LINE
  8
PT2-Wymiarowanie5
  6
CONTINUOUS
 62
     7
 10
293.4683
 20
258.886700000000020
 11
292.4684
 21
257.886799999999990
  0
LINE
  8
PT2-Wymiarowanie5
  6
CONTINUOUS
 62
     7
 10
272.1689
 20
259.386700000000020
 11
272.1689
 21
257.386700000000020
  0
LINE
  8
PT2-Wymiarowanie5
  6
CONTINUOUS
 62
     7
 10
292.9683
 20
259.386700000000020
 11
292.9683
 21
257.386700000000020
  0
TEXT
  8
PT2-Wymiarowanie5
  6
CONTINUOUS
 62
     7
 10
294.908300000000000
 20
259.840699999999970
 40
2.000000000000000
  1
70
  0
LINE
  8
PT2-Wymiarowanie5
  6
CONTINUOUS
 62
     7
 10
292.9683
 20
258.386700000000020
 11
299.9683
 21
258.386700000000020
  0
LINE
  8
PT2-Wymiarowanie5
  6
CONTINUOUS
 62
     7
 10
291.9683
 20
258.386700000000020
 11
292.9683
 21
258.386700000000020
  0
LINE
  8
PT2-Wymiarowanie5
  6
CONTINUOUS
 62
     7
 10
300.9683
 20
258.386700000000020
 11
299.9683
 21
258.386700000000020
  0
LINE
  8
PT2-Wymiarowanie5
  6
CONTINUOUS
 62
     7
 10
293.4683
 20
258.886700000000020
 11
292.4684
 21
257.886799999999990
  0
LINE
  8
PT2-Wymiarowanie5
  6
CONTINUOUS
 62
     7
 10
300.4683
 20
258.886700000000020
 11
299.4684
 21
257.886799999999990
  0
LINE
  8
PT2-Wymiarowanie5
  6
CONTINUOUS
 62
     7
 10
292.9683
 20
259.386700000000020
 11
292.9683
 21
257.386700000000020
  0
LINE
  8
PT2-Wymiarowanie5
  6
CONTINUOUS
 62
     7
 10
299.9683
 20
259.386700000000020
 11
299.9683
 21
257.386700000000020
  0
TEXT
  8
PT2-Wymiarowanie5
  6
CONTINUOUS
 62
     7
 10
309.863299999999980
 20
259.840699999999970
 40
2.000000000000000
  1
2,52
  0
TEXT
  8
PT2-Wymiarowanie5
  6
CONTINUOUS
 62
     7
 10
316.142299999999980
 20
260.569700000000010
 40
1.500000000000000
  1
5
  0
LINE
  8
PT2-Wymiarowanie5
  6
CONTINUOUS
 62
     7
 10
299.9683
 20
258.386700000000020
 11
325.2183
 21
258.386700000000020
  0
LINE
  8
PT2-Wymiarowanie5
  6
CONTINUOUS
 62
     7
 10
298.9683
 20
258.386700000000020
 11
299.9683
 21
258.386700000000020
  0
LINE
  8
PT2-Wymiarowanie5
  6
CONTINUOUS
 62
     7
 10
326.2183
 20
258.386700000000020
 11
325.2183
 21
258.386700000000020
  0
LINE
  8
PT2-Wymiarowanie5
  6
CONTINUOUS
 62
     7
 10
300.4683
 20
258.886700000000020
 11
299.4684
 21
257.886799999999990
  0
LINE
  8
PT2-Wymiarowanie5
  6
CONTINUOUS
 62
     7
 10
325.7183
 20
258.886700000000020
 11
324.7184
 21
257.886799999999990
  0
LINE
  8
PT2-Wymiarowanie5
  6
CONTINUOUS
 62
     7
 10
299.9683
 20
259.386700000000020
 11
299.9683
 21
257.386700000000020
  0
LINE
  8
PT2-Wymiarowanie5
  6
CONTINUOUS
 62
     7
 10
325.2183
 20
259.386700000000020
 11
325.2183
 21
257.386700000000020
  0
TEXT
  8
PT2-Wymiarowanie5
  6
CONTINUOUS
 62
     7
 10
327.158300000000000
 20
259.840699999999970
 40
2.000000000000000
  1
70
  0
LINE
  8
PT2-Wymiarowanie5
  6
CONTINUOUS
 62
     7
 10
325.2183
 20
258.386700000000020
 11
332.2183
 21
258.386700000000020
  0
LINE
  8
PT2-Wymiarowanie5
  6
CONTINUOUS
 62
     7
 10
324.2183
 20
258.386700000000020
 11
325.2183
 21
258.386700000000020
  0
LINE
  8
PT2-Wymiarowanie5
  6
CONTINUOUS
 62
     7
 10
333.2183
 20
258.386700000000020
 11
332.2183
 21
258.386700000000020
  0
LINE
  8
PT2-Wymiarowanie5
  6
CONTINUOUS
 62
     7
 10
325.7183
 20
258.886700000000020
 11
324.7184
 21
257.886799999999990
  0
LINE
  8
PT2-Wymiarowanie5
  6
CONTINUOUS
 62
     7
 10
332.7183
 20
258.886700000000020
 11
331.7184
 21
257.886799999999990
  0
LINE
  8
PT2-Wymiarowanie5
  6
CONTINUOUS
 62
     7
 10
325.2183
 20
259.386700000000020
 11
325.2183
 21
257.386700000000020
  0
LINE
  8
PT2-Wymiarowanie5
  6
CONTINUOUS
 62
     7
 10
332.2183
 20
259.386700000000020
 11
332.2183
 21
257.386700000000020
  0
TEXT
  8
PT2-Wymiarowanie5
  6
CONTINUOUS
 62
     7
 10
393.833300000000010
 20
259.840699999999970
 40
2.000000000000000
  1
13,02
  0
TEXT
  8
PT2-Wymiarowanie5
  6
CONTINUOUS
 62
     7
 10
401.906299999999990
 20
260.569700000000010
 40
1.500000000000000
  1
5
  0
LINE
  8
PT2-Wymiarowanie5
  6
CONTINUOUS
 62
     7
 10
332.2183
 20
258.386700000000020
 11
462.4683
 21
258.386700000000020
  0
LINE
  8
PT2-Wymiarowanie5
  6
CONTINUOUS
 62
     7
 10
331.2183
 20
258.386700000000020
 11
332.2183
 21
258.386700000000020
  0
LINE
  8
PT2-Wymiarowanie5
  6
CONTINUOUS
 62
     7
 10
463.4683
 20
258.386700000000020
 11
462.4683
 21
258.386700000000020
  0
LINE
  8
PT2-Wymiarowanie5
  6
CONTINUOUS
 62
     7
 10
332.7183
 20
258.886700000000020
 11
331.7184
 21
257.886799999999990
  0
LINE
  8
PT2-Wymiarowanie5
  6
CONTINUOUS
 62
     7
 10
462.9683
 20
258.886700000000020
 11
461.9684
 21
257.886799999999990
  0
LINE
  8
PT2-Wymiarowanie5
  6
CONTINUOUS
 62
     7
 10
332.2183
 20
259.386700000000020
 11
332.2183
 21
257.386700000000020
  0
LINE
  8
PT2-Wymiarowanie5
  6
CONTINUOUS
 62
     7
 10
462.4683
 20
259.386700000000020
 11
462.4683
 21
257.386700000000020
  0
TEXT
  8
PT2-Wymiarowanie5
  6
CONTINUOUS
 62
     7
 10
464.408300000000000
 20
259.840699999999970
 40
2.000000000000000
  1
70
  0
LINE
  8
PT2-Wymiarowanie5
  6
CONTINUOUS
 62
     7
 10
462.4683
 20
258.386700000000020
 11
469.4683
 21
258.386700000000020
  0
LINE
  8
PT2-Wymiarowanie5
  6
CONTINUOUS
 62
     7
 10
461.4683
 20
258.386700000000020
 11
462.4683
 21
258.386700000000020
  0
LINE
  8
PT2-Wymiarowanie5
  6
CONTINUOUS
 62
     7
 10
470.4683
 20
258.386700000000020
 11
469.4683
 21
258.386700000000020
  0
LINE
  8
PT2-Wymiarowanie5
  6
CONTINUOUS
 62
     7
 10
462.9683
 20
258.886700000000020
 11
461.9684
 21
257.886799999999990
  0
LINE
  8
PT2-Wymiarowanie5
  6
CONTINUOUS
 62
     7
 10
469.9683
 20
258.886700000000020
 11
468.9684
 21
257.886799999999990
  0
LINE
  8
PT2-Wymiarowanie5
  6
CONTINUOUS
 62
     7
 10
462.4683
 20
259.386700000000020
 11
462.4683
 21
257.386700000000020
  0
LINE
  8
PT2-Wymiarowanie5
  6
CONTINUOUS
 62
     7
 10
469.4683
 20
259.386700000000020
 11
469.4683
 21
257.386700000000020
  0
TEXT
  8
PT2-Wymiarowanie5
  6
CONTINUOUS
 62
     7
 10
256.221400000000020
 20
84.193399999999997
 40
2.000000000000000
 50
90.000000000000000
  1
68
  0
LINE
  8
PT2-Wymiarowanie5
  6
CONTINUOUS
 62
     7
 10
257.7744
 20
81.934500000000014
 11
257.7744
 21
88.743800000000022
  0
LINE
  8
PT2-Wymiarowanie5
  6
CONTINUOUS
 62
     7
 10
257.7744
 20
80.934500000000014
 11
257.7744
 21
81.934500000000014
  0
LINE
  8
PT2-Wymiarowanie5
  6
CONTINUOUS
 62
     7
 10
257.7744
 20
89.743800000000022
 11
257.7744
 21
88.743800000000022
  0
LINE
  8
PT2-Wymiarowanie5
  6
CONTINUOUS
 62
     7
 10
257.2745
 20
82.434399999999982
 11
258.2743
 21
81.434500000000014
  0
LINE
  8
PT2-Wymiarowanie5
  6
CONTINUOUS
 62
     7
 10
257.2745
 20
89.243699999999990
 11
258.2743
 21
88.243899999999996
  0
LINE
  8
PT2-Wymiarowanie5
  6
CONTINUOUS
 62
     7
 10
256.7744
 20
81.934500000000014
 11
258.7744
 21
81.934500000000014
  0
LINE
  8
PT2-Wymiarowanie5
  6
CONTINUOUS
 62
     7
 10
256.7744
 20
88.743800000000022
 11
258.7744
 21
88.743800000000022
  0
TEXT
  8
PT2-Wymiarowanie5
  6
CONTINUOUS
 62
     7
 10
256.221400000000020
 20
92.187700000000007
 40
2.000000000000000
 50
90.000000000000000
  1
2
  0
LINE
  8
PT2-Wymiarowanie5
  6
CONTINUOUS
 62
     7
 10
257.7744
 20
88.743800000000022
 11
257.7744
 21
88.945499999999981
  0
LINE
  8
PT2-Wymiarowanie5
  6
CONTINUOUS
 62
     7
 10
257.7744
 20
87.743800000000022
 11
257.7744
 21
88.743800000000022
  0
LINE
  8
PT2-Wymiarowanie5
  6
CONTINUOUS
 62
     7
 10
257.7744
 20
89.945499999999981
 11
257.7744
 21
88.945499999999981
  0
LINE
  8
PT2-Wymiarowanie5
  6
CONTINUOUS
 62
     7
 10
257.2745
 20
89.243699999999990
 11
258.2743
 21
88.243899999999996
  0
LINE
  8
PT2-Wymiarowanie5
  6
CONTINUOUS
 62
     7
 10
257.2745
 20
89.445400000000006
 11
258.2743
 21
88.445499999999981
  0
LINE
  8
PT2-Wymiarowanie5
  6
CONTINUOUS
 62
     7
 10
256.7744
 20
88.743800000000022
 11
258.7744
 21
88.743800000000022
  0
LINE
  8
PT2-Wymiarowanie5
  6
CONTINUOUS
 62
     7
 10
256.7744
 20
88.945499999999981
 11
258.7744
 21
88.945499999999981
  0
TEXT
  8
PT2-Wymiarowanie5
  6
CONTINUOUS
 62
     7
 10
243.329700000000000
 20
84.293600000000026
 40
2.000000000000000
 50
90.000000000000000
  1
70
  0
LINE
  8
PT2-Wymiarowanie5
  6
CONTINUOUS
 62
     7
 10
244.8827
 20
81.939300000000003
 11
244.8827
 21
88.939399999999978
  0
LINE
  8
PT2-Wymiarowanie5
  6
CONTINUOUS
 62
     7
 10
244.8827
 20
80.939300000000003
 11
244.8827
 21
81.939300000000003
  0
LINE
  8
PT2-Wymiarowanie5
  6
CONTINUOUS
 62
     7
 10
244.8827
 20
89.939399999999978
 11
244.8827
 21
88.939399999999978
  0
LINE
  8
PT2-Wymiarowanie5
  6
CONTINUOUS
 62
     7
 10
244.3828
 20
82.439200000000028
 11
245.3827
 21
81.439399999999978
  0
LINE
  8
PT2-Wymiarowanie5
  6
CONTINUOUS
 62
     7
 10
244.3828
 20
89.439300000000003
 11
245.3827
 21
88.439399999999978
  0
LINE
  8
PT2-Wymiarowanie5
  6
CONTINUOUS
 62
     7
 10
243.8827
 20
81.939300000000003
 11
245.8827
 21
81.939300000000003
  0
LINE
  8
PT2-Wymiarowanie5
  6
CONTINUOUS
 62
     7
 10
243.8827
 20
88.939399999999978
 11
245.8827
 21
88.939399999999978
  0
TEXT
  8
PT2-Wymiarowanie5
  6
CONTINUOUS
 62
     7
 10
243.329700000000000
 20
118.590599999999990
 40
2.000000000000000
 50
90.000000000000000
  1
6,39
  0
TEXT
  8
PT2-Wymiarowanie5
  6
CONTINUOUS
 62
     7
 10
242.576699999999990
 20
124.766000000000020
 40
1.500000000000000
 50
90.000000000000000
  1
5
  0
LINE
  8
PT2-Wymiarowanie5
  6
CONTINUOUS
 62
     7
 10
244.8827
 20
88.939399999999978
 11
244.8827
 21
152.873400000000000
  0
LINE
  8
PT2-Wymiarowanie5
  6
CONTINUOUS
 62
     7
 10
244.8827
 20
87.939399999999978
 11
244.8827
 21
88.939399999999978
  0
LINE
  8
PT2-Wymiarowanie5
  6
CONTINUOUS
 62
     7
 10
244.8827
 20
153.873400000000000
 11
244.8827
 21
152.873400000000000
  0
LINE
  8
PT2-Wymiarowanie5
  6
CONTINUOUS
 62
     7
 10
244.3828
 20
89.439300000000003
 11
245.3827
 21
88.439399999999978
  0
LINE
  8
PT2-Wymiarowanie5
  6
CONTINUOUS
 62
     7
 10
244.3828
 20
153.373300000000000
 11
245.3827
 21
152.373500000000010
  0
LINE
  8
PT2-Wymiarowanie5
  6
CONTINUOUS
 62
     7
 10
243.8827
 20
88.939399999999978
 11
245.8827
 21
88.939399999999978
  0
LINE
  8
PT2-Wymiarowanie5
  6
CONTINUOUS
 62
     7
 10
243.8827
 20
152.873400000000000
 11
245.8827
 21
152.873400000000000
  0
TEXT
  8
PT2-Wymiarowanie5
  6
CONTINUOUS
 62
     7
 10
243.329700000000000
 20
155.227499999999990
 40
2.000000000000000
 50
90.000000000000000
  1
70
  0
LINE
  8
PT2-Wymiarowanie5
  6
CONTINUOUS
 62
     7
 10
244.8827
 20
152.873400000000000
 11
244.8827
 21
159.873200000000000
  0
LINE
  8
PT2-Wymiarowanie5
  6
CONTINUOUS
 62
     7
 10
244.8827
 20
151.873400000000000
 11
244.8827
 21
152.873400000000000
  0
LINE
  8
PT2-Wymiarowanie5
  6
CONTINUOUS
 62
     7
 10
244.8827
 20
160.873200000000000
 11
244.8827
 21
159.873200000000000
  0
LINE
  8
PT2-Wymiarowanie5
  6
CONTINUOUS
 62
     7
 10
244.3828
 20
153.373300000000000
 11
245.3827
 21
152.373500000000010
  0
LINE
  8
PT2-Wymiarowanie5
  6
CONTINUOUS
 62
     7
 10
244.3828
 20
160.373200000000000
 11
245.3827
 21
159.373300000000000
  0
LINE
  8
PT2-Wymiarowanie5
  6
CONTINUOUS
 62
     7
 10
243.8827
 20
152.873400000000000
 11
245.8827
 21
152.873400000000000
  0
LINE
  8
PT2-Wymiarowanie5
  6
CONTINUOUS
 62
     7
 10
243.8827
 20
159.873200000000000
 11
245.8827
 21
159.873200000000000
  0
TEXT
  8
PT2-Wymiarowanie5
  6
CONTINUOUS
 62
     7
 10
243.329700000000000
 20
166.718600000000010
 40
2.000000000000000
 50
90.000000000000000
  1
1,83
  0
LINE
  8
PT2-Wymiarowanie5
  6
CONTINUOUS
 62
     7
 10
244.8827
 20
159.873200000000000
 11
244.8827
 21
178.195500000000010
  0
LINE
  8
PT2-Wymiarowanie5
  6
CONTINUOUS
 62
     7
 10
244.8827
 20
158.873200000000000
 11
244.8827
 21
159.873200000000000
  0
LINE
  8
PT2-Wymiarowanie5
  6
CONTINUOUS
 62
     7
 10
244.8827
 20
179.195500000000010
 11
244.8827
 21
178.195500000000010
  0
LINE
  8
PT2-Wymiarowanie5
  6
CONTINUOUS
 62
     7
 10
244.3828
 20
160.373200000000000
 11
245.3827
 21
159.373300000000000
  0
LINE
  8
PT2-Wymiarowanie5
  6
CONTINUOUS
 62
     7
 10
244.3828
 20
178.695400000000010
 11
245.3827
 21
177.695500000000010
  0
LINE
  8
PT2-Wymiarowanie5
  6
CONTINUOUS
 62
     7
 10
243.8827
 20
159.873200000000000
 11
245.8827
 21
159.873200000000000
  0
LINE
  8
PT2-Wymiarowanie5
  6
CONTINUOUS
 62
     7
 10
243.8827
 20
178.195500000000010
 11
245.8827
 21
178.195500000000010
  0
TEXT
  8
PT2-Wymiarowanie5
  6
CONTINUOUS
 62
     7
 10
243.329700000000000
 20
180.549700000000000
 40
2.000000000000000
 50
90.000000000000000
  1
70
  0
LINE
  8
PT2-Wymiarowanie5
  6
CONTINUOUS
 62
     7
 10
244.8827
 20
178.195500000000010
 11
244.8827
 21
185.195500000000010
  0
LINE
  8
PT2-Wymiarowanie5
  6
CONTINUOUS
 62
     7
 10
244.8827
 20
177.195500000000010
 11
244.8827
 21
178.195500000000010
  0
LINE
  8
PT2-Wymiarowanie5
  6
CONTINUOUS
 62
     7
 10
244.8827
 20
186.195500000000010
 11
244.8827
 21
185.195500000000010
  0
LINE
  8
PT2-Wymiarowanie5
  6
CONTINUOUS
 62
     7
 10
244.3828
 20
178.695400000000010
 11
245.3827
 21
177.695500000000010
  0
LINE
  8
PT2-Wymiarowanie5
  6
CONTINUOUS
 62
     7
 10
244.3828
 20
185.695400000000010
 11
245.3827
 21
184.695500000000010
  0
LINE
  8
PT2-Wymiarowanie5
  6
CONTINUOUS
 62
     7
 10
243.8827
 20
178.195500000000010
 11
245.8827
 21
178.195500000000010
  0
LINE
  8
PT2-Wymiarowanie5
  6
CONTINUOUS
 62
     7
 10
243.8827
 20
185.195500000000010
 11
245.8827
 21
185.195500000000010
  0
TEXT
  8
PT2-Wymiarowanie5
  6
CONTINUOUS
 62
     7
 10
243.329700000000000
 20
211.754700000000010
 40
2.000000000000000
 50
90.000000000000000
  1
5,77
  0
TEXT
  8
PT2-Wymiarowanie5
  6
CONTINUOUS
 62
     7
 10
242.576699999999990
 20
217.930100000000010
 40
1.500000000000000
 50
90.000000000000000
  1
5
  0
LINE
  8
PT2-Wymiarowanie5
  6
CONTINUOUS
 62
     7
 10
244.8827
 20
185.195500000000010
 11
244.8827
 21
242.945500000000010
  0
LINE
  8
PT2-Wymiarowanie5
  6
CONTINUOUS
 62
     7
 10
244.8827
 20
184.195500000000010
 11
244.8827
 21
185.195500000000010
  0
LINE
  8
PT2-Wymiarowanie5
  6
CONTINUOUS
 62
     7
 10
244.8827
 20
243.945500000000010
 11
244.8827
 21
242.945500000000010
  0
LINE
  8
PT2-Wymiarowanie5
  6
CONTINUOUS
 62
     7
 10
244.3828
 20
185.695400000000010
 11
245.3827
 21
184.695500000000010
  0
LINE
  8
PT2-Wymiarowanie5
  6
CONTINUOUS
 62
     7
 10
244.3828
 20
243.445400000000010
 11
245.3827
 21
242.445500000000010
  0
LINE
  8
PT2-Wymiarowanie5
  6
CONTINUOUS
 62
     7
 10
243.8827
 20
185.195500000000010
 11
245.8827
 21
185.195500000000010
  0
LINE
  8
PT2-Wymiarowanie5
  6
CONTINUOUS
 62
     7
 10
243.8827
 20
242.945500000000010
 11
245.8827
 21
242.945500000000010
  0
TEXT
  8
PT2-Wymiarowanie5
  6
CONTINUOUS
 62
     7
 10
243.329700000000000
 20
245.299700000000000
 40
2.000000000000000
 50
90.000000000000000
  1
70
  0
LINE
  8
PT2-Wymiarowanie5
  6
CONTINUOUS
 62
     7
 10
244.8827
 20
242.945500000000010
 11
244.8827
 21
249.945500000000010
  0
LINE
  8
PT2-Wymiarowanie5
  6
CONTINUOUS
 62
     7
 10
244.8827
 20
241.945500000000010
 11
244.8827
 21
242.945500000000010
  0
LINE
  8
PT2-Wymiarowanie5
  6
CONTINUOUS
 62
     7
 10
244.8827
 20
250.945500000000010
 11
244.8827
 21
249.945500000000010
  0
LINE
  8
PT2-Wymiarowanie5
  6
CONTINUOUS
 62
     7
 10
244.3828
 20
243.445400000000010
 11
245.3827
 21
242.445500000000010
  0
LINE
  8
PT2-Wymiarowanie5
  6
CONTINUOUS
 62
     7
 10
244.3828
 20
250.445400000000010
 11
245.3827
 21
249.445500000000010
  0
LINE
  8
PT2-Wymiarowanie5
  6
CONTINUOUS
 62
     7
 10
243.8827
 20
242.945500000000010
 11
245.8827
 21
242.945500000000010
  0
LINE
  8
PT2-Wymiarowanie5
  6
CONTINUOUS
 62
     7
 10
243.8827
 20
249.945500000000010
 11
245.8827
 21
249.945500000000010
  0
TEXT
  8
PT2-Wymiarowanie5
  6
CONTINUOUS
 62
     7
 10
236.019900000000010
 20
130.471400000000020
 40
2.000000000000000
 50
90.000000000000000
  1
10,32
  0
TEXT
  8
PT2-Wymiarowanie5
  6
CONTINUOUS
 62
     7
 10
235.266899999999990
 20
138.440900000000000
 40
1.500000000000000
 50
90.000000000000000
  1
5
  0
LINE
  8
PT2-Wymiarowanie5
  6
CONTINUOUS
 62
     7
 10
237.5729
 20
81.939000000000021
 11
237.5729
 21
185.195500000000010
  0
LINE
  8
PT2-Wymiarowanie5
  6
CONTINUOUS
 62
     7
 10
237.5729
 20
80.939000000000021
 11
237.5729
 21
81.939000000000021
  0
LINE
  8
PT2-Wymiarowanie5
  6
CONTINUOUS
 62
     7
 10
237.5729
 20
186.195500000000010
 11
237.5729
 21
185.195500000000010
  0
LINE
  8
PT2-Wymiarowanie5
  6
CONTINUOUS
 62
     7
 10
237.073
 20
82.438899999999990
 11
238.0728
 21
81.439099999999996
  0
LINE
  8
PT2-Wymiarowanie5
  6
CONTINUOUS
 62
     7
 10
237.073
 20
185.695400000000010
 11
238.0728
 21
184.695500000000010
  0
LINE
  8
PT2-Wymiarowanie5
  6
CONTINUOUS
 62
     7
 10
236.5729
 20
81.939000000000021
 11
238.5729
 21
81.939000000000021
  0
LINE
  8
PT2-Wymiarowanie5
  6
CONTINUOUS
 62
     7
 10
236.5729
 20
185.195500000000010
 11
238.5729
 21
185.195500000000010
  0
TEXT
  8
PT2-Wymiarowanie5
  6
CONTINUOUS
 62
     7
 10
236.019900000000010
 20
215.254700000000010
 40
2.000000000000000
 50
90.000000000000000
  1
6,47
  0
TEXT
  8
PT2-Wymiarowanie5
  6
CONTINUOUS
 62
     7
 10
235.266899999999990
 20
221.430100000000010
 40
1.500000000000000
 50
90.000000000000000
  1
5
  0
LINE
  8
PT2-Wymiarowanie5
  6
CONTINUOUS
 62
     7
 10
237.5729
 20
185.195500000000010
 11
237.5729
 21
249.945500000000010
  0
LINE
  8
PT2-Wymiarowanie5
  6
CONTINUOUS
 62
     7
 10
237.5729
 20
184.195500000000010
 11
237.5729
 21
185.195500000000010
  0
LINE
  8
PT2-Wymiarowanie5
  6
CONTINUOUS
 62
     7
 10
237.5729
 20
250.945500000000010
 11
237.5729
 21
249.945500000000010
  0
LINE
  8
PT2-Wymiarowanie5
  6
CONTINUOUS
 62
     7
 10
237.073
 20
185.695400000000010
 11
238.0728
 21
184.695500000000010
  0
LINE
  8
PT2-Wymiarowanie5
  6
CONTINUOUS
 62
     7
 10
237.073
 20
250.445400000000010
 11
238.0728
 21
249.445500000000010
  0
LINE
  8
PT2-Wymiarowanie5
  6
CONTINUOUS
 62
     7
 10
236.5729
 20
185.195500000000010
 11
238.5729
 21
185.195500000000010
  0
LINE
  8
PT2-Wymiarowanie5
  6
CONTINUOUS
 62
     7
 10
236.5729
 20
249.945500000000010
 11
238.5729
 21
249.945500000000010
  0
TEXT
  8
PT2-Wymiarowanie5
  6
CONTINUOUS
 62
     7
 10
276.238299999999980
 20
265.329600000000030
 40
2.000000000000000
  1
2,80
  0
LINE
  8
PT2-Wymiarowanie5
  6
CONTINUOUS
 62
     7
 10
264.9683
 20
263.875600000000020
 11
292.9683
 21
263.875600000000020
  0
LINE
  8
PT2-Wymiarowanie5
  6
CONTINUOUS
 62
     7
 10
263.9683
 20
263.875600000000020
 11
264.9683
 21
263.875600000000020
  0
LINE
  8
PT2-Wymiarowanie5
  6
CONTINUOUS
 62
     7
 10
293.9683
 20
263.875600000000020
 11
292.9683
 21
263.875600000000020
  0
LINE
  8
PT2-Wymiarowanie5
  6
CONTINUOUS
 62
     7
 10
265.4683
 20
264.375499999999990
 11
264.4684
 21
263.375699999999990
  0
LINE
  8
PT2-Wymiarowanie5
  6
CONTINUOUS
 62
     7
 10
293.4683
 20
264.375499999999990
 11
292.4684
 21
263.375699999999990
  0
LINE
  8
PT2-Wymiarowanie5
  6
CONTINUOUS
 62
     7
 10
264.9683
 20
264.875600000000020
 11
264.9683
 21
262.875600000000020
  0
LINE
  8
PT2-Wymiarowanie5
  6
CONTINUOUS
 62
     7
 10
292.9683
 20
264.875600000000020
 11
292.9683
 21
262.875600000000020
  0
TEXT
  8
PT2-Wymiarowanie5
  6
CONTINUOUS
 62
     7
 10
377.708300000000010
 20
265.329600000000030
 40
2.000000000000000
  1
17,65
  0
LINE
  8
PT2-Wymiarowanie5
  6
CONTINUOUS
 62
     7
 10
292.9683
 20
263.875600000000020
 11
469.4683
 21
263.875600000000020
  0
LINE
  8
PT2-Wymiarowanie5
  6
CONTINUOUS
 62
     7
 10
291.9683
 20
263.875600000000020
 11
292.9683
 21
263.875600000000020
  0
LINE
  8
PT2-Wymiarowanie5
  6
CONTINUOUS
 62
     7
 10
470.4683
 20
263.875600000000020
 11
469.4683
 21
263.875600000000020
  0
LINE
  8
PT2-Wymiarowanie5
  6
CONTINUOUS
 62
     7
 10
293.4683
 20
264.375499999999990
 11
292.4684
 21
263.375699999999990
  0
LINE
  8
PT2-Wymiarowanie5
  6
CONTINUOUS
 62
     7
 10
469.9683
 20
264.375499999999990
 11
468.9684
 21
263.375699999999990
  0
LINE
  8
PT2-Wymiarowanie5
  6
CONTINUOUS
 62
     7
 10
292.9683
 20
264.875600000000020
 11
292.9683
 21
262.875600000000020
  0
LINE
  8
PT2-Wymiarowanie5
  6
CONTINUOUS
 62
     7
 10
469.4683
 20
264.875600000000020
 11
469.4683
 21
262.875600000000020
  0
LINE
  8
PT2-Wymiarowanie5
  6
CONTINUOUS
 62
     7
 10
86.666
 20
272.799199999999980
 11
88.166
 21
272.799199999999980
  0
LINE
  8
PT2-Wymiarowanie5
  6
CONTINUOUS
 62
     7
 10
85.666
 20
272.799199999999980
 11
86.666
 21
272.799199999999980
  0
LINE
  8
PT2-Wymiarowanie5
  6
CONTINUOUS
 62
     7
 10
89.166
 20
272.799199999999980
 11
88.166
 21
272.799199999999980
  0
LINE
  8
PT2-Wymiarowanie5
  6
CONTINUOUS
 62
     7
 10
87.166
 20
273.299100000000010
 11
86.1661
 21
272.299199999999980
  0
LINE
  8
PT2-Wymiarowanie5
  6
CONTINUOUS
 62
     7
 10
88.666
 20
273.299100000000010
 11
87.6661
 21
272.299199999999980
  0
LINE
  8
PT2-Wymiarowanie5
  6
CONTINUOUS
 62
     7
 10
86.666
 20
273.799199999999980
 11
86.666
 21
271.799199999999980
  0
LINE
  8
PT2-Wymiarowanie5
  6
CONTINUOUS
 62
     7
 10
88.166
 20
273.799199999999980
 11
88.166
 21
271.799199999999980
  0
TEXT
  8
PT2-Wymiarowanie5
  6
CONTINUOUS
 62
     7
 10
83.681399999999996
 20
274.166699999999990
 40
2.000000000000000
  1
15
  0
LINE
  8
PT2-Wymiarowanie5
  6
CONTINUOUS
 62
     7
 10
88.166
 20
272.799199999999980
 11
92.166
 21
272.799199999999980
  0
LINE
  8
PT2-Wymiarowanie5
  6
CONTINUOUS
 62
     7
 10
87.166
 20
272.799199999999980
 11
88.166
 21
272.799199999999980
  0
LINE
  8
PT2-Wymiarowanie5
  6
CONTINUOUS
 62
     7
 10
93.166
 20
272.799199999999980
 11
92.166
 21
272.799199999999980
  0
LINE
  8
PT2-Wymiarowanie5
  6
CONTINUOUS
 62
     7
 10
88.666
 20
273.299100000000010
 11
87.6661
 21
272.299199999999980
  0
LINE
  8
PT2-Wymiarowanie5
  6
CONTINUOUS
 62
     7
 10
92.666
 20
273.299100000000010
 11
91.6661
 21
272.299199999999980
  0
LINE
  8
PT2-Wymiarowanie5
  6
CONTINUOUS
 62
     7
 10
88.166
 20
273.799199999999980
 11
88.166
 21
271.799199999999980
  0
LINE
  8
PT2-Wymiarowanie5
  6
CONTINUOUS
 62
     7
 10
92.166
 20
273.799199999999980
 11
92.166
 21
271.799199999999980
  0
TEXT
  8
PT2-Wymiarowanie5
  6
CONTINUOUS
 62
     7
 10
88.724599999999995
 20
274.166699999999990
 40
2.000000000000000
  1
40
  0
LINE
  8
PT2-Wymiarowanie5
  6
CONTINUOUS
 62
     7
 10
92.166
 20
272.799199999999980
 11
93.666
 21
272.799199999999980
  0
LINE
  8
PT2-Wymiarowanie5
  6
CONTINUOUS
 62
     7
 10
91.166
 20
272.799199999999980
 11
92.166
 21
272.799199999999980
  0
LINE
  8
PT2-Wymiarowanie5
  6
CONTINUOUS
 62
     7
 10
94.666
 20
272.799199999999980
 11
93.666
 21
272.799199999999980
  0
LINE
  8
PT2-Wymiarowanie5
  6
CONTINUOUS
 62
     7
 10
92.666
 20
273.299100000000010
 11
91.6661
 21
272.299199999999980
  0
LINE
  8
PT2-Wymiarowanie5
  6
CONTINUOUS
 62
     7
 10
94.166
 20
273.299100000000010
 11
93.1661
 21
272.299199999999980
  0
LINE
  8
PT2-Wymiarowanie5
  6
CONTINUOUS
 62
     7
 10
92.166
 20
273.799199999999980
 11
92.166
 21
271.799199999999980
  0
LINE
  8
PT2-Wymiarowanie5
  6
CONTINUOUS
 62
     7
 10
93.666
 20
273.799199999999980
 11
93.666
 21
271.799199999999980
  0
TEXT
  8
PT2-Wymiarowanie5
  6
CONTINUOUS
 62
     7
 10
93.906300000000002
 20
274.166699999999990
 40
2.000000000000000
  1
15
  0
LINE
  8
PT2-Wymiarowanie5
  6
CONTINUOUS
 62
     7
 10
147.3389
 20
273.097899999999980
 11
151.3389
 21
273.080600000000000
  0
LINE
  8
PT2-Wymiarowanie5
  6
CONTINUOUS
 62
     7
 10
146.3389
 20
273.102199999999980
 11
147.3389
 21
273.097899999999980
  0
LINE
  8
PT2-Wymiarowanie5
  6
CONTINUOUS
 62
     7
 10
152.3389
 20
273.076300000000000
 11
151.3389
 21
273.080600000000000
  0
LINE
  8
PT2-Wymiarowanie5
  6
CONTINUOUS
 62
     7
 10
147.841
 20
273.595599999999990
 11
146.8368
 21
272.600100000000000
  0
LINE
  8
PT2-Wymiarowanie5
  6
CONTINUOUS
 62
     7
 10
151.841
 20
273.578300000000010
 11
150.8368
 21
272.582800000000020
  0
LINE
  8
PT2-Wymiarowanie5
  6
CONTINUOUS
 62
     7
 10
147.3432
 20
274.097899999999980
 11
147.3346
 21
272.097899999999980
  0
LINE
  8
PT2-Wymiarowanie5
  6
CONTINUOUS
 62
     7
 10
151.3432
 20
274.080600000000000
 11
151.3346
 21
272.080600000000000
  0
TEXT
  8
PT2-Wymiarowanie5
  6
CONTINUOUS
 62
     7
 10
147.413500000000000
 20
274.358400000000020
 40
2.000000000000000
 50
359.800000000000010
  1
40
  0
LINE
  8
PT2-Wymiarowanie5
  6
CONTINUOUS
 62
     7
 10
151.2885
 20
273.080500000000030
 11
154.2886
 21
273.097800000000010
  0
LINE
  8
PT2-Wymiarowanie5
  6
CONTINUOUS
 62
     7
 10
150.2885
 20
273.074799999999980
 11
151.2885
 21
273.080500000000030
  0
LINE
  8
PT2-Wymiarowanie5
  6
CONTINUOUS
 62
     7
 10
155.2886
 20
273.103600000000030
 11
154.2886
 21
273.097800000000010
  0
LINE
  8
PT2-Wymiarowanie5
  6
CONTINUOUS
 62
     7
 10
151.7856
 20
273.583300000000010
 11
150.7915
 21
272.577800000000020
  0
LINE
  8
PT2-Wymiarowanie5
  6
CONTINUOUS
 62
     7
 10
154.7857
 20
273.600599999999990
 11
153.7916
 21
272.595000000000030
  0
LINE
  8
PT2-Wymiarowanie5
  6
CONTINUOUS
 62
     7
 10
151.2828
 20
274.080500000000030
 11
151.2943
 21
272.080600000000000
  0
LINE
  8
PT2-Wymiarowanie5
  6
CONTINUOUS
 62
     7
 10
154.2829
 20
274.097800000000010
 11
154.2944
 21
272.097800000000010
  0
TEXT
  8
PT2-Wymiarowanie5
  6
CONTINUOUS
 62
     7
 10
151.162700000000000
 20
274.418700000000000
 40
2.000000000000000
 50
0.300000000000000
  1
30
  0
LINE
  8
PT2-Wymiarowanie5
  6
CONTINUOUS
 62
     7
 10
154.3174
 20
273.097899999999980
 11
154.5183
 21
273.097899999999980
  0
LINE
  8
PT2-Wymiarowanie5
  6
CONTINUOUS
 62
     7
 10
153.3174
 20
273.097899999999980
 11
154.3174
 21
273.097899999999980
  0
LINE
  8
PT2-Wymiarowanie5
  6
CONTINUOUS
 62
     7
 10
155.5183
 20
273.097899999999980
 11
154.5183
 21
273.097899999999980
  0
LINE
  8
PT2-Wymiarowanie5
  6
CONTINUOUS
 62
     7
 10
154.8174
 20
273.597800000000010
 11
153.8175
 21
272.598000000000010
  0
LINE
  8
PT2-Wymiarowanie5
  6
CONTINUOUS
 62
     7
 10
155.0183
 20
273.597800000000010
 11
154.0184
 21
272.598000000000010
  0
LINE
  8
PT2-Wymiarowanie5
  6
CONTINUOUS
 62
     7
 10
154.3174
 20
274.097899999999980
 11
154.3174
 21
272.097899999999980
  0
LINE
  8
PT2-Wymiarowanie5
  6
CONTINUOUS
 62
     7
 10
154.5183
 20
274.097899999999980
 11
154.5183
 21
272.097899999999980
  0
TEXT
  8
PT2-Wymiarowanie5
  6
CONTINUOUS
 62
     7
 10
155.593700000000010
 20
274.290100000000000
 40
2.000000000000000
  1
2
  0
LINE
  8
PT2-Wymiarowanie5
  6
CONTINUOUS
 62
     7
 10
116.3497
 20
286.045500000000000
 11
116.3497
 21
284.545500000000000
  0
LINE
  8
PT2-Wymiarowanie5
  6
CONTINUOUS
 62
     7
 10
116.3497
 20
287.045500000000000
 11
116.3497
 21
286.045500000000000
  0
LINE
  8
PT2-Wymiarowanie5
  6
CONTINUOUS
 62
     7
 10
116.3497
 20
283.545500000000000
 11
116.3497
 21
284.545500000000000
  0
LINE
  8
PT2-Wymiarowanie5
  6
CONTINUOUS
 62
     7
 10
116.8496
 20
285.545500000000000
 11
115.8498
 21
286.545399999999970
  0
LINE
  8
PT2-Wymiarowanie5
  6
CONTINUOUS
 62
     7
 10
116.8496
 20
284.045500000000000
 11
115.8498
 21
285.045399999999970
  0
LINE
  8
PT2-Wymiarowanie5
  6
CONTINUOUS
 62
     7
 10
115.3497
 20
286.045500000000000
 11
117.3497
 21
286.045500000000000
  0
LINE
  8
PT2-Wymiarowanie5
  6
CONTINUOUS
 62
     7
 10
115.3497
 20
284.545500000000000
 11
117.3497
 21
284.545500000000000
  0
TEXT
  8
PT2-Wymiarowanie5
  6
CONTINUOUS
 62
     7
 10
114.906000000000010
 20
283.622500000000000
 40
2.000000000000000
 50
450.000000000000000
  1
15
  0
LINE
  8
PT2-Wymiarowanie5
  6
CONTINUOUS
 62
     7
 10
116.3497
 20
284.545500000000000
 11
116.3497
 21
280.545500000000000
  0
LINE
  8
PT2-Wymiarowanie5
  6
CONTINUOUS
 62
     7
 10
116.3497
 20
285.545500000000000
 11
116.3497
 21
284.545500000000000
  0
LINE
  8
PT2-Wymiarowanie5
  6
CONTINUOUS
 62
     7
 10
116.3497
 20
279.545500000000000
 11
116.3497
 21
280.545500000000000
  0
LINE
  8
PT2-Wymiarowanie5
  6
CONTINUOUS
 62
     7
 10
116.8496
 20
284.045500000000000
 11
115.8498
 21
285.045399999999970
  0
LINE
  8
PT2-Wymiarowanie5
  6
CONTINUOUS
 62
     7
 10
116.8496
 20
280.045500000000000
 11
115.8498
 21
281.045399999999970
  0
LINE
  8
PT2-Wymiarowanie5
  6
CONTINUOUS
 62
     7
 10
115.3497
 20
284.545500000000000
 11
117.3497
 21
284.545500000000000
  0
LINE
  8
PT2-Wymiarowanie5
  6
CONTINUOUS
 62
     7
 10
115.3497
 20
280.545500000000000
 11
117.3497
 21
280.545500000000000
  0
TEXT
  8
PT2-Wymiarowanie5
  6
CONTINUOUS
 62
     7
 10
114.782700000000010
 20
278.687500000000000
 40
2.000000000000000
 50
450.000000000000000
  1
40
  0
LINE
  8
PT2-Wymiarowanie5
  6
CONTINUOUS
 62
     7
 10
116.3497
 20
280.545500000000000
 11
116.3497
 21
279.045500000000000
  0
LINE
  8
PT2-Wymiarowanie5
  6
CONTINUOUS
 62
     7
 10
116.3497
 20
281.545500000000000
 11
116.3497
 21
280.545500000000000
  0
LINE
  8
PT2-Wymiarowanie5
  6
CONTINUOUS
 62
     7
 10
116.3497
 20
278.045500000000000
 11
116.3497
 21
279.045500000000000
  0
LINE
  8
PT2-Wymiarowanie5
  6
CONTINUOUS
 62
     7
 10
116.8496
 20
280.045500000000000
 11
115.8498
 21
281.045399999999970
  0
LINE
  8
PT2-Wymiarowanie5
  6
CONTINUOUS
 62
     7
 10
116.8496
 20
278.545500000000000
 11
115.8498
 21
279.545399999999970
  0
LINE
  8
PT2-Wymiarowanie5
  6
CONTINUOUS
 62
     7
 10
115.3497
 20
280.545500000000000
 11
117.3497
 21
280.545500000000000
  0
LINE
  8
PT2-Wymiarowanie5
  6
CONTINUOUS
 62
     7
 10
115.3497
 20
279.045500000000000
 11
117.3497
 21
279.045500000000000
  0
TEXT
  8
PT2-Wymiarowanie5
  6
CONTINUOUS
 62
     7
 10
115.152800000000000
 20
273.466999999999980
 40
2.000000000000000
 50
450.000000000000000
  1
15
  0
LINE
  8
PT2-Wymiarowanie5
  6
CONTINUOUS
 62
     7
 10
116.5964
 20
256.137700000000000
 11
116.604
 21
252.137700000000000
  0
LINE
  8
PT2-Wymiarowanie5
  6
CONTINUOUS
 62
     7
 10
116.5945
 20
257.137700000000000
 11
116.5964
 21
256.137700000000000
  0
LINE
  8
PT2-Wymiarowanie5
  6
CONTINUOUS
 62
     7
 10
116.6059
 20
251.137700000000000
 11
116.604
 21
252.137700000000000
  0
LINE
  8
PT2-Wymiarowanie5
  6
CONTINUOUS
 62
     7
 10
117.0973
 20
255.638700000000000
 11
116.0955
 21
256.636700000000020
  0
LINE
  8
PT2-Wymiarowanie5
  6
CONTINUOUS
 62
     7
 10
117.1049
 20
251.638700000000000
 11
116.1032
 21
252.636699999999990
  0
LINE
  8
PT2-Wymiarowanie5
  6
CONTINUOUS
 62
     7
 10
115.5964
 20
256.135800000000020
 11
117.5964
 21
256.139599999999970
  0
LINE
  8
PT2-Wymiarowanie5
  6
CONTINUOUS
 62
     7
 10
115.604
 20
252.135799999999990
 11
117.604
 21
252.139600000000000
  0
TEXT
  8
PT2-Wymiarowanie5
  6
CONTINUOUS
 62
     7
 10
115.029400000000000
 20
250.681900000000010
 40
2.000000000000000
 50
450.100000000000020
  1
40
  0
LINE
  8
PT2-Wymiarowanie5
  6
CONTINUOUS
 62
     7
 10
116.604
 20
252.142100000000000
 11
116.5964
 21
249.142000000000000
  0
LINE
  8
PT2-Wymiarowanie5
  6
CONTINUOUS
 62
     7
 10
116.6066
 20
253.142100000000000
 11
116.604
 21
252.142100000000000
  0
LINE
  8
PT2-Wymiarowanie5
  6
CONTINUOUS
 62
     7
 10
116.5939
 20
248.142000000000000
 11
116.5964
 21
249.142000000000000
  0
LINE
  8
PT2-Wymiarowanie5
  6
CONTINUOUS
 62
     7
 10
117.1027
 20
251.640899999999990
 11
116.1054
 21
252.643300000000010
  0
LINE
  8
PT2-Wymiarowanie5
  6
CONTINUOUS
 62
     7
 10
117.0951
 20
248.640800000000010
 11
116.0978
 21
249.643200000000010
  0
LINE
  8
PT2-Wymiarowanie5
  6
CONTINUOUS
 62
     7
 10
115.604
 20
252.144700000000000
 11
117.604
 21
252.139600000000000
  0
LINE
  8
PT2-Wymiarowanie5
  6
CONTINUOUS
 62
     7
 10
115.5964
 20
249.144600000000000
 11
117.5964
 21
249.139500000000000
  0
TEXT
  8
PT2-Wymiarowanie5
  6
CONTINUOUS
 62
     7
 10
114.819999999999990
 20
246.732300000000010
 40
2.000000000000000
 50
449.899999999999980
  1
30
  0
LINE
  8
PT2-Wymiarowanie5
  6
CONTINUOUS
 62
     7
 10
116.5964
 20
249.139500000000000
 11
116.5964
 21
248.945500000000010
  0
LINE
  8
PT2-Wymiarowanie5
  6
CONTINUOUS
 62
     7
 10
116.5964
 20
250.139500000000000
 11
116.5964
 21
249.139500000000000
  0
LINE
  8
PT2-Wymiarowanie5
  6
CONTINUOUS
 62
     7
 10
116.5964
 20
247.945500000000010
 11
116.5964
 21
248.945500000000010
  0
LINE
  8
PT2-Wymiarowanie5
  6
CONTINUOUS
 62
     7
 10
117.0963
 20
248.639600000000000
 11
116.0965
 21
249.639399999999990
  0
LINE
  8
PT2-Wymiarowanie5
  6
CONTINUOUS
 62
     7
 10
117.0963
 20
248.445500000000010
 11
116.0965
 21
249.445400000000010
  0
LINE
  8
PT2-Wymiarowanie5
  6
CONTINUOUS
 62
     7
 10
115.5964
 20
249.139500000000000
 11
117.5964
 21
249.139500000000000
  0
LINE
  8
PT2-Wymiarowanie5
  6
CONTINUOUS
 62
     7
 10
115.5964
 20
248.945500000000010
 11
117.5964
 21
248.945500000000010
  0
TEXT
  8
PT2-Wymiarowanie5
  6
CONTINUOUS
 62
     7
 10
115.029400000000000
 20
244.636000000000000
 40
2.000000000000000
 50
450.000000000000000
  1
2
  0
TEXT
  8
PT2-Wymiarowanie5
  6
CONTINUOUS
 62
     7
 10
88.605999999999995
 20
296.668599999999970
 40
2.000000000000000
  1
70
  0
LINE
  8
PT2-Wymiarowanie5
  6
CONTINUOUS
 62
     7
 10
86.666
 20
295.214600000000020
 11
93.666
 21
295.214600000000020
  0
LINE
  8
PT2-Wymiarowanie5
  6
CONTINUOUS
 62
     7
 10
85.666
 20
295.214600000000020
 11
86.666
 21
295.214600000000020
  0
LINE
  8
PT2-Wymiarowanie5
  6
CONTINUOUS
 62
     7
 10
94.666
 20
295.214600000000020
 11
93.666
 21
295.214600000000020
  0
LINE
  8
PT2-Wymiarowanie5
  6
CONTINUOUS
 62
     7
 10
87.166
 20
295.714600000000020
 11
86.1661
 21
294.714699999999990
  0
LINE
  8
PT2-Wymiarowanie5
  6
CONTINUOUS
 62
     7
 10
94.166
 20
295.714600000000020
 11
93.1661
 21
294.714699999999990
  0
LINE
  8
PT2-Wymiarowanie5
  6
CONTINUOUS
 62
     7
 10
86.666
 20
296.214600000000020
 11
86.666
 21
294.214600000000020
  0
LINE
  8
PT2-Wymiarowanie5
  6
CONTINUOUS
 62
     7
 10
93.666
 20
296.214600000000020
 11
93.666
 21
294.214600000000020
  0
TEXT
  8
PT2-Wymiarowanie5
  6
CONTINUOUS
 62
     7
 10
117.762000000000000
 20
296.668599999999970
 40
2.000000000000000
  1
5,36
  0
TEXT
  8
PT2-Wymiarowanie5
  6
CONTINUOUS
 62
     7
 10
124.041000000000000
 20
297.397600000000010
 40
1.500000000000000
  1
5
  0
LINE
  8
PT2-Wymiarowanie5
  6
CONTINUOUS
 62
     7
 10
93.666
 20
295.214600000000020
 11
147.3179
 21
295.214600000000020
  0
LINE
  8
PT2-Wymiarowanie5
  6
CONTINUOUS
 62
     7
 10
92.666
 20
295.214600000000020
 11
93.666
 21
295.214600000000020
  0
LINE
  8
PT2-Wymiarowanie5
  6
CONTINUOUS
 62
     7
 10
148.3179
 20
295.214600000000020
 11
147.3179
 21
295.214600000000020
  0
LINE
  8
PT2-Wymiarowanie5
  6
CONTINUOUS
 62
     7
 10
94.166
 20
295.714600000000020
 11
93.1661
 21
294.714699999999990
  0
LINE
  8
PT2-Wymiarowanie5
  6
CONTINUOUS
 62
     7
 10
147.8178
 20
295.714600000000020
 11
146.818
 21
294.714699999999990
  0
LINE
  8
PT2-Wymiarowanie5
  6
CONTINUOUS
 62
     7
 10
93.666
 20
296.214600000000020
 11
93.666
 21
294.214600000000020
  0
LINE
  8
PT2-Wymiarowanie5
  6
CONTINUOUS
 62
     7
 10
147.3179
 20
296.214600000000020
 11
147.3179
 21
294.214600000000020
  0
TEXT
  8
PT2-Wymiarowanie5
  6
CONTINUOUS
 62
     7
 10
149.258100000000010
 20
296.668599999999970
 40
2.000000000000000
  1
70
  0
LINE
  8
PT2-Wymiarowanie5
  6
CONTINUOUS
 62
     7
 10
147.3179
 20
295.214600000000020
 11
154.3183
 21
295.214600000000020
  0
LINE
  8
PT2-Wymiarowanie5
  6
CONTINUOUS
 62
     7
 10
146.3179
 20
295.214600000000020
 11
147.3179
 21
295.214600000000020
  0
LINE
  8
PT2-Wymiarowanie5
  6
CONTINUOUS
 62
     7
 10
155.3183
 20
295.214600000000020
 11
154.3183
 21
295.214600000000020
  0
LINE
  8
PT2-Wymiarowanie5
  6
CONTINUOUS
 62
     7
 10
147.8178
 20
295.714600000000020
 11
146.818
 21
294.714699999999990
  0
LINE
  8
PT2-Wymiarowanie5
  6
CONTINUOUS
 62
     7
 10
154.8182
 20
295.714600000000020
 11
153.8184
 21
294.714699999999990
  0
LINE
  8
PT2-Wymiarowanie5
  6
CONTINUOUS
 62
     7
 10
147.3179
 20
296.214600000000020
 11
147.3179
 21
294.214600000000020
  0
LINE
  8
PT2-Wymiarowanie5
  6
CONTINUOUS
 62
     7
 10
154.3183
 20
296.214600000000020
 11
154.3183
 21
294.214600000000020
  0
LINE
  8
PT2-Wymiarowanie5
  6
CONTINUOUS
 62
     7
 10
154.3183
 20
295.214600000000020
 11
154.5183
 21
295.214600000000020
  0
LINE
  8
PT2-Wymiarowanie5
  6
CONTINUOUS
 62
     7
 10
153.3183
 20
295.214600000000020
 11
154.3183
 21
295.214600000000020
  0
LINE
  8
PT2-Wymiarowanie5
  6
CONTINUOUS
 62
     7
 10
155.5183
 20
295.214600000000020
 11
154.5183
 21
295.214600000000020
  0
LINE
  8
PT2-Wymiarowanie5
  6
CONTINUOUS
 62
     7
 10
154.8182
 20
295.714600000000020
 11
153.8184
 21
294.714699999999990
  0
LINE
  8
PT2-Wymiarowanie5
  6
CONTINUOUS
 62
     7
 10
155.0183
 20
295.714600000000020
 11
154.0184
 21
294.714699999999990
  0
LINE
  8
PT2-Wymiarowanie5
  6
CONTINUOUS
 62
     7
 10
154.3183
 20
296.214600000000020
 11
154.3183
 21
294.214600000000020
  0
LINE
  8
PT2-Wymiarowanie5
  6
CONTINUOUS
 62
     7
 10
154.5183
 20
296.214600000000020
 11
154.5183
 21
294.214600000000020
  0
TEXT
  8
PT2-Wymiarowanie5
  6
CONTINUOUS
 62
     7
 10
155.223600000000000
 20
296.374199999999970
 40
2.000000000000000
  1
2
  0
TEXT
  8
PT2-Wymiarowanie5
  6
CONTINUOUS
 62
     7
 10
117.762100000000000
 20
301.590599999999990
 40
2.000000000000000
  1
6,76
  0
TEXT
  8
PT2-Wymiarowanie5
  6
CONTINUOUS
 62
     7
 10
124.041100000000000
 20
302.319599999999980
 40
1.500000000000000
  1
5
  0
LINE
  8
PT2-Wymiarowanie5
  6
CONTINUOUS
 62
     7
 10
86.666
 20
300.136599999999990
 11
154.3182
 21
300.136599999999990
  0
LINE
  8
PT2-Wymiarowanie5
  6
CONTINUOUS
 62
     7
 10
85.666
 20
300.136599999999990
 11
86.666
 21
300.136599999999990
  0
LINE
  8
PT2-Wymiarowanie5
  6
CONTINUOUS
 62
     7
 10
155.3182
 20
300.136599999999990
 11
154.3182
 21
300.136599999999990
  0
LINE
  8
PT2-Wymiarowanie5
  6
CONTINUOUS
 62
     7
 10
87.166
 20
300.636599999999990
 11
86.1661
 21
299.636700000000020
  0
LINE
  8
PT2-Wymiarowanie5
  6
CONTINUOUS
 62
     7
 10
154.8181
 20
300.636599999999990
 11
153.8183
 21
299.636700000000020
  0
LINE
  8
PT2-Wymiarowanie5
  6
CONTINUOUS
 62
     7
 10
86.666
 20
301.136599999999990
 11
86.666
 21
299.136599999999990
  0
LINE
  8
PT2-Wymiarowanie5
  6
CONTINUOUS
 62
     7
 10
154.3182
 20
301.136599999999990
 11
154.3182
 21
299.136599999999990
  0
TEXT
  8
PT2-Wymiarowanie5
  6
CONTINUOUS
 62
     7
 10
73.589200000000005
 20
278.571199999999980
 40
2.000000000000000
 50
450.000000000000000
  1
70
  0
LINE
  8
PT2-Wymiarowanie5
  6
CONTINUOUS
 62
     7
 10
75.1422
 20
286.045500000000000
 11
75.1422
 21
279.045500000000000
  0
LINE
  8
PT2-Wymiarowanie5
  6
CONTINUOUS
 62
     7
 10
75.1422
 20
287.045500000000000
 11
75.1422
 21
286.045500000000000
  0
LINE
  8
PT2-Wymiarowanie5
  6
CONTINUOUS
 62
     7
 10
75.1422
 20
278.045500000000000
 11
75.1422
 21
279.045500000000000
  0
LINE
  8
PT2-Wymiarowanie5
  6
CONTINUOUS
 62
     7
 10
75.6421
 20
285.545500000000000
 11
74.6423
 21
286.545399999999970
  0
LINE
  8
PT2-Wymiarowanie5
  6
CONTINUOUS
 62
     7
 10
75.6421
 20
278.545500000000000
 11
74.6423
 21
279.545399999999970
  0
LINE
  8
PT2-Wymiarowanie5
  6
CONTINUOUS
 62
     7
 10
74.1422
 20
286.045500000000000
 11
76.1422
 21
286.045500000000000
  0
LINE
  8
PT2-Wymiarowanie5
  6
CONTINUOUS
 62
     7
 10
74.1422
 20
279.045500000000000
 11
76.1422
 21
279.045500000000000
  0
TEXT
  8
PT2-Wymiarowanie5
  6
CONTINUOUS
 62
     7
 10
73.589200000000005
 20
262.446900000000030
 40
2.000000000000000
 50
450.000000000000000
  1
2,29
  0
LINE
  8
PT2-Wymiarowanie5
  6
CONTINUOUS
 62
     7
 10
75.1422
 20
279.045500000000000
 11
75.1422
 21
256.136700000000020
  0
LINE
  8
PT2-Wymiarowanie5
  6
CONTINUOUS
 62
     7
 10
75.1422
 20
280.045500000000000
 11
75.1422
 21
279.045500000000000
  0
LINE
  8
PT2-Wymiarowanie5
  6
CONTINUOUS
 62
     7
 10
75.1422
 20
255.136699999999990
 11
75.1422
 21
256.136700000000020
  0
LINE
  8
PT2-Wymiarowanie5
  6
CONTINUOUS
 62
     7
 10
75.6421
 20
278.545500000000000
 11
74.6423
 21
279.545399999999970
  0
LINE
  8
PT2-Wymiarowanie5
  6
CONTINUOUS
 62
     7
 10
75.6421
 20
255.636799999999990
 11
74.6423
 21
256.636599999999990
  0
LINE
  8
PT2-Wymiarowanie5
  6
CONTINUOUS
 62
     7
 10
74.1422
 20
279.045500000000000
 11
76.1422
 21
279.045500000000000
  0
LINE
  8
PT2-Wymiarowanie5
  6
CONTINUOUS
 62
     7
 10
74.1422
 20
256.136700000000020
 11
76.1422
 21
256.136700000000020
  0
TEXT
  8
PT2-Wymiarowanie5
  6
CONTINUOUS
 62
     7
 10
73.589200000000005
 20
248.662299999999990
 40
2.000000000000000
 50
450.000000000000000
  1
70
  0
LINE
  8
PT2-Wymiarowanie5
  6
CONTINUOUS
 62
     7
 10
75.1422
 20
256.136700000000020
 11
75.1422
 21
249.136200000000000
  0
LINE
  8
PT2-Wymiarowanie5
  6
CONTINUOUS
 62
     7
 10
75.1422
 20
257.136700000000020
 11
75.1422
 21
256.136700000000020
  0
LINE
  8
PT2-Wymiarowanie5
  6
CONTINUOUS
 62
     7
 10
75.1422
 20
248.136200000000000
 11
75.1422
 21
249.136200000000000
  0
LINE
  8
PT2-Wymiarowanie5
  6
CONTINUOUS
 62
     7
 10
75.6421
 20
255.636799999999990
 11
74.6423
 21
256.636599999999990
  0
LINE
  8
PT2-Wymiarowanie5
  6
CONTINUOUS
 62
     7
 10
75.6421
 20
248.636300000000010
 11
74.6423
 21
249.636100000000000
  0
LINE
  8
PT2-Wymiarowanie5
  6
CONTINUOUS
 62
     7
 10
74.1422
 20
256.136700000000020
 11
76.1422
 21
256.136700000000020
  0
LINE
  8
PT2-Wymiarowanie5
  6
CONTINUOUS
 62
     7
 10
74.1422
 20
249.136200000000000
 11
76.1422
 21
249.136200000000000
  0
LINE
  8
PT2-Wymiarowanie5
  6
CONTINUOUS
 62
     7
 10
75.1422
 20
249.136200000000000
 11
75.1422
 21
248.945500000000010
  0
LINE
  8
PT2-Wymiarowanie5
  6
CONTINUOUS
 62
     7
 10
75.1422
 20
250.136200000000000
 11
75.1422
 21
249.136200000000000
  0
LINE
  8
PT2-Wymiarowanie5
  6
CONTINUOUS
 62
     7
 10
75.1422
 20
247.945500000000010
 11
75.1422
 21
248.945500000000010
  0
LINE
  8
PT2-Wymiarowanie5
  6
CONTINUOUS
 62
     7
 10
75.6421
 20
248.636300000000010
 11
74.6423
 21
249.636100000000000
  0
LINE
  8
PT2-Wymiarowanie5
  6
CONTINUOUS
 62
     7
 10
75.6421
 20
248.445500000000010
 11
74.6423
 21
249.445400000000010
  0
LINE
  8
PT2-Wymiarowanie5
  6
CONTINUOUS
 62
     7
 10
74.1422
 20
249.136200000000000
 11
76.1422
 21
249.136200000000000
  0
LINE
  8
PT2-Wymiarowanie5
  6
CONTINUOUS
 62
     7
 10
74.1422
 20
248.945500000000010
 11
76.1422
 21
248.945500000000010
  0
TEXT
  8
PT2-Wymiarowanie5
  6
CONTINUOUS
 62
     7
 10
73.452100000000002
 20
244.636000000000000
 40
2.000000000000000
 50
450.000000000000000
  1
2
  0
TEXT
  8
PT2-Wymiarowanie5
  6
CONTINUOUS
 62
     7
 10
69.563199999999995
 20
262.447000000000000
 40
2.000000000000000
 50
450.000000000000000
  1
3,69
  0
LINE
  8
PT2-Wymiarowanie5
  6
CONTINUOUS
 62
     7
 10
71.1162
 20
286.045500000000000
 11
71.1162
 21
249.137100000000000
  0
LINE
  8
PT2-Wymiarowanie5
  6
CONTINUOUS
 62
     7
 10
71.1162
 20
287.045500000000000
 11
71.1162
 21
286.045500000000000
  0
LINE
  8
PT2-Wymiarowanie5
  6
CONTINUOUS
 62
     7
 10
71.1162
 20
248.137100000000000
 11
71.1162
 21
249.137100000000000
  0
LINE
  8
PT2-Wymiarowanie5
  6
CONTINUOUS
 62
     7
 10
71.6161
 20
285.545500000000000
 11
70.6163
 21
286.545399999999970
  0
LINE
  8
PT2-Wymiarowanie5
  6
CONTINUOUS
 62
     7
 10
71.6161
 20
248.637100000000000
 11
70.6163
 21
249.637000000000000
  0
LINE
  8
PT2-Wymiarowanie5
  6
CONTINUOUS
 62
     7
 10
70.1162
 20
286.045500000000000
 11
72.1162
 21
286.045500000000000
  0
LINE
  8
PT2-Wymiarowanie5
  6
CONTINUOUS
 62
     7
 10
70.1162
 20
249.137100000000000
 11
72.1162
 21
249.137100000000000
  0
LINE
  8
PT2-Rzut2
  6
CONTINUOUS
 62
     7
 10
268.1778
 20
135.488300000000010
 11
268.1778
 21
134.688300000000000
  0
LINE
  8
PT2-Rzut2
  6
CONTINUOUS
 62
     7
 10
268.3778
 20
137.188300000000000
 11
268.3778
 21
139.249000000000000
  0
LINE
  8
PT2-Rzut2
  6
CONTINUOUS
 62
     7
 10
268.1778
 20
134.688300000000000
 11
268.1778
 21
123.188300000000030
  0
LINE
  8
PT2-Rzut2
  6
CONTINUOUS
 62
     7
 10
265.1321
 20
123.177799999999990
 11
265.1321
 21
119.177799999999990
  0
LINE
  8
PT2-Rzut2
  6
CONTINUOUS
 62
     7
 10
272.1321
 20
123.177799999999990
 11
272.1321
 21
119.177799999999990
  0
LINE
  8
PT2-Rzut2
  6
CONTINUOUS
 62
     7
 10
265.1321
 20
118.177799999999990
 11
272.1321
 21
118.177799999999990
  0
LINE
  8
PT2-Rzut2
  6
CONTINUOUS
 62
     7
 10
264.5547
 20
119.177799999999990
 11
272.7094
 21
119.177799999999990
  0
LINE
  8
PT2-Rzut2
  6
CONTINUOUS
 62
     7
 10
265.1321
 20
123.177799999999990
 11
272.1321
 21
123.177799999999990
  0
LINE
  8
PT2-Rzut2
  6
CONTINUOUS
 62
     7
 10
268.2279
 20
135.790799999999990
 11
268.3279
 21
135.740800000000010
  0
LINE
  8
PT2-Rzut2
  6
CONTINUOUS
 62
     7
 10
268.3779
 20
137.188300000000000
 11
268.3779
 21
135.588300000000000
  0
LINE
  8
PT2-Rzut2
  6
CONTINUOUS
 62
     7
 10
265.1778
 20
138.088300000000000
 11
265.1778
 21
135.708300000000010
  0
LINE
  8
PT2-Rzut2
  6
CONTINUOUS
 62
     7
 10
268.1778
 20
135.708300000000010
 11
268.1778
 21
138.088300000000000
  0
LINE
  8
PT2-Rzut2
  6
CONTINUOUS
 62
     7
 10
265.1778
 20
135.488300000000010
 11
278.1778
 21
135.488300000000010
  0
LINE
  8
PT2-Rzut2
  6
CONTINUOUS
 62
     7
 10
268.1778
 20
134.688300000000000
 11
278.1778
 21
134.688300000000000
  0
LINE
  8
PT2-Rzut2
  6
CONTINUOUS
 62
     7
 10
268.1778
 20
135.588300000000000
 11
278.1778
 21
135.588300000000000
  0
LINE
  8
PT2-Rzut2
  6
CONTINUOUS
 62
     7
 10
265.1778
 20
135.588300000000000
 11
268.1778
 21
135.588300000000000
  0
LINE
  8
PT2-Rzut2
  6
CONTINUOUS
 62
     7
 10
265.1778
 20
135.708300000000010
 11
268.1778
 21
135.708300000000010
  0
LINE
  8
PT2-Rzut2
  6
CONTINUOUS
 62
     7
 10
267.6778
 20
135.588300000000000
 11
267.6778
 21
135.488300000000010
  0
LINE
  8
PT2-Rzut2
  6
CONTINUOUS
 62
     7
 10
266.6778
 20
135.588300000000000
 11
266.6778
 21
135.488300000000010
  0
LINE
  8
PT2-Rzut2
  6
CONTINUOUS
 62
     7
 10
267.1778
 20
135.588300000000000
 11
267.1778
 21
135.488300000000010
  0
LINE
  8
PT2-Rzut2
  6
CONTINUOUS
 62
     7
 10
265.6778
 20
135.588300000000000
 11
265.6778
 21
135.488300000000010
  0
LINE
  8
PT2-Rzut2
  6
CONTINUOUS
 62
     7
 10
265.1778
 20
135.588300000000000
 11
265.1778
 21
135.488300000000010
  0
LINE
  8
PT2-Rzut2
  6
CONTINUOUS
 62
     7
 10
266.1778
 20
135.588300000000000
 11
266.1778
 21
135.488300000000010
  0
LINE
  8
PT2-Rzut2
  6
CONTINUOUS
 62
     7
 10
266.1778
 20
135.588300000000000
 11
266.1778
 21
135.488300000000010
  0
LINE
  8
PT2-Rzut2
  6
CONTINUOUS
 62
     7
 10
271.1778
 20
135.588300000000000
 11
271.1778
 21
135.488300000000010
  0
LINE
  8
PT2-Rzut2
  6
CONTINUOUS
 62
     7
 10
271.6778
 20
135.588300000000000
 11
271.6778
 21
135.488300000000010
  0
LINE
  8
PT2-Rzut2
  6
CONTINUOUS
 62
     7
 10
270.1778
 20
135.588300000000000
 11
270.1778
 21
135.488300000000010
  0
LINE
  8
PT2-Rzut2
  6
CONTINUOUS
 62
     7
 10
269.1778
 20
135.588300000000000
 11
269.1778
 21
135.488300000000010
  0
LINE
  8
PT2-Rzut2
  6
CONTINUOUS
 62
     7
 10
269.6778
 20
135.588300000000000
 11
269.6778
 21
135.488300000000010
  0
LINE
  8
PT2-Rzut2
  6
CONTINUOUS
 62
     7
 10
268.6778
 20
135.588300000000000
 11
268.6778
 21
135.488300000000010
  0
LINE
  8
PT2-Rzut2
  6
CONTINUOUS
 62
     7
 10
270.6778
 20
135.588300000000000
 11
270.6778
 21
135.488300000000010
  0
LINE
  8
PT2-Rzut2
  6
CONTINUOUS
 62
     7
 10
268.2279
 20
135.690800000000000
 11
268.3279
 21
135.640800000000010
  0
LINE
  8
PT2-Rzut2
  6
CONTINUOUS
 62
     7
 10
268.3279
 20
135.740800000000010
 11
268.2279
 21
135.690800000000000
  0
LINE
  8
PT2-Rzut2
  6
CONTINUOUS
 62
     7
 10
268.3279
 20
135.640800000000010
 11
268.2279
 21
135.590800000000000
  0
LINE
  8
PT2-Rzut2
  6
CONTINUOUS
 62
     7
 10
268.1778
 20
135.588300000000000
 11
268.1778
 21
135.488300000000010
  0
LINE
  8
PT2-Rzut2
  6
CONTINUOUS
 62
     7
 10
268.1779
 20
135.708300000000010
 11
268.1779
 21
135.588300000000000
  0
LINE
  8
PT2-Rzut2
  6
CONTINUOUS
 62
     7
 10
274.6778
 20
135.588300000000000
 11
274.6778
 21
135.488300000000010
  0
LINE
  8
PT2-Rzut2
  6
CONTINUOUS
 62
     7
 10
272.6778
 20
135.588300000000000
 11
272.6778
 21
135.488300000000010
  0
LINE
  8
PT2-Rzut2
  6
CONTINUOUS
 62
     7
 10
273.1778
 20
135.588300000000000
 11
273.1778
 21
135.488300000000010
  0
LINE
  8
PT2-Rzut2
  6
CONTINUOUS
 62
     7
 10
273.6778
 20
135.588300000000000
 11
273.6778
 21
135.488300000000010
  0
LINE
  8
PT2-Rzut2
  6
CONTINUOUS
 62
     7
 10
274.1778
 20
135.588300000000000
 11
274.1778
 21
135.488300000000010
  0
LINE
  8
PT2-Rzut2
  6
CONTINUOUS
 62
     7
 10
275.1778
 20
135.588300000000000
 11
275.1778
 21
135.488300000000010
  0
LINE
  8
PT2-Rzut2
  6
CONTINUOUS
 62
     7
 10
272.1778
 20
135.588300000000000
 11
272.1778
 21
135.488300000000010
  0
LINE
  8
PT2-Rzut2
  6
CONTINUOUS
 62
     7
 10
278.1778
 20
135.588300000000000
 11
278.1778
 21
135.488300000000010
  0
LINE
  8
PT2-Rzut2
  6
CONTINUOUS
 62
     7
 10
277.6778
 20
135.588300000000000
 11
277.6778
 21
135.488300000000010
  0
LINE
  8
PT2-Rzut2
  6
CONTINUOUS
 62
     7
 10
277.1778
 20
135.588300000000000
 11
277.1778
 21
135.488300000000010
  0
LINE
  8
PT2-Rzut2
  6
CONTINUOUS
 62
     7
 10
276.6778
 20
135.588300000000000
 11
276.6778
 21
135.488300000000010
  0
LINE
  8
PT2-Rzut2
  6
CONTINUOUS
 62
     7
 10
276.1778
 20
135.588300000000000
 11
276.1778
 21
135.488300000000010
  0
LINE
  8
PT2-Rzut2
  6
CONTINUOUS
 62
     7
 10
275.6778
 20
135.588300000000000
 11
275.6778
 21
135.488300000000010
  0
LINE
  8
PT2-Rzut2
  6
CONTINUOUS
 62
     7
 10
268.1778
 20
139.249000000000000
 11
268.1778
 21
138.208300000000010
  0
LINE
  8
PT2-Rzut2
  6
CONTINUOUS
 62
     7
 10
265.1778
 20
139.249000000000000
 11
265.1778
 21
138.208300000000010
  0
LINE
  8
PT2-Rzut2
  6
CONTINUOUS
 62
     7
 10
268.3779
 20
136.588300000000000
 11
278.1778
 21
136.588300000000000
  0
LINE
  8
PT2-Rzut2
  6
CONTINUOUS
 62
     7
 10
268.3779
 20
137.088300000000000
 11
278.1778
 21
137.088300000000000
  0
LINE
  8
PT2-Rzut2
  6
CONTINUOUS
 62
     7
 10
268.3779
 20
137.188300000000000
 11
278.1778
 21
137.188300000000000
  0
LINE
  8
PT2-Rzut2
  6
CONTINUOUS
 62
     7
 10
271.5777
 20
135.838300000000000
 11
271.8277
 21
136.338300000000000
  0
LINE
  8
PT2-Rzut2
  6
CONTINUOUS
 62
     7
 10
268.3279
 20
136.940800000000000
 11
268.2279
 21
136.890800000000010
  0
LINE
  8
PT2-Rzut2
  6
CONTINUOUS
 62
     7
 10
268.2279
 20
136.790799999999990
 11
268.3279
 21
136.740800000000010
  0
LINE
  8
PT2-Rzut2
  6
CONTINUOUS
 62
     7
 10
268.3279
 20
136.740800000000010
 11
268.2279
 21
136.690800000000000
  0
LINE
  8
PT2-Rzut2
  6
CONTINUOUS
 62
     7
 10
268.2279
 20
136.690800000000000
 11
268.3279
 21
136.640800000000010
  0
LINE
  8
PT2-Rzut2
  6
CONTINUOUS
 62
     7
 10
268.2279
 20
136.890800000000010
 11
268.3279
 21
136.840800000000000
  0
LINE
  8
PT2-Rzut2
  6
CONTINUOUS
 62
     7
 10
268.3279
 20
136.840800000000000
 11
268.2279
 21
136.790799999999990
  0
LINE
  8
PT2-Rzut2
  6
CONTINUOUS
 62
     7
 10
268.2279
 20
136.590800000000000
 11
268.3279
 21
136.540799999999990
  0
LINE
  8
PT2-Rzut2
  6
CONTINUOUS
 62
     7
 10
268.3279
 20
136.640800000000010
 11
268.2279
 21
136.590800000000000
  0
LINE
  8
PT2-Rzut2
  6
CONTINUOUS
 62
     7
 10
268.3279
 20
137.140800000000010
 11
268.2279
 21
137.090800000000000
  0
LINE
  8
PT2-Rzut2
  6
CONTINUOUS
 62
     7
 10
268.2329
 20
137.188300000000000
 11
268.3279
 21
137.140800000000010
  0
LINE
  8
PT2-Rzut2
  6
CONTINUOUS
 62
     7
 10
268.3279
 20
137.040799999999990
 11
268.2279
 21
136.990800000000010
  0
LINE
  8
PT2-Rzut2
  6
CONTINUOUS
 62
     7
 10
268.2279
 20
137.090800000000000
 11
268.3279
 21
137.040799999999990
  0
LINE
  8
PT2-Rzut2
  6
CONTINUOUS
 62
     7
 10
268.2279
 20
136.990800000000010
 11
268.3279
 21
136.940800000000000
  0
LINE
  8
PT2-Rzut2
  6
CONTINUOUS
 62
     7
 10
268.3779
 20
137.188300000000000
 11
268.1779
 21
137.188300000000000
  0
LINE
  8
PT2-Rzut2
  6
CONTINUOUS
 62
     7
 10
271.3277
 20
136.338300000000000
 11
271.5777
 21
135.838300000000000
  0
LINE
  8
PT2-Rzut2
  6
CONTINUOUS
 62
     7
 10
270.8277
 20
136.338300000000000
 11
271.0777
 21
135.838300000000000
  0
LINE
  8
PT2-Rzut2
  6
CONTINUOUS
 62
     7
 10
271.0777
 20
135.838300000000000
 11
271.3277
 21
136.338300000000000
  0
LINE
  8
PT2-Rzut2
  6
CONTINUOUS
 62
     7
 10
270.3277
 20
136.338300000000000
 11
270.5777
 21
135.838300000000000
  0
LINE
  8
PT2-Rzut2
  6
CONTINUOUS
 62
     7
 10
270.5777
 20
135.838300000000000
 11
270.8277
 21
136.338300000000000
  0
LINE
  8
PT2-Rzut2
  6
CONTINUOUS
 62
     7
 10
270.0777
 20
135.838300000000000
 11
270.3277
 21
136.338300000000000
  0
LINE
  8
PT2-Rzut2
  6
CONTINUOUS
 62
     7
 10
269.3277
 20
136.338300000000000
 11
269.5777
 21
135.838300000000000
  0
LINE
  8
PT2-Rzut2
  6
CONTINUOUS
 62
     7
 10
269.8277
 20
136.338300000000000
 11
270.0777
 21
135.838300000000000
  0
LINE
  8
PT2-Rzut2
  6
CONTINUOUS
 62
     7
 10
269.5777
 20
135.838300000000000
 11
269.8277
 21
136.338300000000000
  0
LINE
  8
PT2-Rzut2
  6
CONTINUOUS
 62
     7
 10
268.5777
 20
135.838300000000000
 11
268.8277
 21
136.338300000000000
  0
LINE
  8
PT2-Rzut2
  6
CONTINUOUS
 62
     7
 10
268.8277
 20
136.338300000000000
 11
269.0777
 21
135.838300000000000
  0
LINE
  8
PT2-Rzut2
  6
CONTINUOUS
 62
     7
 10
269.0777
 20
135.838300000000000
 11
269.3277
 21
136.338300000000000
  0
LINE
  8
PT2-Rzut2
  6
CONTINUOUS
 62
     7
 10
268.3279
 20
136.340800000000000
 11
268.2279
 21
136.290799999999990
  0
LINE
  8
PT2-Rzut2
  6
CONTINUOUS
 62
     7
 10
268.2279
 20
136.290799999999990
 11
268.3279
 21
136.240800000000010
  0
LINE
  8
PT2-Rzut2
  6
CONTINUOUS
 62
     7
 10
268.3279
 20
136.240800000000010
 11
268.2279
 21
136.190800000000000
  0
LINE
  8
PT2-Rzut2
  6
CONTINUOUS
 62
     7
 10
268.2279
 20
136.390800000000010
 11
268.3279
 21
136.340800000000000
  0
LINE
  8
PT2-Rzut2
  6
CONTINUOUS
 62
     7
 10
268.3279
 20
136.440800000000000
 11
268.2279
 21
136.390800000000010
  0
LINE
  8
PT2-Rzut2
  6
CONTINUOUS
 62
     7
 10
268.2279
 20
136.490800000000010
 11
268.3279
 21
136.440800000000000
  0
LINE
  8
PT2-Rzut2
  6
CONTINUOUS
 62
     7
 10
268.3279
 20
135.840800000000000
 11
268.2279
 21
135.790799999999990
  0
LINE
  8
PT2-Rzut2
  6
CONTINUOUS
 62
     7
 10
268.2279
 20
136.090800000000000
 11
268.3279
 21
136.040799999999990
  0
LINE
  8
PT2-Rzut2
  6
CONTINUOUS
 62
     7
 10
268.3279
 20
136.140800000000010
 11
268.2279
 21
136.090800000000000
  0
LINE
  8
PT2-Rzut2
  6
CONTINUOUS
 62
     7
 10
268.2279
 20
135.990800000000010
 11
268.3279
 21
135.940800000000000
  0
LINE
  8
PT2-Rzut2
  6
CONTINUOUS
 62
     7
 10
268.3279
 20
135.940800000000000
 11
268.2279
 21
135.890800000000010
  0
LINE
  8
PT2-Rzut2
  6
CONTINUOUS
 62
     7
 10
268.2279
 20
135.890800000000010
 11
268.3279
 21
135.840800000000000
  0
LINE
  8
PT2-Rzut2
  6
CONTINUOUS
 62
     7
 10
268.3279
 20
136.040799999999990
 11
268.2279
 21
135.990800000000010
  0
LINE
  8
PT2-Rzut2
  6
CONTINUOUS
 62
     7
 10
268.2279
 20
136.190800000000000
 11
268.3279
 21
136.140800000000010
  0
LINE
  8
PT2-Rzut2
  6
CONTINUOUS
 62
     7
 10
268.3779
 20
136.238000000000000
 11
268.5777
 21
135.838300000000000
  0
LINE
  8
PT2-Rzut2
  6
CONTINUOUS
 62
     7
 10
268.3279
 20
136.540799999999990
 11
268.2279
 21
136.490800000000010
  0
LINE
  8
PT2-Rzut2
  6
CONTINUOUS
 62
     7
 10
265.1778
 20
138.208300000000010
 11
268.1778
 21
138.208300000000010
  0
LINE
  8
PT2-Rzut2
  6
CONTINUOUS
 62
     7
 10
265.1778
 20
138.088300000000000
 11
268.1778
 21
138.088300000000000
  0
LINE
  8
PT2-Rzut2
  6
CONTINUOUS
 62
     7
 10
275.3277
 20
136.338300000000000
 11
275.5777
 21
135.838300000000000
  0
LINE
  8
PT2-Rzut2
  6
CONTINUOUS
 62
     7
 10
273.0777
 20
135.838300000000000
 11
273.3277
 21
136.338300000000000
  0
LINE
  8
PT2-Rzut2
  6
CONTINUOUS
 62
     7
 10
272.5777
 20
135.838300000000000
 11
272.8277
 21
136.338300000000000
  0
LINE
  8
PT2-Rzut2
  6
CONTINUOUS
 62
     7
 10
272.8277
 20
136.338300000000000
 11
273.0777
 21
135.838300000000000
  0
LINE
  8
PT2-Rzut2
  6
CONTINUOUS
 62
     7
 10
272.3277
 20
136.338300000000000
 11
272.5777
 21
135.838300000000000
  0
LINE
  8
PT2-Rzut2
  6
CONTINUOUS
 62
     7
 10
275.0777
 20
135.838300000000000
 11
275.3277
 21
136.338300000000000
  0
LINE
  8
PT2-Rzut2
  6
CONTINUOUS
 62
     7
 10
274.5777
 20
135.838300000000000
 11
274.8277
 21
136.338300000000000
  0
LINE
  8
PT2-Rzut2
  6
CONTINUOUS
 62
     7
 10
273.3277
 20
136.338300000000000
 11
273.5777
 21
135.838300000000000
  0
LINE
  8
PT2-Rzut2
  6
CONTINUOUS
 62
     7
 10
273.5777
 20
135.838300000000000
 11
273.8277
 21
136.338300000000000
  0
LINE
  8
PT2-Rzut2
  6
CONTINUOUS
 62
     7
 10
274.3277
 20
136.338300000000000
 11
274.5777
 21
135.838300000000000
  0
LINE
  8
PT2-Rzut2
  6
CONTINUOUS
 62
     7
 10
274.0777
 20
135.838300000000000
 11
274.3277
 21
136.338300000000000
  0
LINE
  8
PT2-Rzut2
  6
CONTINUOUS
 62
     7
 10
273.8277
 20
136.338300000000000
 11
274.0777
 21
135.838300000000000
  0
LINE
  8
PT2-Rzut2
  6
CONTINUOUS
 62
     7
 10
274.8277
 20
136.338300000000000
 11
275.0777
 21
135.838300000000000
  0
LINE
  8
PT2-Rzut2
  6
CONTINUOUS
 62
     7
 10
271.8277
 20
136.338300000000000
 11
272.0777
 21
135.838300000000000
  0
LINE
  8
PT2-Rzut2
  6
CONTINUOUS
 62
     7
 10
272.0777
 20
135.838300000000000
 11
272.3277
 21
136.338300000000000
  0
LINE
  8
PT2-Rzut2
  6
CONTINUOUS
 62
     7
 10
277.8277
 20
136.338300000000000
 11
278.0777
 21
135.838300000000000
  0
LINE
  8
PT2-Rzut2
  6
CONTINUOUS
 62
     7
 10
277.0777
 20
135.838300000000000
 11
277.3277
 21
136.338300000000000
  0
LINE
  8
PT2-Rzut2
  6
CONTINUOUS
 62
     7
 10
277.3277
 20
136.338300000000000
 11
277.5777
 21
135.838300000000000
  0
LINE
  8
PT2-Rzut2
  6
CONTINUOUS
 62
     7
 10
277.5777
 20
135.838300000000000
 11
277.8277
 21
136.338300000000000
  0
LINE
  8
PT2-Rzut2
  6
CONTINUOUS
 62
     7
 10
278.0777
 20
135.838300000000000
 11
278.1778
 21
136.038400000000000
  0
LINE
  8
PT2-Rzut2
  6
CONTINUOUS
 62
     7
 10
276.5777
 20
135.838300000000000
 11
276.8277
 21
136.338300000000000
  0
LINE
  8
PT2-Rzut2
  6
CONTINUOUS
 62
     7
 10
276.3277
 20
136.338300000000000
 11
276.5777
 21
135.838300000000000
  0
LINE
  8
PT2-Rzut2
  6
CONTINUOUS
 62
     7
 10
276.8277
 20
136.338300000000000
 11
277.0777
 21
135.838300000000000
  0
LINE
  8
PT2-Rzut2
  6
CONTINUOUS
 62
     7
 10
275.8277
 20
136.338300000000000
 11
276.0777
 21
135.838300000000000
  0
LINE
  8
PT2-Rzut2
  6
CONTINUOUS
 62
     7
 10
275.5777
 20
135.838300000000000
 11
275.8277
 21
136.338300000000000
  0
LINE
  8
PT2-Rzut2
  6
CONTINUOUS
 62
     7
 10
276.0777
 20
135.838300000000000
 11
276.3277
 21
136.338300000000000
  0
LINE
  8
PT2-Rzut2
  6
VERDECKT
 62
     7
 10
278.1778
 20
137.688300000000000
 11
278.1778
 21
133.734199999999990
  0
LINE
  8
PT2-Rzut2
  6
CONTINUOUS
 62
     7
 10
264.5547
 20
119.177799999999990
 11
265.1321
 21
118.177799999999990
  0
LINE
  8
PT2-Rzut2
  6
CONTINUOUS
 62
     7
 10
272.1321
 20
118.177799999999990
 11
272.7094
 21
119.177799999999990
  0
LINE
  8
PT2-Rzut2
  6
VERDECKT
 62
     7
 10
257.0433
 20
139.232000000000000
 11
269.9589
 21
139.238499999999990
  0
LINE
  8
PT2-Rzut2
  6
CONTINUOUS
 62
     7
 10
265.1778
 20
135.488300000000010
 11
268.1778
 21
135.488300000000010
  0
LINE
  8
PT2-Rzut2
  6
CONTINUOUS
 62
     7
 10
265.1778
 20
135.488300000000010
 11
265.1778
 21
133.988299999999980
  0
LINE
  8
PT2-Rzut2
  6
CONTINUOUS
 62
     7
 10
268.1778
 20
133.988299999999980
 11
268.1778
 21
135.488300000000010
  0
LINE
  8
PT2-Rzut2
  6
CONTINUOUS
 62
     7
 10
265.1778
 20
133.988299999999980
 11
268.1778
 21
133.988299999999980
  0
LINE
  8
PT2-Rzut2
  6
CONTINUOUS
 62
     7
 10
265.1778
 20
133.868299999999980
 11
268.1778
 21
133.868299999999980
  0
LINE
  8
PT2-Rzut2
  6
CONTINUOUS
 62
     7
 10
265.1778
 20
133.868299999999980
 11
265.1778
 21
132.368299999999980
  0
LINE
  8
PT2-Rzut2
  6
CONTINUOUS
 62
     7
 10
268.1778
 20
132.368299999999980
 11
268.1778
 21
133.868299999999980
  0
LINE
  8
PT2-Rzut2
  6
CONTINUOUS
 62
     7
 10
265.1778
 20
132.368299999999980
 11
268.1778
 21
132.368299999999980
  0
LINE
  8
PT2-Rzut2
  6
CONTINUOUS
 62
     7
 10
265.1778
 20
132.248299999999970
 11
265.1778
 21
130.748299999999970
  0
LINE
  8
PT2-Rzut2
  6
CONTINUOUS
 62
     7
 10
265.1778
 20
132.248299999999970
 11
268.1778
 21
132.248299999999970
  0
LINE
  8
PT2-Rzut2
  6
CONTINUOUS
 62
     7
 10
265.1778
 20
130.748299999999970
 11
268.1778
 21
130.748299999999970
  0
LINE
  8
PT2-Rzut2
  6
CONTINUOUS
 62
     7
 10
268.1778
 20
130.748299999999970
 11
268.1778
 21
132.248299999999970
  0
LINE
  8
PT2-Rzut2
  6
CONTINUOUS
 62
     7
 10
265.1778
 20
130.628300000000020
 11
265.1778
 21
129.128300000000020
  0
LINE
  8
PT2-Rzut2
  6
CONTINUOUS
 62
     7
 10
265.1778
 20
130.628300000000020
 11
268.1778
 21
130.628300000000020
  0
LINE
  8
PT2-Rzut2
  6
CONTINUOUS
 62
     7
 10
265.1778
 20
129.128300000000020
 11
268.1778
 21
129.128300000000020
  0
LINE
  8
PT2-Rzut2
  6
CONTINUOUS
 62
     7
 10
268.1778
 20
129.128300000000020
 11
268.1778
 21
130.628300000000020
  0
LINE
  8
PT2-Rzut2
  6
CONTINUOUS
 62
     7
 10
265.1778
 20
129.008300000000020
 11
265.1778
 21
127.508300000000020
  0
LINE
  8
PT2-Rzut2
  6
CONTINUOUS
 62
     7
 10
265.1778
 20
129.008300000000020
 11
268.1778
 21
129.008300000000020
  0
LINE
  8
PT2-Rzut2
  6
CONTINUOUS
 62
     7
 10
265.1778
 20
127.508300000000020
 11
268.1778
 21
127.508300000000020
  0
LINE
  8
PT2-Rzut2
  6
CONTINUOUS
 62
     7
 10
268.1778
 20
127.508300000000020
 11
268.1778
 21
129.008300000000020
  0
LINE
  8
PT2-Rzut2
  6
CONTINUOUS
 62
     7
 10
265.1778
 20
127.388300000000020
 11
265.1778
 21
125.888300000000020
  0
LINE
  8
PT2-Rzut2
  6
CONTINUOUS
 62
     7
 10
265.1778
 20
127.388300000000020
 11
268.1778
 21
127.388300000000020
  0
LINE
  8
PT2-Rzut2
  6
CONTINUOUS
 62
     7
 10
265.1778
 20
125.888300000000020
 11
268.1778
 21
125.888300000000020
  0
LINE
  8
PT2-Rzut2
  6
CONTINUOUS
 62
     7
 10
268.1778
 20
125.888300000000020
 11
268.1778
 21
127.388300000000020
  0
LINE
  8
PT2-Rzut2
  6
CONTINUOUS
 62
     7
 10
265.1778
 20
125.768300000000010
 11
265.1778
 21
124.268300000000010
  0
LINE
  8
PT2-Rzut2
  6
CONTINUOUS
 62
     7
 10
265.1778
 20
125.768300000000010
 11
268.1778
 21
125.768300000000010
  0
LINE
  8
PT2-Rzut2
  6
CONTINUOUS
 62
     7
 10
265.1778
 20
124.268300000000010
 11
268.1778
 21
124.268300000000010
  0
LINE
  8
PT2-Rzut2
  6
CONTINUOUS
 62
     7
 10
268.1778
 20
124.268300000000010
 11
268.1778
 21
125.768300000000010
  0
LINE
  8
PT2-Rzut2
  6
CONTINUOUS
 62
     7
 10
265.1778
 20
124.148300000000010
 11
265.1778
 21
123.188300000000030
  0
LINE
  8
PT2-Rzut2
  6
CONTINUOUS
 62
     7
 10
265.1778
 20
124.148300000000010
 11
268.1778
 21
124.148300000000010
  0
LINE
  8
PT2-Rzut2
  6
CONTINUOUS
 62
     7
 10
268.1778
 20
123.188300000000030
 11
268.1778
 21
124.148300000000010
  0
LINE
  8
PT2-Rzut2
  6
CONTINUOUS
 62
     7
 10
265.4321
 20
122.777800000000010
 11
265.4321
 21
119.577800000000020
  0
LINE
  8
PT2-Rzut2
  6
CONTINUOUS
 62
     7
 10
265.5321
 20
122.877799999999980
 11
271.7321
 21
122.877799999999980
  0
LINE
  8
PT2-Rzut2
  6
CONTINUOUS
 62
     7
 10
271.8321
 20
122.777800000000010
 11
271.8321
 21
119.577800000000020
  0
LINE
  8
PT2-Rzut2
  6
CONTINUOUS
 62
     7
 10
265.5321
 20
119.477800000000000
 11
271.7321
 21
119.477800000000000
  0
LINE
  8
PT2-Rzut2
  6
CONTINUOUS
 62
     7
 10
265.4627
 20
122.705800000000010
 11
265.8418
 21
122.456099999999990
  0
LINE
  8
PT2-Rzut2
  6
CONTINUOUS
 62
     7
 10
265.6253
 20
122.813899999999990
 11
265.7515
 21
122.379200000000030
  0
CIRCLE
  8
PT2-Rzut2
  6
CONTINUOUS
 62
     7
 10
265.532100000000010
 20
122.777800000000010
 40
0.100000000000000
  0
CIRCLE
  8
PT2-Rzut2
  6
CONTINUOUS
 62
     7
 10
265.532100000000010
 20
119.577800000000020
 40
0.100000000000000
  0
CIRCLE
  8
PT2-Rzut2
  6
CONTINUOUS
 62
     7
 10
271.732100000000000
 20
122.777800000000010
 40
0.100000000000000
  0
CIRCLE
  8
PT2-Rzut2
  6
CONTINUOUS
 62
     7
 10
271.732100000000000
 20
119.577800000000020
 40
0.100000000000000
  0
ARC
  8
PT2-Rzut2
  6
CONTINUOUS
 62
     7
 10
277.327699999999990
 20
135.838300000000000
 40
0.250000000000000
 50
180.000000000000000
 51
270.000000000000000
  0
ARC
  8
PT2-Rzut2
  6
CONTINUOUS
 62
     7
 10
277.327699999999990
 20
135.838300000000000
 40
0.250000000000000
 50
270.000000000000000
 51
360.000000000000000
  0
ARC
  8
PT2-Rzut2
  6
CONTINUOUS
 62
     7
 10
277.827699999999990
 20
135.838300000000000
 40
0.250000000000000
 50
180.000000000000000
 51
360.000000000000000
  0
ARC
  8
PT2-Rzut2
  6
CONTINUOUS
 62
     7
 10
278.327699999999990
 20
135.838300000000000
 40
0.250000000000000
 50
180.000000000000000
 51
233.148400000000010
  0
ARC
  8
PT2-Rzut2
  6
CONTINUOUS
 62
     7
 10
276.827699999999990
 20
135.838300000000000
 40
0.250000000000000
 50
180.000000000000000
 51
360.000000000000000
  0
ARC
  8
PT2-Rzut2
  6
CONTINUOUS
 62
     7
 10
273.327699999999990
 20
135.838300000000000
 40
0.250000000000000
 50
180.000000000000000
 51
360.000000000000000
  0
ARC
  8
PT2-Rzut2
  6
CONTINUOUS
 62
     7
 10
272.827699999999990
 20
135.838300000000000
 40
0.250000000000000
 50
180.000000000000000
 51
270.000000000000000
  0
ARC
  8
PT2-Rzut2
  6
CONTINUOUS
 62
     7
 10
272.827699999999990
 20
135.838300000000000
 40
0.250000000000000
 50
270.000000000000000
 51
360.000000000000000
  0
ARC
  8
PT2-Rzut2
  6
CONTINUOUS
 62
     7
 10
275.827699999999990
 20
135.838300000000000
 40
0.250000000000000
 50
270.000000000000000
 51
360.000000000000000
  0
ARC
  8
PT2-Rzut2
  6
CONTINUOUS
 62
     7
 10
275.327699999999990
 20
135.838300000000000
 40
0.250000000000000
 50
180.000000000000000
 51
360.000000000000000
  0
ARC
  8
PT2-Rzut2
  6
CONTINUOUS
 62
     7
 10
275.827699999999990
 20
135.838300000000000
 40
0.250000000000000
 50
180.000000000000000
 51
270.000000000000000
  0
ARC
  8
PT2-Rzut2
  6
CONTINUOUS
 62
     7
 10
274.327699999999990
 20
135.838300000000000
 40
0.250000000000000
 50
270.000000000000000
 51
360.000000000000000
  0
ARC
  8
PT2-Rzut2
  6
CONTINUOUS
 62
     7
 10
274.327699999999990
 20
135.838300000000000
 40
0.250000000000000
 50
180.000000000000000
 51
270.000000000000000
  0
ARC
  8
PT2-Rzut2
  6
CONTINUOUS
 62
     7
 10
273.827699999999990
 20
135.838300000000000
 40
0.250000000000000
 50
180.000000000000000
 51
360.000000000000000
  0
ARC
  8
PT2-Rzut2
  6
CONTINUOUS
 62
     7
 10
274.827699999999990
 20
135.838300000000000
 40
0.250000000000000
 50
180.000000000000000
 51
360.000000000000000
  0
ARC
  8
PT2-Rzut2
  6
CONTINUOUS
 62
     7
 10
276.327699999999990
 20
135.838300000000000
 40
0.250000000000000
 50
180.000000000000000
 51
360.000000000000000
  0
ARC
  8
PT2-Rzut2
  6
CONTINUOUS
 62
     7
 10
271.827699999999990
 20
135.838300000000000
 40
0.250000000000000
 50
180.000000000000000
 51
360.000000000000000
  0
ARC
  8
PT2-Rzut2
  6
CONTINUOUS
 62
     7
 10
271.327699999999990
 20
135.838300000000000
 40
0.250000000000000
 50
270.000000000000000
 51
360.000000000000000
  0
ARC
  8
PT2-Rzut2
  6
CONTINUOUS
 62
     7
 10
270.327699999999990
 20
135.838300000000000
 40
0.250000000000000
 50
180.000000000000000
 51
360.000000000000000
  0
ARC
  8
PT2-Rzut2
  6
CONTINUOUS
 62
     7
 10
270.827699999999990
 20
135.838300000000000
 40
0.250000000000000
 50
180.000000000000000
 51
360.000000000000000
  0
ARC
  8
PT2-Rzut2
  6
CONTINUOUS
 62
     7
 10
271.327699999999990
 20
135.838300000000000
 40
0.250000000000000
 50
180.000000000000000
 51
270.000000000000000
  0
ARC
  8
PT2-Rzut2
  6
CONTINUOUS
 62
     7
 10
269.827699999999990
 20
135.838300000000000
 40
0.250000000000000
 50
270.000000000000000
 51
360.000000000000000
  0
ARC
  8
PT2-Rzut2
  6
CONTINUOUS
 62
     7
 10
269.827699999999990
 20
135.838300000000000
 40
0.250000000000000
 50
180.000000000000000
 51
270.000000000000000
  0
ARC
  8
PT2-Rzut2
  6
CONTINUOUS
 62
     7
 10
268.827699999999990
 20
135.838300000000000
 40
0.250000000000000
 50
180.000000000000000
 51
360.000000000000000
  0
ARC
  8
PT2-Rzut2
  6
CONTINUOUS
 62
     7
 10
269.327699999999990
 20
135.838300000000000
 40
0.250000000000000
 50
180.000000000000000
 51
360.000000000000000
  0
ARC
  8
PT2-Rzut2
  6
CONTINUOUS
 62
     7
 10
268.227899999999980
 20
135.740800000000010
 40
0.050000000000000
 50
90.000000000000000
 51
180.000000000000000
  0
ARC
  8
PT2-Rzut2
  6
CONTINUOUS
 62
     7
 10
268.327900000000000
 20
135.790799999999990
 40
0.050000000000000
 50
270.000000000000000
 51
90.000000000000000
  0
ARC
  8
PT2-Rzut2
  6
CONTINUOUS
 62
     7
 10
268.327699999999990
 20
135.838300000000000
 40
0.250000000000000
 50
281.566800000000000
 51
360.000000000000000
  0
ARC
  8
PT2-Rzut2
  6
CONTINUOUS
 62
     7
 10
272.327699999999990
 20
135.838300000000000
 40
0.250000000000000
 50
180.000000000000000
 51
360.000000000000000
  0
ARC
  8
PT2-Rzut2
  6
CONTINUOUS
 62
     7
 10
268.227899999999980
 20
135.740800000000010
 40
0.050000000000000
 50
180.000000000000000
 51
270.000000000000000
  0
ARC
  8
PT2-Rzut2
  6
CONTINUOUS
 62
     7
 10
268.227899999999980
 20
135.640800000000010
 40
0.050000000000000
 50
90.000000000000000
 51
270.000000000000000
  0
ARC
  8
PT2-Rzut2
  6
CONTINUOUS
 62
     7
 10
268.327900000000000
 20
135.690800000000000
 40
0.050000000000000
 50
270.000000000000000
 51
90.000000000000000
  0
ARC
  8
PT2-Rzut2
  6
CONTINUOUS
 62
     7
 10
268.327900000000000
 20
135.590800000000000
 40
0.050000000000000
 50
0.000000000000000
 51
90.000000000000000
  0
ARC
  8
PT2-Rzut2
  6
CONTINUOUS
 62
     7
 10
271.577699999999990
 20
136.338300000000000
 40
0.250000000000000
 50
0.000000000000000
 51
180.000000000000000
  0
ARC
  8
PT2-Rzut2
  6
CONTINUOUS
 62
     7
 10
268.327900000000000
 20
136.890800000000010
 40
0.050000000000000
 50
270.000000000000000
 51
90.000000000000000
  0
ARC
  8
PT2-Rzut2
  6
CONTINUOUS
 62
     7
 10
268.227899999999980
 20
136.940800000000000
 40
0.050000000000000
 50
180.000000000000000
 51
270.000000000000000
  0
ARC
  8
PT2-Rzut2
  6
CONTINUOUS
 62
     7
 10
268.327900000000000
 20
136.790799999999990
 40
0.050000000000000
 50
270.000000000000000
 51
90.000000000000000
  0
ARC
  8
PT2-Rzut2
  6
CONTINUOUS
 62
     7
 10
268.327900000000000
 20
136.690800000000000
 40
0.050000000000000
 50
270.000000000000000
 51
90.000000000000000
  0
ARC
  8
PT2-Rzut2
  6
CONTINUOUS
 62
     7
 10
268.227899999999980
 20
136.740800000000010
 40
0.050000000000000
 50
90.000000000000000
 51
270.000000000000000
  0
ARC
  8
PT2-Rzut2
  6
CONTINUOUS
 62
     7
 10
268.227899999999980
 20
136.640800000000010
 40
0.050000000000000
 50
90.000000000000000
 51
180.000000000000000
  0
ARC
  8
PT2-Rzut2
  6
CONTINUOUS
 62
     7
 10
268.227899999999980
 20
136.840800000000000
 40
0.050000000000000
 50
90.000000000000000
 51
270.000000000000000
  0
ARC
  8
PT2-Rzut2
  6
CONTINUOUS
 62
     7
 10
268.227899999999980
 20
136.640800000000010
 40
0.050000000000000
 50
180.000000000000000
 51
270.000000000000000
  0
ARC
  8
PT2-Rzut2
  6
CONTINUOUS
 62
     7
 10
268.327900000000000
 20
136.590800000000000
 40
0.050000000000000
 50
270.000000000000000
 51
90.000000000000000
  0
ARC
  8
PT2-Rzut2
  6
CONTINUOUS
 62
     7
 10
268.227899999999980
 20
137.140800000000010
 40
0.050000000000000
 50
108.288300000000010
 51
270.000000000000000
  0
ARC
  8
PT2-Rzut2
  6
CONTINUOUS
 62
     7
 10
268.227899999999980
 20
137.040799999999990
 40
0.050000000000000
 50
90.000000000000000
 51
270.000000000000000
  0
ARC
  8
PT2-Rzut2
  6
CONTINUOUS
 62
     7
 10
268.327900000000000
 20
137.190800000000000
 40
0.050000000000000
 50
270.000000000000000
 51
357.104699999999980
  0
ARC
  8
PT2-Rzut2
  6
CONTINUOUS
 62
     7
 10
268.327900000000000
 20
136.990800000000010
 40
0.050000000000000
 50
270.000000000000000
 51
90.000000000000000
  0
ARC
  8
PT2-Rzut2
  6
CONTINUOUS
 62
     7
 10
268.327900000000000
 20
137.090800000000000
 40
0.050000000000000
 50
270.000000000000000
 51
90.000000000000000
  0
ARC
  8
PT2-Rzut2
  6
CONTINUOUS
 62
     7
 10
268.227899999999980
 20
136.940800000000000
 40
0.050000000000000
 50
90.000000000000000
 51
180.000000000000000
  0
ARC
  8
PT2-Rzut2
  6
CONTINUOUS
 62
     7
 10
268.227899999999980
 20
136.340800000000000
 40
0.050000000000000
 50
180.000000000000000
 51
270.000000000000000
  0
ARC
  8
PT2-Rzut2
  6
CONTINUOUS
 62
     7
 10
268.227899999999980
 20
136.240800000000010
 40
0.050000000000000
 50
90.000000000000000
 51
270.000000000000000
  0
ARC
  8
PT2-Rzut2
  6
CONTINUOUS
 62
     7
 10
268.227899999999980
 20
136.340800000000000
 40
0.050000000000000
 50
90.000000000000000
 51
180.000000000000000
  0
ARC
  8
PT2-Rzut2
  6
CONTINUOUS
 62
     7
 10
268.227899999999980
 20
136.440800000000000
 40
0.050000000000000
 50
90.000000000000000
 51
270.000000000000000
  0
ARC
  8
PT2-Rzut2
  6
CONTINUOUS
 62
     7
 10
268.227899999999980
 20
135.840800000000000
 40
0.050000000000000
 50
90.000000000000000
 51
270.000000000000000
  0
ARC
  8
PT2-Rzut2
  6
CONTINUOUS
 62
     7
 10
268.227899999999980
 20
136.040799999999990
 40
0.050000000000000
 50
90.000000000000000
 51
180.000000000000000
  0
ARC
  8
PT2-Rzut2
  6
CONTINUOUS
 62
     7
 10
268.227899999999980
 20
136.040799999999990
 40
0.050000000000000
 50
180.000000000000000
 51
270.000000000000000
  0
ARC
  8
PT2-Rzut2
  6
CONTINUOUS
 62
     7
 10
268.227899999999980
 20
135.940800000000000
 40
0.050000000000000
 50
90.000000000000000
 51
270.000000000000000
  0
ARC
  8
PT2-Rzut2
  6
CONTINUOUS
 62
     7
 10
268.227899999999980
 20
136.140800000000010
 40
0.050000000000000
 50
90.000000000000000
 51
270.000000000000000
  0
ARC
  8
PT2-Rzut2
  6
CONTINUOUS
 62
     7
 10
268.327900000000000
 20
136.290799999999990
 40
0.050000000000000
 50
270.000000000000000
 51
90.000000000000000
  0
ARC
  8
PT2-Rzut2
  6
CONTINUOUS
 62
     7
 10
268.327900000000000
 20
136.390800000000010
 40
0.050000000000000
 50
270.000000000000000
 51
90.000000000000000
  0
ARC
  8
PT2-Rzut2
  6
CONTINUOUS
 62
     7
 10
268.327900000000000
 20
135.990800000000010
 40
0.050000000000000
 50
270.000000000000000
 51
90.000000000000000
  0
ARC
  8
PT2-Rzut2
  6
CONTINUOUS
 62
     7
 10
268.327900000000000
 20
135.890800000000010
 40
0.050000000000000
 50
270.000000000000000
 51
360.000000000000000
  0
ARC
  8
PT2-Rzut2
  6
CONTINUOUS
 62
     7
 10
268.327900000000000
 20
136.090800000000000
 40
0.050000000000000
 50
270.000000000000000
 51
90.000000000000000
  0
ARC
  8
PT2-Rzut2
  6
CONTINUOUS
 62
     7
 10
268.327900000000000
 20
136.190800000000000
 40
0.050000000000000
 50
270.000000000000000
 51
90.000000000000000
  0
ARC
  8
PT2-Rzut2
  6
CONTINUOUS
 62
     7
 10
268.577699999999990
 20
136.338300000000000
 40
0.250000000000000
 50
0.000000000000000
 51
143.081400000000000
  0
ARC
  8
PT2-Rzut2
  6
CONTINUOUS
 62
     7
 10
268.227899999999980
 20
136.540799999999990
 40
0.050000000000000
 50
90.000000000000000
 51
270.000000000000000
  0
ARC
  8
PT2-Rzut2
  6
CONTINUOUS
 62
     7
 10
268.327900000000000
 20
136.490800000000010
 40
0.050000000000000
 50
270.000000000000000
 51
90.000000000000000
  0
ARC
  8
PT2-Rzut2
  6
CONTINUOUS
 62
     7
 10
271.077699999999990
 20
136.338300000000000
 40
0.250000000000000
 50
0.000000000000000
 51
180.000000000000000
  0
ARC
  8
PT2-Rzut2
  6
CONTINUOUS
 62
     7
 10
270.577699999999990
 20
136.338300000000000
 40
0.250000000000000
 50
0.000000000000000
 51
180.000000000000000
  0
ARC
  8
PT2-Rzut2
  6
CONTINUOUS
 62
     7
 10
270.077699999999990
 20
136.338300000000000
 40
0.250000000000000
 50
0.000000000000000
 51
180.000000000000000
  0
ARC
  8
PT2-Rzut2
  6
CONTINUOUS
 62
     7
 10
269.577699999999990
 20
136.338300000000000
 40
0.250000000000000
 50
0.000000000000000
 51
180.000000000000000
  0
ARC
  8
PT2-Rzut2
  6
CONTINUOUS
 62
     7
 10
269.077699999999990
 20
136.338300000000000
 40
0.250000000000000
 50
0.000000000000000
 51
180.000000000000000
  0
ARC
  8
PT2-Rzut2
  6
CONTINUOUS
 62
     7
 10
275.577699999999990
 20
136.338300000000000
 40
0.250000000000000
 50
0.000000000000000
 51
180.000000000000000
  0
ARC
  8
PT2-Rzut2
  6
CONTINUOUS
 62
     7
 10
272.077699999999990
 20
136.338300000000000
 40
0.250000000000000
 50
0.000000000000000
 51
180.000000000000000
  0
ARC
  8
PT2-Rzut2
  6
CONTINUOUS
 62
     7
 10
273.077699999999990
 20
136.338300000000000
 40
0.250000000000000
 50
0.000000000000000
 51
180.000000000000000
  0
ARC
  8
PT2-Rzut2
  6
CONTINUOUS
 62
     7
 10
272.577699999999990
 20
136.338300000000000
 40
0.250000000000000
 50
0.000000000000000
 51
180.000000000000000
  0
ARC
  8
PT2-Rzut2
  6
CONTINUOUS
 62
     7
 10
274.577699999999990
 20
136.338300000000000
 40
0.250000000000000
 50
0.000000000000000
 51
180.000000000000000
  0
ARC
  8
PT2-Rzut2
  6
CONTINUOUS
 62
     7
 10
273.577699999999990
 20
136.338300000000000
 40
0.250000000000000
 50
0.000000000000000
 51
180.000000000000000
  0
ARC
  8
PT2-Rzut2
  6
CONTINUOUS
 62
     7
 10
274.077699999999990
 20
136.338300000000000
 40
0.250000000000000
 50
0.000000000000000
 51
180.000000000000000
  0
ARC
  8
PT2-Rzut2
  6
CONTINUOUS
 62
     7
 10
275.077699999999990
 20
136.338300000000000
 40
0.250000000000000
 50
0.000000000000000
 51
180.000000000000000
  0
ARC
  8
PT2-Rzut2
  6
CONTINUOUS
 62
     7
 10
276.077699999999990
 20
136.338300000000000
 40
0.250000000000000
 50
0.000000000000000
 51
180.000000000000000
  0
ARC
  8
PT2-Rzut2
  6
CONTINUOUS
 62
     7
 10
277.077699999999990
 20
136.338300000000000
 40
0.250000000000000
 50
0.000000000000000
 51
180.000000000000000
  0
ARC
  8
PT2-Rzut2
  6
CONTINUOUS
 62
     7
 10
277.577699999999990
 20
136.338300000000000
 40
0.250000000000000
 50
0.000000000000000
 51
180.000000000000000
  0
ARC
  8
PT2-Rzut2
  6
CONTINUOUS
 62
     7
 10
278.077699999999990
 20
136.338300000000000
 40
0.250000000000000
 50
66.405900000000003
 51
180.000000000000000
  0
ARC
  8
PT2-Rzut2
  6
CONTINUOUS
 62
     7
 10
276.577699999999990
 20
136.338300000000000
 40
0.250000000000000
 50
0.000000000000000
 51
180.000000000000000
  0
ARC
  8
PT2-Rzut2
  6
CONTINUOUS
 62
     7
 10
271.732100000000000
 20
122.777800000000010
 40
0.100000000000000
 50
0.000000000000000
 51
90.000000000000000
  0
ARC
  8
PT2-Rzut2
  6
CONTINUOUS
 62
     7
 10
265.532100000000010
 20
122.777800000000010
 40
0.100000000000000
 50
90.000000000000000
 51
180.000000000000000
  0
ARC
  8
PT2-Rzut2
  6
CONTINUOUS
 62
     7
 10
265.532100000000010
 20
119.577800000000020
 40
0.100000000000000
 50
180.000000000000000
 51
270.000000000000000
  0
ARC
  8
PT2-Rzut2
  6
CONTINUOUS
 62
     7
 10
271.732100000000000
 20
119.577800000000020
 40
0.100000000000000
 50
270.000000000000000
 51
360.000000000000000
  0
LINE
  8
PT2-Rzut2
  6
CONTINUOUS
 62
     7
 10
469.3456
 20
204.875000000000000
 11
469.5956
 21
204.625000000000000
  0
LINE
  8
PT2-Rzut2
  6
CONTINUOUS
 62
     7
 10
469.8456
 20
204.875000000000000
 11
469.0956
 21
204.125000000000000
  0
LINE
  8
PT2-Rzut2
  6
CONTINUOUS
 62
     7
 10
470.3456
 20
204.375000000000000
 11
470.5265
 21
204.194099999999990
  0
LINE
  8
PT2-Rzut2
  6
CONTINUOUS
 62
     7
 10
470.5265
 20
204.555900000000010
 11
470.0956
 21
204.125000000000000
  0
LINE
  8
PT2-Rzut2
  6
CONTINUOUS
 62
     7
 10
470.3456
 20
204.875000000000000
 11
469.5956
 21
204.125000000000000
  0
LINE
  8
PT2-Rzut2
  6
CONTINUOUS
 62
     7
 10
468.8456
 20
204.875000000000000
 11
469.3456
 21
204.375000000000000
  0
LINE
  8
PT2-Rzut2
  6
CONTINUOUS
 62
     7
 10
468.3456
 20
204.875000000000000
 11
469.0956
 21
204.125000000000000
  0
LINE
  8
PT2-Rzut2
  6
CONTINUOUS
 62
     7
 10
468.0956
 20
204.625000000000000
 11
468.5956
 21
204.125000000000000
  0
LINE
  8
PT2-Rzut2
  6
CONTINUOUS
 62
     7
 10
463.9463
 20
209.175000000000010
 11
463.9463
 21
208.375000000000000
  0
LINE
  8
PT2-Rzut2
  6
CONTINUOUS
 62
     7
 10
467.8963
 20
212.935700000000000
 11
467.8963
 21
209.275000000000010
  0
LINE
  8
PT2-Rzut2
  6
CONTINUOUS
 62
     7
 10
467.0963
 20
212.935700000000000
 11
467.0963
 21
209.275000000000010
  0
LINE
  8
PT2-Rzut2
  6
CONTINUOUS
 62
     7
 10
463.7463
 20
210.875000000000000
 11
463.7463
 21
212.935700000000000
  0
LINE
  8
PT2-Rzut2
  6
CONTINUOUS
 62
     7
 10
467.7713
 20
203.595000000000000
 11
467.1713
 21
203.470000000000000
  0
LINE
  8
PT2-Rzut2
  6
CONTINUOUS
 62
     7
 10
463.9463
 20
208.375000000000000
 11
463.9463
 21
196.875000000000000
  0
LINE
  8
PT2-Rzut2
  6
CONTINUOUS
 62
     7
 10
467.0963
 20
197.854999999999990
 11
467.0963
 21
209.275000000000010
  0
LINE
  8
PT2-Rzut2
  6
CONTINUOUS
 62
     7
 10
467.8963
 20
197.854999999999990
 11
467.8963
 21
209.275000000000010
  0
LINE
  8
PT2-Rzut2
  6
CONTINUOUS
 62
     7
 10
469.4463
 20
196.875000000000000
 11
469.4463
 21
192.875000000000000
  0
LINE
  8
PT2-Rzut2
  6
CONTINUOUS
 62
     7
 10
462.4463
 20
196.875000000000000
 11
462.4463
 21
192.875000000000000
  0
LINE
  8
PT2-Rzut2
  6
CONTINUOUS
 62
     7
 10
469.4463
 20
191.875000000000000
 11
462.4463
 21
191.875000000000000
  0
LINE
  8
PT2-Rzut2
  6
CONTINUOUS
 62
     7
 10
470.0237
 20
192.875000000000000
 11
461.869
 21
192.875000000000000
  0
LINE
  8
PT2-Rzut2
  6
CONTINUOUS
 62
     7
 10
469.4463
 20
196.875000000000000
 11
462.4463
 21
196.875000000000000
  0
LINE
  8
PT2-Rzut2
  6
CONTINUOUS
 62
     7
 10
467.7713
 20
200.345000000000000
 11
467.1713
 21
200.220000000000000
  0
LINE
  8
PT2-Rzut2
  6
CONTINUOUS
 62
     7
 10
467.1713
 20
198.720000000000000
 11
467.7713
 21
198.595000000000000
  0
LINE
  8
PT2-Rzut2
  6
CONTINUOUS
 62
     7
 10
467.1713
 20
198.470000000000000
 11
467.7713
 21
198.345000000000000
  0
LINE
  8
PT2-Rzut2
  6
CONTINUOUS
 62
     7
 10
467.7713
 20
198.595000000000000
 11
467.1713
 21
198.470000000000000
  0
LINE
  8
PT2-Rzut2
  6
CONTINUOUS
 62
     7
 10
467.7713
 20
198.345000000000000
 11
467.1713
 21
198.220000000000000
  0
LINE
  8
PT2-Rzut2
  6
CONTINUOUS
 62
     7
 10
467.7713
 20
198.095000000000000
 11
467.1713
 21
197.970000000000000
  0
LINE
  8
PT2-Rzut2
  6
CONTINUOUS
 62
     7
 10
467.1713
 20
196.990000000000010
 11
467.7513
 21
196.875000000000000
  0
LINE
  8
PT2-Rzut2
  6
CONTINUOUS
 62
     7
 10
467.1713
 20
198.220000000000000
 11
467.7713
 21
198.095000000000000
  0
LINE
  8
PT2-Rzut2
  6
CONTINUOUS
 62
     7
 10
467.1713
 20
199.970000000000000
 11
467.7713
 21
199.845000000000000
  0
LINE
  8
PT2-Rzut2
  6
CONTINUOUS
 62
     7
 10
467.7713
 20
199.845000000000000
 11
467.1713
 21
199.720000000000000
  0
LINE
  8
PT2-Rzut2
  6
CONTINUOUS
 62
     7
 10
467.1713
 20
199.720000000000000
 11
467.7713
 21
199.595000000000000
  0
LINE
  8
PT2-Rzut2
  6
CONTINUOUS
 62
     7
 10
467.7713
 20
199.595000000000000
 11
467.1713
 21
199.470000000000000
  0
LINE
  8
PT2-Rzut2
  6
CONTINUOUS
 62
     7
 10
467.1713
 20
199.470000000000000
 11
467.7713
 21
199.345000000000000
  0
LINE
  8
PT2-Rzut2
  6
CONTINUOUS
 62
     7
 10
467.1713
 20
199.720000000000000
 11
467.7713
 21
199.595000000000000
  0
LINE
  8
PT2-Rzut2
  6
CONTINUOUS
 62
     7
 10
467.1713
 20
199.470000000000000
 11
467.7713
 21
199.345000000000000
  0
LINE
  8
PT2-Rzut2
  6
CONTINUOUS
 62
     7
 10
467.1713
 20
199.720000000000000
 11
467.7713
 21
199.595000000000000
  0
LINE
  8
PT2-Rzut2
  6
CONTINUOUS
 62
     7
 10
467.1713
 20
200.220000000000000
 11
467.7713
 21
200.095000000000000
  0
LINE
  8
PT2-Rzut2
  6
CONTINUOUS
 62
     7
 10
467.7713
 20
200.095000000000000
 11
467.1713
 21
199.970000000000000
  0
LINE
  8
PT2-Rzut2
  6
CONTINUOUS
 62
     7
 10
467.7713
 20
198.845000000000000
 11
467.1713
 21
198.720000000000000
  0
LINE
  8
PT2-Rzut2
  6
CONTINUOUS
 62
     7
 10
467.1713
 20
199.220000000000000
 11
467.7713
 21
199.095000000000000
  0
LINE
  8
PT2-Rzut2
  6
CONTINUOUS
 62
     7
 10
467.1713
 20
198.970000000000000
 11
467.7713
 21
198.845000000000000
  0
LINE
  8
PT2-Rzut2
  6
CONTINUOUS
 62
     7
 10
467.7713
 20
199.095000000000000
 11
467.1713
 21
198.970000000000000
  0
LINE
  8
PT2-Rzut2
  6
CONTINUOUS
 62
     7
 10
467.7713
 20
199.345000000000000
 11
467.1713
 21
199.220000000000000
  0
LINE
  8
PT2-Rzut2
  6
CONTINUOUS
 62
     7
 10
467.1713
 20
201.970000000000000
 11
467.7713
 21
201.845000000000000
  0
LINE
  8
PT2-Rzut2
  6
CONTINUOUS
 62
     7
 10
467.1713
 20
201.970000000000000
 11
467.7713
 21
201.845000000000000
  0
LINE
  8
PT2-Rzut2
  6
CONTINUOUS
 62
     7
 10
467.1713
 20
201.220000000000000
 11
467.7713
 21
201.095000000000000
  0
LINE
  8
PT2-Rzut2
  6
CONTINUOUS
 62
     7
 10
467.1713
 20
201.470000000000000
 11
467.7713
 21
201.345000000000000
  0
LINE
  8
PT2-Rzut2
  6
CONTINUOUS
 62
     7
 10
467.7713
 20
201.345000000000000
 11
467.1713
 21
201.220000000000000
  0
LINE
  8
PT2-Rzut2
  6
CONTINUOUS
 62
     7
 10
467.1713
 20
201.720000000000000
 11
467.7713
 21
201.595000000000000
  0
LINE
  8
PT2-Rzut2
  6
CONTINUOUS
 62
     7
 10
467.7713
 20
201.595000000000000
 11
467.1713
 21
201.470000000000000
  0
LINE
  8
PT2-Rzut2
  6
CONTINUOUS
 62
     7
 10
467.7713
 20
201.845000000000000
 11
467.1713
 21
201.720000000000000
  0
LINE
  8
PT2-Rzut2
  6
CONTINUOUS
 62
     7
 10
467.1713
 20
200.970000000000000
 11
467.7713
 21
200.845000000000000
  0
LINE
  8
PT2-Rzut2
  6
CONTINUOUS
 62
     7
 10
467.1713
 20
200.720000000000000
 11
467.7713
 21
200.595000000000000
  0
LINE
  8
PT2-Rzut2
  6
CONTINUOUS
 62
     7
 10
467.7713
 20
200.595000000000000
 11
467.1713
 21
200.470000000000000
  0
LINE
  8
PT2-Rzut2
  6
CONTINUOUS
 62
     7
 10
467.1713
 20
200.470000000000000
 11
467.7713
 21
200.345000000000000
  0
LINE
  8
PT2-Rzut2
  6
CONTINUOUS
 62
     7
 10
467.1713
 20
200.970000000000000
 11
467.7713
 21
200.845000000000000
  0
LINE
  8
PT2-Rzut2
  6
CONTINUOUS
 62
     7
 10
467.1713
 20
200.720000000000000
 11
467.7713
 21
200.595000000000000
  0
LINE
  8
PT2-Rzut2
  6
CONTINUOUS
 62
     7
 10
467.7713
 20
200.845000000000000
 11
467.1713
 21
200.720000000000000
  0
LINE
  8
PT2-Rzut2
  6
CONTINUOUS
 62
     7
 10
467.7713
 20
201.095000000000000
 11
467.1713
 21
200.970000000000000
  0
LINE
  8
PT2-Rzut2
  6
CONTINUOUS
 62
     7
 10
467.1713
 20
202.970000000000000
 11
467.7713
 21
202.845000000000000
  0
LINE
  8
PT2-Rzut2
  6
CONTINUOUS
 62
     7
 10
467.7713
 20
202.845000000000000
 11
467.1713
 21
202.720000000000000
  0
LINE
  8
PT2-Rzut2
  6
CONTINUOUS
 62
     7
 10
467.7713
 20
203.345000000000000
 11
467.1713
 21
203.220000000000000
  0
LINE
  8
PT2-Rzut2
  6
CONTINUOUS
 62
     7
 10
467.1713
 20
203.220000000000000
 11
467.7713
 21
203.095000000000000
  0
LINE
  8
PT2-Rzut2
  6
CONTINUOUS
 62
     7
 10
467.7713
 20
203.095000000000000
 11
467.1713
 21
202.970000000000000
  0
LINE
  8
PT2-Rzut2
  6
CONTINUOUS
 62
     7
 10
467.1713
 20
203.470000000000000
 11
467.7713
 21
203.345000000000000
  0
LINE
  8
PT2-Rzut2
  6
CONTINUOUS
 62
     7
 10
467.7713
 20
202.345000000000000
 11
467.1713
 21
202.220000000000000
  0
LINE
  8
PT2-Rzut2
  6
CONTINUOUS
 62
     7
 10
467.7713
 20
202.095000000000000
 11
467.1713
 21
201.970000000000000
  0
LINE
  8
PT2-Rzut2
  6
CONTINUOUS
 62
     7
 10
467.1713
 20
202.220000000000000
 11
467.7713
 21
202.095000000000000
  0
LINE
  8
PT2-Rzut2
  6
CONTINUOUS
 62
     7
 10
467.7713
 20
202.595000000000000
 11
467.1713
 21
202.470000000000000
  0
LINE
  8
PT2-Rzut2
  6
CONTINUOUS
 62
     7
 10
467.1713
 20
202.470000000000000
 11
467.7713
 21
202.345000000000000
  0
LINE
  8
PT2-Rzut2
  6
CONTINUOUS
 62
     7
 10
467.1713
 20
202.720000000000000
 11
467.7713
 21
202.595000000000000
  0
LINE
  8
PT2-Rzut2
  6
CONTINUOUS
 62
     7
 10
463.8962
 20
209.477499999999990
 11
463.7962
 21
209.427500000000010
  0
LINE
  8
PT2-Rzut2
  6
CONTINUOUS
 62
     7
 10
463.7462
 20
210.875000000000000
 11
463.7462
 21
209.275000000000010
  0
LINE
  8
PT2-Rzut2
  6
CONTINUOUS
 62
     7
 10
466.9463
 20
211.775000000000010
 11
466.9463
 21
209.395000000000010
  0
LINE
  8
PT2-Rzut2
  6
CONTINUOUS
 62
     7
 10
463.9463
 20
209.395000000000010
 11
463.9463
 21
211.775000000000010
  0
LINE
  8
PT2-Rzut2
  6
CONTINUOUS
 62
     7
 10
467.6963
 20
209.595000000000000
 11
467.2963
 21
209.395000000000010
  0
LINE
  8
PT2-Rzut2
  6
CONTINUOUS
 62
     7
 10
470.5265
 20
204.875000000000000
 11
467.7113
 21
204.875000000000000
  0
LINE
  8
PT2-Rzut2
  6
CONTINUOUS
 62
     7
 10
470.5265
 20
205.375000000000000
 11
470.5265
 21
204.125000000000000
  0
LINE
  8
PT2-Rzut2
  6
CONTINUOUS
 62
     7
 10
467.1713
 20
206.970000000000000
 11
467.7713
 21
206.845000000000000
  0
LINE
  8
PT2-Rzut2
  6
CONTINUOUS
 62
     7
 10
467.1713
 20
205.220000000000000
 11
467.7713
 21
205.095000000000000
  0
LINE
  8
PT2-Rzut2
  6
CONTINUOUS
 62
     7
 10
467.1713
 20
205.220000000000000
 11
467.7713
 21
205.095000000000000
  0
LINE
  8
PT2-Rzut2
  6
CONTINUOUS
 62
     7
 10
467.7713
 20
204.595000000000000
 11
467.1713
 21
204.470000000000000
  0
LINE
  8
PT2-Rzut2
  6
CONTINUOUS
 62
     7
 10
467.1713
 20
204.470000000000000
 11
467.7713
 21
204.345000000000000
  0
LINE
  8
PT2-Rzut2
  6
CONTINUOUS
 62
     7
 10
467.1713
 20
204.720000000000000
 11
467.7713
 21
204.595000000000000
  0
LINE
  8
PT2-Rzut2
  6
CONTINUOUS
 62
     7
 10
467.7713
 20
204.845000000000000
 11
467.1713
 21
204.720000000000000
  0
LINE
  8
PT2-Rzut2
  6
CONTINUOUS
 62
     7
 10
467.1713
 20
204.970000000000000
 11
467.7713
 21
204.845000000000000
  0
LINE
  8
PT2-Rzut2
  6
CONTINUOUS
 62
     7
 10
467.7713
 20
205.095000000000000
 11
467.1713
 21
204.970000000000000
  0
LINE
  8
PT2-Rzut2
  6
CONTINUOUS
 62
     7
 10
467.7713
 20
204.095000000000000
 11
467.1713
 21
203.970000000000000
  0
LINE
  8
PT2-Rzut2
  6
CONTINUOUS
 62
     7
 10
467.1713
 20
203.970000000000000
 11
467.7713
 21
203.845000000000000
  0
LINE
  8
PT2-Rzut2
  6
CONTINUOUS
 62
     7
 10
467.1713
 20
204.220000000000000
 11
467.7713
 21
204.095000000000000
  0
LINE
  8
PT2-Rzut2
  6
CONTINUOUS
 62
     7
 10
467.7713
 20
203.845000000000000
 11
467.1713
 21
203.720000000000000
  0
LINE
  8
PT2-Rzut2
  6
CONTINUOUS
 62
     7
 10
467.1713
 20
203.720000000000000
 11
467.7713
 21
203.595000000000000
  0
LINE
  8
PT2-Rzut2
  6
CONTINUOUS
 62
     7
 10
467.7713
 20
204.345000000000000
 11
467.1713
 21
204.220000000000000
  0
LINE
  8
PT2-Rzut2
  6
CONTINUOUS
 62
     7
 10
467.1713
 20
206.720000000000000
 11
467.7713
 21
206.595000000000000
  0
LINE
  8
PT2-Rzut2
  6
CONTINUOUS
 62
     7
 10
467.7713
 20
206.595000000000000
 11
467.1713
 21
206.470000000000000
  0
LINE
  8
PT2-Rzut2
  6
CONTINUOUS
 62
     7
 10
467.7713
 20
206.095000000000000
 11
467.1713
 21
205.970000000000000
  0
LINE
  8
PT2-Rzut2
  6
CONTINUOUS
 62
     7
 10
467.1713
 20
206.220000000000000
 11
467.7713
 21
206.095000000000000
  0
LINE
  8
PT2-Rzut2
  6
CONTINUOUS
 62
     7
 10
467.7713
 20
206.345000000000000
 11
467.1713
 21
206.220000000000000
  0
LINE
  8
PT2-Rzut2
  6
CONTINUOUS
 62
     7
 10
467.1713
 20
206.470000000000000
 11
467.7713
 21
206.345000000000000
  0
LINE
  8
PT2-Rzut2
  6
CONTINUOUS
 62
     7
 10
467.7713
 20
206.845000000000000
 11
467.1713
 21
206.720000000000000
  0
LINE
  8
PT2-Rzut2
  6
CONTINUOUS
 62
     7
 10
467.7713
 20
205.345000000000000
 11
467.1713
 21
205.220000000000000
  0
LINE
  8
PT2-Rzut2
  6
CONTINUOUS
 62
     7
 10
467.1713
 20
205.470000000000000
 11
467.7713
 21
205.345000000000000
  0
LINE
  8
PT2-Rzut2
  6
CONTINUOUS
 62
     7
 10
467.7713
 20
205.595000000000000
 11
467.1713
 21
205.470000000000000
  0
LINE
  8
PT2-Rzut2
  6
CONTINUOUS
 62
     7
 10
467.1713
 20
205.720000000000000
 11
467.7713
 21
205.595000000000000
  0
LINE
  8
PT2-Rzut2
  6
CONTINUOUS
 62
     7
 10
467.7713
 20
205.845000000000000
 11
467.1713
 21
205.720000000000000
  0
LINE
  8
PT2-Rzut2
  6
CONTINUOUS
 62
     7
 10
467.1713
 20
205.970000000000000
 11
467.7713
 21
205.845000000000000
  0
LINE
  8
PT2-Rzut2
  6
CONTINUOUS
 62
     7
 10
466.9463
 20
209.175000000000010
 11
453.9463
 21
209.175000000000010
  0
LINE
  8
PT2-Rzut2
  6
CONTINUOUS
 62
     7
 10
463.9463
 20
208.375000000000000
 11
453.9463
 21
208.375000000000000
  0
LINE
  8
PT2-Rzut2
  6
CONTINUOUS
 62
     7
 10
463.9463
 20
209.275000000000010
 11
453.9463
 21
209.275000000000010
  0
LINE
  8
PT2-Rzut2
  6
CONTINUOUS
 62
     7
 10
467.7713
 20
208.595000000000000
 11
467.1713
 21
208.470000000000000
  0
LINE
  8
PT2-Rzut2
  6
CONTINUOUS
 62
     7
 10
467.7713
 20
208.345000000000000
 11
467.1713
 21
208.220000000000000
  0
LINE
  8
PT2-Rzut2
  6
CONTINUOUS
 62
     7
 10
467.7713
 20
207.845000000000000
 11
467.1713
 21
207.720000000000000
  0
LINE
  8
PT2-Rzut2
  6
CONTINUOUS
 62
     7
 10
467.1713
 20
207.720000000000000
 11
467.7713
 21
207.595000000000000
  0
LINE
  8
PT2-Rzut2
  6
CONTINUOUS
 62
     7
 10
467.1713
 20
207.970000000000000
 11
467.7713
 21
207.845000000000000
  0
LINE
  8
PT2-Rzut2
  6
CONTINUOUS
 62
     7
 10
467.7713
 20
208.095000000000000
 11
467.1713
 21
207.970000000000000
  0
LINE
  8
PT2-Rzut2
  6
CONTINUOUS
 62
     7
 10
467.1713
 20
208.220000000000000
 11
467.7713
 21
208.095000000000000
  0
LINE
  8
PT2-Rzut2
  6
CONTINUOUS
 62
     7
 10
467.1713
 20
208.470000000000000
 11
467.7713
 21
208.345000000000000
  0
LINE
  8
PT2-Rzut2
  6
CONTINUOUS
 62
     7
 10
467.7713
 20
207.345000000000000
 11
467.1713
 21
207.220000000000000
  0
LINE
  8
PT2-Rzut2
  6
CONTINUOUS
 62
     7
 10
467.1713
 20
207.470000000000000
 11
467.7713
 21
207.345000000000000
  0
LINE
  8
PT2-Rzut2
  6
CONTINUOUS
 62
     7
 10
467.7713
 20
207.095000000000000
 11
467.1713
 21
206.970000000000000
  0
LINE
  8
PT2-Rzut2
  6
CONTINUOUS
 62
     7
 10
467.1713
 20
207.220000000000000
 11
467.7713
 21
207.095000000000000
  0
LINE
  8
PT2-Rzut2
  6
CONTINUOUS
 62
     7
 10
467.7713
 20
207.595000000000000
 11
467.1713
 21
207.470000000000000
  0
LINE
  8
PT2-Rzut2
  6
CONTINUOUS
 62
     7
 10
465.5878
 20
209.275000000000010
 11
463.9463
 21
209.275000000000010
  0
LINE
  8
PT2-Rzut2
  6
CONTINUOUS
 62
     7
 10
466.9463
 20
209.395000000000010
 11
463.9463
 21
209.395000000000010
  0
LINE
  8
PT2-Rzut2
  6
CONTINUOUS
 62
     7
 10
464.4463
 20
209.275000000000010
 11
464.4463
 21
209.175000000000010
  0
LINE
  8
PT2-Rzut2
  6
CONTINUOUS
 62
     7
 10
465.4463
 20
209.275000000000010
 11
465.4463
 21
209.175000000000010
  0
LINE
  8
PT2-Rzut2
  6
CONTINUOUS
 62
     7
 10
464.9463
 20
209.275000000000010
 11
464.9463
 21
209.175000000000010
  0
LINE
  8
PT2-Rzut2
  6
CONTINUOUS
 62
     7
 10
466.4463
 20
209.275000000000010
 11
466.4463
 21
209.175000000000010
  0
LINE
  8
PT2-Rzut2
  6
CONTINUOUS
 62
     7
 10
466.9463
 20
209.275000000000010
 11
466.9463
 21
209.175000000000010
  0
LINE
  8
PT2-Rzut2
  6
CONTINUOUS
 62
     7
 10
465.9463
 20
209.275000000000010
 11
465.9463
 21
209.175000000000010
  0
LINE
  8
PT2-Rzut2
  6
CONTINUOUS
 62
     7
 10
465.9463
 20
209.275000000000010
 11
465.9463
 21
209.175000000000010
  0
LINE
  8
PT2-Rzut2
  6
CONTINUOUS
 62
     7
 10
467.1713
 20
208.970000000000000
 11
467.7713
 21
208.845000000000000
  0
LINE
  8
PT2-Rzut2
  6
CONTINUOUS
 62
     7
 10
467.7713
 20
208.845000000000000
 11
467.1713
 21
208.720000000000000
  0
LINE
  8
PT2-Rzut2
  6
CONTINUOUS
 62
     7
 10
467.1713
 20
208.720000000000000
 11
467.7713
 21
208.595000000000000
  0
LINE
  8
PT2-Rzut2
  6
CONTINUOUS
 62
     7
 10
467.1713
 20
209.220000000000000
 11
467.7713
 21
209.095000000000000
  0
LINE
  8
PT2-Rzut2
  6
CONTINUOUS
 62
     7
 10
467.7713
 20
209.095000000000000
 11
467.1713
 21
208.970000000000000
  0
LINE
  8
PT2-Rzut2
  6
CONTINUOUS
 62
     7
 10
467.1713
 20
209.220000000000000
 11
467.7713
 21
209.095000000000000
  0
LINE
  8
PT2-Rzut2
  6
CONTINUOUS
 62
     7
 10
467.8963
 20
209.275000000000010
 11
465.5878
 21
209.275000000000010
  0
LINE
  8
PT2-Rzut2
  6
CONTINUOUS
 62
     7
 10
460.9463
 20
209.275000000000010
 11
460.9463
 21
209.175000000000010
  0
LINE
  8
PT2-Rzut2
  6
CONTINUOUS
 62
     7
 10
460.4463
 20
209.275000000000010
 11
460.4463
 21
209.175000000000010
  0
LINE
  8
PT2-Rzut2
  6
CONTINUOUS
 62
     7
 10
461.9463
 20
209.275000000000010
 11
461.9463
 21
209.175000000000010
  0
LINE
  8
PT2-Rzut2
  6
CONTINUOUS
 62
     7
 10
462.9463
 20
209.275000000000010
 11
462.9463
 21
209.175000000000010
  0
LINE
  8
PT2-Rzut2
  6
CONTINUOUS
 62
     7
 10
462.4463
 20
209.275000000000010
 11
462.4463
 21
209.175000000000010
  0
LINE
  8
PT2-Rzut2
  6
CONTINUOUS
 62
     7
 10
463.4463
 20
209.275000000000010
 11
463.4463
 21
209.175000000000010
  0
LINE
  8
PT2-Rzut2
  6
CONTINUOUS
 62
     7
 10
461.4463
 20
209.275000000000010
 11
461.4463
 21
209.175000000000010
  0
LINE
  8
PT2-Rzut2
  6
CONTINUOUS
 62
     7
 10
463.8962
 20
209.377500000000000
 11
463.7962
 21
209.327499999999990
  0
LINE
  8
PT2-Rzut2
  6
CONTINUOUS
 62
     7
 10
463.7962
 20
209.427500000000010
 11
463.8962
 21
209.377500000000000
  0
LINE
  8
PT2-Rzut2
  6
CONTINUOUS
 62
     7
 10
463.7962
 20
209.327499999999990
 11
463.8962
 21
209.277500000000000
  0
LINE
  8
PT2-Rzut2
  6
CONTINUOUS
 62
     7
 10
463.9463
 20
209.275000000000010
 11
463.9463
 21
209.175000000000010
  0
LINE
  8
PT2-Rzut2
  6
CONTINUOUS
 62
     7
 10
463.9462
 20
209.395000000000010
 11
463.9462
 21
209.275000000000010
  0
LINE
  8
PT2-Rzut2
  6
CONTINUOUS
 62
     7
 10
457.4463
 20
209.275000000000010
 11
457.4463
 21
209.175000000000010
  0
LINE
  8
PT2-Rzut2
  6
CONTINUOUS
 62
     7
 10
459.4463
 20
209.275000000000010
 11
459.4463
 21
209.175000000000010
  0
LINE
  8
PT2-Rzut2
  6
CONTINUOUS
 62
     7
 10
458.9463
 20
209.275000000000010
 11
458.9463
 21
209.175000000000010
  0
LINE
  8
PT2-Rzut2
  6
CONTINUOUS
 62
     7
 10
458.4463
 20
209.275000000000010
 11
458.4463
 21
209.175000000000010
  0
LINE
  8
PT2-Rzut2
  6
CONTINUOUS
 62
     7
 10
457.9463
 20
209.275000000000010
 11
457.9463
 21
209.175000000000010
  0
LINE
  8
PT2-Rzut2
  6
CONTINUOUS
 62
     7
 10
456.9463
 20
209.275000000000010
 11
456.9463
 21
209.175000000000010
  0
LINE
  8
PT2-Rzut2
  6
CONTINUOUS
 62
     7
 10
459.9463
 20
209.275000000000010
 11
459.9463
 21
209.175000000000010
  0
LINE
  8
PT2-Rzut2
  6
CONTINUOUS
 62
     7
 10
453.9463
 20
209.275000000000010
 11
453.9463
 21
209.175000000000010
  0
LINE
  8
PT2-Rzut2
  6
CONTINUOUS
 62
     7
 10
454.4463
 20
209.275000000000010
 11
454.4463
 21
209.175000000000010
  0
LINE
  8
PT2-Rzut2
  6
CONTINUOUS
 62
     7
 10
454.9463
 20
209.275000000000010
 11
454.9463
 21
209.175000000000010
  0
LINE
  8
PT2-Rzut2
  6
CONTINUOUS
 62
     7
 10
455.4463
 20
209.275000000000010
 11
455.4463
 21
209.175000000000010
  0
LINE
  8
PT2-Rzut2
  6
CONTINUOUS
 62
     7
 10
455.9463
 20
209.275000000000010
 11
455.9463
 21
209.175000000000010
  0
LINE
  8
PT2-Rzut2
  6
CONTINUOUS
 62
     7
 10
456.4463
 20
209.275000000000010
 11
456.4463
 21
209.175000000000010
  0
LINE
  8
PT2-Rzut2
  6
CONTINUOUS
 62
     7
 10
467.6963
 20
212.794999999999990
 11
467.2963
 21
212.595000000000000
  0
LINE
  8
PT2-Rzut2
  6
CONTINUOUS
 62
     7
 10
463.9463
 20
212.935700000000000
 11
463.9463
 21
211.895000000000010
  0
LINE
  8
PT2-Rzut2
  6
CONTINUOUS
 62
     7
 10
466.9463
 20
212.935700000000000
 11
466.9463
 21
211.895000000000010
  0
LINE
  8
PT2-Rzut2
  6
CONTINUOUS
 62
     7
 10
463.7462
 20
210.275000000000010
 11
453.9463
 21
210.275000000000010
  0
LINE
  8
PT2-Rzut2
  6
CONTINUOUS
 62
     7
 10
463.7462
 20
210.775000000000010
 11
453.9463
 21
210.775000000000010
  0
LINE
  8
PT2-Rzut2
  6
CONTINUOUS
 62
     7
 10
463.7462
 20
210.875000000000000
 11
453.9463
 21
210.875000000000000
  0
LINE
  8
PT2-Rzut2
  6
CONTINUOUS
 62
     7
 10
460.5464
 20
209.525000000000010
 11
460.2964
 21
210.025000000000010
  0
LINE
  8
PT2-Rzut2
  6
CONTINUOUS
 62
     7
 10
467.6963
 20
211.194999999999990
 11
467.2963
 21
210.995000000000000
  0
LINE
  8
PT2-Rzut2
  6
CONTINUOUS
 62
     7
 10
467.2963
 20
210.995000000000000
 11
467.6963
 21
210.794999999999990
  0
LINE
  8
PT2-Rzut2
  6
CONTINUOUS
 62
     7
 10
467.6963
 20
210.794999999999990
 11
467.2963
 21
210.595000000000000
  0
LINE
  8
PT2-Rzut2
  6
CONTINUOUS
 62
     7
 10
467.6963
 20
210.395000000000010
 11
467.2963
 21
210.194999999999990
  0
LINE
  8
PT2-Rzut2
  6
CONTINUOUS
 62
     7
 10
467.2963
 20
210.595000000000000
 11
467.6963
 21
210.395000000000010
  0
LINE
  8
PT2-Rzut2
  6
CONTINUOUS
 62
     7
 10
467.2963
 20
209.794999999999990
 11
467.6963
 21
209.595000000000000
  0
LINE
  8
PT2-Rzut2
  6
CONTINUOUS
 62
     7
 10
467.6963
 20
209.995000000000000
 11
467.2963
 21
209.794999999999990
  0
LINE
  8
PT2-Rzut2
  6
CONTINUOUS
 62
     7
 10
467.2963
 20
210.194999999999990
 11
467.6963
 21
209.995000000000000
  0
LINE
  8
PT2-Rzut2
  6
CONTINUOUS
 62
     7
 10
463.7962
 20
210.627500000000000
 11
463.8962
 21
210.577499999999990
  0
LINE
  8
PT2-Rzut2
  6
CONTINUOUS
 62
     7
 10
463.8962
 20
210.477499999999990
 11
463.7962
 21
210.427500000000010
  0
LINE
  8
PT2-Rzut2
  6
CONTINUOUS
 62
     7
 10
463.7962
 20
210.427500000000010
 11
463.8962
 21
210.377500000000000
  0
LINE
  8
PT2-Rzut2
  6
CONTINUOUS
 62
     7
 10
463.8962
 20
210.377500000000000
 11
463.7962
 21
210.327499999999990
  0
LINE
  8
PT2-Rzut2
  6
CONTINUOUS
 62
     7
 10
463.8962
 20
210.577499999999990
 11
463.7962
 21
210.527500000000000
  0
LINE
  8
PT2-Rzut2
  6
CONTINUOUS
 62
     7
 10
463.7962
 20
210.527500000000000
 11
463.8962
 21
210.477499999999990
  0
LINE
  8
PT2-Rzut2
  6
CONTINUOUS
 62
     7
 10
463.8962
 20
210.277500000000000
 11
463.7962
 21
210.227499999999990
  0
LINE
  8
PT2-Rzut2
  6
CONTINUOUS
 62
     7
 10
463.7962
 20
210.327499999999990
 11
463.8962
 21
210.277500000000000
  0
LINE
  8
PT2-Rzut2
  6
CONTINUOUS
 62
     7
 10
463.7962
 20
210.827499999999990
 11
463.8962
 21
210.777500000000000
  0
LINE
  8
PT2-Rzut2
  6
CONTINUOUS
 62
     7
 10
463.8912
 20
210.875000000000000
 11
463.7962
 21
210.827499999999990
  0
LINE
  8
PT2-Rzut2
  6
CONTINUOUS
 62
     7
 10
463.7962
 20
210.727499999999990
 11
463.8962
 21
210.677500000000010
  0
LINE
  8
PT2-Rzut2
  6
CONTINUOUS
 62
     7
 10
463.8962
 20
210.777500000000000
 11
463.7962
 21
210.727499999999990
  0
LINE
  8
PT2-Rzut2
  6
CONTINUOUS
 62
     7
 10
463.8962
 20
210.677500000000010
 11
463.7962
 21
210.627500000000000
  0
LINE
  8
PT2-Rzut2
  6
CONTINUOUS
 62
     7
 10
463.7462
 20
210.875000000000000
 11
463.9462
 21
210.875000000000000
  0
LINE
  8
PT2-Rzut2
  6
CONTINUOUS
 62
     7
 10
460.7964
 20
210.025000000000010
 11
460.5464
 21
209.525000000000010
  0
LINE
  8
PT2-Rzut2
  6
CONTINUOUS
 62
     7
 10
461.2964
 20
210.025000000000010
 11
461.0464
 21
209.525000000000010
  0
LINE
  8
PT2-Rzut2
  6
CONTINUOUS
 62
     7
 10
461.0464
 20
209.525000000000010
 11
460.7964
 21
210.025000000000010
  0
LINE
  8
PT2-Rzut2
  6
CONTINUOUS
 62
     7
 10
461.7964
 20
210.025000000000010
 11
461.5464
 21
209.525000000000010
  0
LINE
  8
PT2-Rzut2
  6
CONTINUOUS
 62
     7
 10
461.5464
 20
209.525000000000010
 11
461.2964
 21
210.025000000000010
  0
LINE
  8
PT2-Rzut2
  6
CONTINUOUS
 62
     7
 10
462.0464
 20
209.525000000000010
 11
461.7964
 21
210.025000000000010
  0
LINE
  8
PT2-Rzut2
  6
CONTINUOUS
 62
     7
 10
462.7964
 20
210.025000000000010
 11
462.5464
 21
209.525000000000010
  0
LINE
  8
PT2-Rzut2
  6
CONTINUOUS
 62
     7
 10
462.2964
 20
210.025000000000010
 11
462.0464
 21
209.525000000000010
  0
LINE
  8
PT2-Rzut2
  6
CONTINUOUS
 62
     7
 10
462.5464
 20
209.525000000000010
 11
462.2964
 21
210.025000000000010
  0
LINE
  8
PT2-Rzut2
  6
CONTINUOUS
 62
     7
 10
463.5464
 20
209.525000000000010
 11
463.2964
 21
210.025000000000010
  0
LINE
  8
PT2-Rzut2
  6
CONTINUOUS
 62
     7
 10
463.2964
 20
210.025000000000010
 11
463.0464
 21
209.525000000000010
  0
LINE
  8
PT2-Rzut2
  6
CONTINUOUS
 62
     7
 10
463.0464
 20
209.525000000000010
 11
462.7964
 21
210.025000000000010
  0
LINE
  8
PT2-Rzut2
  6
CONTINUOUS
 62
     7
 10
463.7962
 20
210.027500000000000
 11
463.8962
 21
209.977499999999990
  0
LINE
  8
PT2-Rzut2
  6
CONTINUOUS
 62
     7
 10
463.8962
 20
209.977499999999990
 11
463.7962
 21
209.927500000000010
  0
LINE
  8
PT2-Rzut2
  6
CONTINUOUS
 62
     7
 10
463.7962
 20
209.927500000000010
 11
463.8962
 21
209.877500000000000
  0
LINE
  8
PT2-Rzut2
  6
CONTINUOUS
 62
     7
 10
463.8962
 20
210.077499999999990
 11
463.7962
 21
210.027500000000000
  0
LINE
  8
PT2-Rzut2
  6
CONTINUOUS
 62
     7
 10
463.7962
 20
210.127500000000000
 11
463.8962
 21
210.077499999999990
  0
LINE
  8
PT2-Rzut2
  6
CONTINUOUS
 62
     7
 10
463.8962
 20
210.177500000000010
 11
463.7962
 21
210.127500000000000
  0
LINE
  8
PT2-Rzut2
  6
CONTINUOUS
 62
     7
 10
463.7962
 20
209.527500000000000
 11
463.8962
 21
209.477499999999990
  0
LINE
  8
PT2-Rzut2
  6
CONTINUOUS
 62
     7
 10
463.8962
 20
209.777500000000000
 11
463.7962
 21
209.727499999999990
  0
LINE
  8
PT2-Rzut2
  6
CONTINUOUS
 62
     7
 10
463.7962
 20
209.827499999999990
 11
463.8962
 21
209.777500000000000
  0
LINE
  8
PT2-Rzut2
  6
CONTINUOUS
 62
     7
 10
463.8962
 20
209.677500000000010
 11
463.7962
 21
209.627500000000000
  0
LINE
  8
PT2-Rzut2
  6
CONTINUOUS
 62
     7
 10
463.7962
 20
209.627500000000000
 11
463.8962
 21
209.577499999999990
  0
LINE
  8
PT2-Rzut2
  6
CONTINUOUS
 62
     7
 10
463.8962
 20
209.577499999999990
 11
463.7962
 21
209.527500000000000
  0
LINE
  8
PT2-Rzut2
  6
CONTINUOUS
 62
     7
 10
463.7962
 20
209.727499999999990
 11
463.8962
 21
209.677500000000010
  0
LINE
  8
PT2-Rzut2
  6
CONTINUOUS
 62
     7
 10
463.8962
 20
209.877500000000000
 11
463.7962
 21
209.827499999999990
  0
LINE
  8
PT2-Rzut2
  6
CONTINUOUS
 62
     7
 10
463.7462
 20
209.924700000000000
 11
463.5464
 21
209.525000000000010
  0
LINE
  8
PT2-Rzut2
  6
CONTINUOUS
 62
     7
 10
463.7962
 20
210.227499999999990
 11
463.8962
 21
210.177500000000010
  0
LINE
  8
PT2-Rzut2
  6
CONTINUOUS
 62
     7
 10
466.9463
 20
211.895000000000010
 11
463.9463
 21
211.895000000000010
  0
LINE
  8
PT2-Rzut2
  6
CONTINUOUS
 62
     7
 10
466.9463
 20
211.775000000000010
 11
463.9463
 21
211.775000000000010
  0
LINE
  8
PT2-Rzut2
  6
CONTINUOUS
 62
     7
 10
467.2963
 20
212.595000000000000
 11
467.6963
 21
212.395000000000010
  0
LINE
  8
PT2-Rzut2
  6
CONTINUOUS
 62
     7
 10
467.6963
 20
212.395000000000010
 11
467.2963
 21
212.194999999999990
  0
LINE
  8
PT2-Rzut2
  6
CONTINUOUS
 62
     7
 10
467.6963
 20
211.595000000000000
 11
467.2963
 21
211.395000000000010
  0
LINE
  8
PT2-Rzut2
  6
CONTINUOUS
 62
     7
 10
467.2963
 20
211.794999999999990
 11
467.6963
 21
211.595000000000000
  0
LINE
  8
PT2-Rzut2
  6
CONTINUOUS
 62
     7
 10
467.6963
 20
211.995000000000000
 11
467.2963
 21
211.794999999999990
  0
LINE
  8
PT2-Rzut2
  6
CONTINUOUS
 62
     7
 10
467.2963
 20
212.194999999999990
 11
467.6963
 21
211.995000000000000
  0
LINE
  8
PT2-Rzut2
  6
CONTINUOUS
 62
     7
 10
467.2963
 20
211.395000000000010
 11
467.6963
 21
211.194999999999990
  0
LINE
  8
PT2-Rzut2
  6
CONTINUOUS
 62
     7
 10
456.7964
 20
210.025000000000010
 11
456.5464
 21
209.525000000000010
  0
LINE
  8
PT2-Rzut2
  6
CONTINUOUS
 62
     7
 10
459.0464
 20
209.525000000000010
 11
458.7964
 21
210.025000000000010
  0
LINE
  8
PT2-Rzut2
  6
CONTINUOUS
 62
     7
 10
459.5464
 20
209.525000000000010
 11
459.2964
 21
210.025000000000010
  0
LINE
  8
PT2-Rzut2
  6
CONTINUOUS
 62
     7
 10
459.2964
 20
210.025000000000010
 11
459.0464
 21
209.525000000000010
  0
LINE
  8
PT2-Rzut2
  6
CONTINUOUS
 62
     7
 10
459.7964
 20
210.025000000000010
 11
459.5464
 21
209.525000000000010
  0
LINE
  8
PT2-Rzut2
  6
CONTINUOUS
 62
     7
 10
457.0464
 20
209.525000000000010
 11
456.7964
 21
210.025000000000010
  0
LINE
  8
PT2-Rzut2
  6
CONTINUOUS
 62
     7
 10
457.5464
 20
209.525000000000010
 11
457.2964
 21
210.025000000000010
  0
LINE
  8
PT2-Rzut2
  6
CONTINUOUS
 62
     7
 10
458.7964
 20
210.025000000000010
 11
458.5464
 21
209.525000000000010
  0
LINE
  8
PT2-Rzut2
  6
CONTINUOUS
 62
     7
 10
458.5464
 20
209.525000000000010
 11
458.2964
 21
210.025000000000010
  0
LINE
  8
PT2-Rzut2
  6
CONTINUOUS
 62
     7
 10
457.7964
 20
210.025000000000010
 11
457.5464
 21
209.525000000000010
  0
LINE
  8
PT2-Rzut2
  6
CONTINUOUS
 62
     7
 10
458.0464
 20
209.525000000000010
 11
457.7964
 21
210.025000000000010
  0
LINE
  8
PT2-Rzut2
  6
CONTINUOUS
 62
     7
 10
458.2964
 20
210.025000000000010
 11
458.0464
 21
209.525000000000010
  0
LINE
  8
PT2-Rzut2
  6
CONTINUOUS
 62
     7
 10
457.2964
 20
210.025000000000010
 11
457.0464
 21
209.525000000000010
  0
LINE
  8
PT2-Rzut2
  6
CONTINUOUS
 62
     7
 10
460.2964
 20
210.025000000000010
 11
460.0464
 21
209.525000000000010
  0
LINE
  8
PT2-Rzut2
  6
CONTINUOUS
 62
     7
 10
460.0464
 20
209.525000000000010
 11
459.7964
 21
210.025000000000010
  0
LINE
  8
PT2-Rzut2
  6
CONTINUOUS
 62
     7
 10
454.2964
 20
210.025000000000010
 11
454.0464
 21
209.525000000000010
  0
LINE
  8
PT2-Rzut2
  6
CONTINUOUS
 62
     7
 10
455.0464
 20
209.525000000000010
 11
454.7964
 21
210.025000000000010
  0
LINE
  8
PT2-Rzut2
  6
CONTINUOUS
 62
     7
 10
454.7964
 20
210.025000000000010
 11
454.5464
 21
209.525000000000010
  0
LINE
  8
PT2-Rzut2
  6
CONTINUOUS
 62
     7
 10
454.5464
 20
209.525000000000010
 11
454.2964
 21
210.025000000000010
  0
LINE
  8
PT2-Rzut2
  6
CONTINUOUS
 62
     7
 10
454.0464
 20
209.525000000000010
 11
453.9463
 21
209.725100000000000
  0
LINE
  8
PT2-Rzut2
  6
CONTINUOUS
 62
     7
 10
455.5464
 20
209.525000000000010
 11
455.2964
 21
210.025000000000010
  0
LINE
  8
PT2-Rzut2
  6
CONTINUOUS
 62
     7
 10
455.7964
 20
210.025000000000010
 11
455.5464
 21
209.525000000000010
  0
LINE
  8
PT2-Rzut2
  6
CONTINUOUS
 62
     7
 10
455.2964
 20
210.025000000000010
 11
455.0464
 21
209.525000000000010
  0
LINE
  8
PT2-Rzut2
  6
CONTINUOUS
 62
     7
 10
456.2964
 20
210.025000000000010
 11
456.0464
 21
209.525000000000010
  0
LINE
  8
PT2-Rzut2
  6
CONTINUOUS
 62
     7
 10
456.5464
 20
209.525000000000010
 11
456.2964
 21
210.025000000000010
  0
LINE
  8
PT2-Rzut2
  6
CONTINUOUS
 62
     7
 10
456.0464
 20
209.525000000000010
 11
455.7964
 21
210.025000000000010
  0
LINE
  8
PT2-Rzut2
  6
CONTINUOUS
 62
     7
 10
467.4148
 20
212.935700000000000
 11
467.6963
 21
212.794999999999990
  0
LINE
  8
PT2-Rzut2
  6
CONTINUOUS
 62
     7
 10
453.9463
 20
211.375000000000000
 11
453.9463
 21
207.420899999999990
  0
LINE
  8
PT2-Rzut2
  6
CONTINUOUS
 62
     7
 10
470.0237
 20
192.875000000000000
 11
469.4463
 21
191.875000000000000
  0
LINE
  8
PT2-Rzut2
  6
CONTINUOUS
 62
     7
 10
462.4463
 20
191.875000000000000
 11
461.869
 21
192.875000000000000
  0
LINE
  8
PT2-Rzut2
  6
CONTINUOUS
 62
     7
 10
468.441
 20
212.935700000000000
 11
463.0715
 21
212.935700000000000
  0
LINE
  8
PT2-Rzut2
  6
CONTINUOUS
 62
     7
 10
467.9963
 20
196.875000000000000
 11
467.9963
 21
209.275000000000010
  0
LINE
  8
PT2-Rzut2
  6
CONTINUOUS
 62
     7
 10
467.8963
 20
196.875000000000000
 11
467.8963
 21
209.175000000000010
  0
LINE
  8
PT2-Rzut2
  6
CONTINUOUS
 62
     7
 10
467.9963
 20
198.474999999999990
 11
467.8963
 21
198.474999999999990
  0
LINE
  8
PT2-Rzut2
  6
CONTINUOUS
 62
     7
 10
467.9963
 20
196.995000000000000
 11
467.8963
 21
196.995000000000000
  0
LINE
  8
PT2-Rzut2
  6
CONTINUOUS
 62
     7
 10
467.9963
 20
199.474999999999990
 11
467.8963
 21
199.474999999999990
  0
LINE
  8
PT2-Rzut2
  6
CONTINUOUS
 62
     7
 10
467.9963
 20
199.974999999999990
 11
467.8963
 21
199.974999999999990
  0
LINE
  8
PT2-Rzut2
  6
CONTINUOUS
 62
     7
 10
467.9963
 20
198.974999999999990
 11
467.8963
 21
198.974999999999990
  0
LINE
  8
PT2-Rzut2
  6
CONTINUOUS
 62
     7
 10
467.9963
 20
201.474999999999990
 11
467.8963
 21
201.474999999999990
  0
LINE
  8
PT2-Rzut2
  6
CONTINUOUS
 62
     7
 10
467.9963
 20
200.474999999999990
 11
467.8963
 21
200.474999999999990
  0
LINE
  8
PT2-Rzut2
  6
CONTINUOUS
 62
     7
 10
467.9963
 20
200.974999999999990
 11
467.8963
 21
200.974999999999990
  0
LINE
  8
PT2-Rzut2
  6
CONTINUOUS
 62
     7
 10
467.9963
 20
203.474999999999990
 11
467.8963
 21
203.474999999999990
  0
LINE
  8
PT2-Rzut2
  6
CONTINUOUS
 62
     7
 10
467.9963
 20
202.974999999999990
 11
467.8963
 21
202.974999999999990
  0
LINE
  8
PT2-Rzut2
  6
CONTINUOUS
 62
     7
 10
467.9963
 20
201.974999999999990
 11
467.8963
 21
201.974999999999990
  0
LINE
  8
PT2-Rzut2
  6
CONTINUOUS
 62
     7
 10
467.9963
 20
202.474999999999990
 11
467.8963
 21
202.474999999999990
  0
LINE
  8
PT2-Rzut2
  6
CONTINUOUS
 62
     7
 10
467.9963
 20
204.974999999999990
 11
467.8963
 21
204.974999999999990
  0
LINE
  8
PT2-Rzut2
  6
CONTINUOUS
 62
     7
 10
467.9963
 20
204.474999999999990
 11
467.8963
 21
204.474999999999990
  0
LINE
  8
PT2-Rzut2
  6
CONTINUOUS
 62
     7
 10
467.9963
 20
203.974999999999990
 11
467.8963
 21
203.974999999999990
  0
LINE
  8
PT2-Rzut2
  6
CONTINUOUS
 62
     7
 10
467.9963
 20
206.474999999999990
 11
467.8963
 21
206.474999999999990
  0
LINE
  8
PT2-Rzut2
  6
CONTINUOUS
 62
     7
 10
467.9963
 20
205.974999999999990
 11
467.8963
 21
205.974999999999990
  0
LINE
  8
PT2-Rzut2
  6
CONTINUOUS
 62
     7
 10
467.9963
 20
205.474999999999990
 11
467.8963
 21
205.474999999999990
  0
LINE
  8
PT2-Rzut2
  6
CONTINUOUS
 62
     7
 10
467.9963
 20
207.974999999999990
 11
467.8963
 21
207.974999999999990
  0
LINE
  8
PT2-Rzut2
  6
CONTINUOUS
 62
     7
 10
467.9963
 20
208.474999999999990
 11
467.8963
 21
208.474999999999990
  0
LINE
  8
PT2-Rzut2
  6
CONTINUOUS
 62
     7
 10
467.9963
 20
207.474999999999990
 11
467.8963
 21
207.474999999999990
  0
LINE
  8
PT2-Rzut2
  6
CONTINUOUS
 62
     7
 10
467.9963
 20
206.974999999999990
 11
467.8963
 21
206.974999999999990
  0
LINE
  8
PT2-Rzut2
  6
CONTINUOUS
 62
     7
 10
467.8963
 20
209.275000000000010
 11
467.8963
 21
209.175000000000010
  0
LINE
  8
PT2-Rzut2
  6
CONTINUOUS
 62
     7
 10
467.9963
 20
209.474999999999990
 11
467.8963
 21
209.474999999999990
  0
LINE
  8
PT2-Rzut2
  6
CONTINUOUS
 62
     7
 10
467.9963
 20
208.974999999999990
 11
467.8963
 21
208.974999999999990
  0
LINE
  8
PT2-Rzut2
  6
CONTINUOUS
 62
     7
 10
467.1504
 20
197.978299999999990
 11
467.7504
 21
197.853299999999990
  0
LINE
  8
PT2-Rzut2
  6
CONTINUOUS
 62
     7
 10
467.1504
 20
197.728299999999990
 11
467.7504
 21
197.603299999999990
  0
LINE
  8
PT2-Rzut2
  6
CONTINUOUS
 62
     7
 10
467.7713
 20
197.845000000000000
 11
467.1713
 21
197.720000000000000
  0
LINE
  8
PT2-Rzut2
  6
CONTINUOUS
 62
     7
 10
467.1504
 20
197.478299999999990
 11
467.7504
 21
197.353299999999990
  0
LINE
  8
PT2-Rzut2
  6
CONTINUOUS
 62
     7
 10
467.7713
 20
197.595000000000000
 11
467.1713
 21
197.470000000000000
  0
LINE
  8
PT2-Rzut2
  6
CONTINUOUS
 62
     7
 10
467.1504
 20
197.228299999999990
 11
467.7504
 21
197.103299999999990
  0
LINE
  8
PT2-Rzut2
  6
CONTINUOUS
 62
     7
 10
467.7713
 20
197.345000000000000
 11
467.1713
 21
197.220000000000000
  0
LINE
  8
PT2-Rzut2
  6
CONTINUOUS
 62
     7
 10
467.1504
 20
196.978299999999990
 11
467.7504
 21
196.853299999999990
  0
LINE
  8
PT2-Rzut2
  6
CONTINUOUS
 62
     7
 10
467.7713
 20
197.095000000000000
 11
467.1713
 21
196.970000000000000
  0
LINE
  8
PT2-Rzut2
  6
CONTINUOUS
 62
     7
 10
466.9463
 20
209.175000000000010
 11
463.9463
 21
209.175000000000010
  0
LINE
  8
PT2-Rzut2
  6
CONTINUOUS
 62
     7
 10
466.9463
 20
209.175000000000010
 11
466.9463
 21
207.675000000000010
  0
LINE
  8
PT2-Rzut2
  6
CONTINUOUS
 62
     7
 10
463.9463
 20
207.675000000000010
 11
463.9463
 21
209.175000000000010
  0
LINE
  8
PT2-Rzut2
  6
CONTINUOUS
 62
     7
 10
466.9463
 20
207.675000000000010
 11
463.9463
 21
207.675000000000010
  0
LINE
  8
PT2-Rzut2
  6
CONTINUOUS
 62
     7
 10
466.9463
 20
207.555000000000010
 11
463.9463
 21
207.555000000000010
  0
LINE
  8
PT2-Rzut2
  6
CONTINUOUS
 62
     7
 10
466.9463
 20
207.555000000000010
 11
466.9463
 21
206.055000000000010
  0
LINE
  8
PT2-Rzut2
  6
CONTINUOUS
 62
     7
 10
463.9463
 20
206.055000000000010
 11
463.9463
 21
207.555000000000010
  0
LINE
  8
PT2-Rzut2
  6
CONTINUOUS
 62
     7
 10
466.9463
 20
206.055000000000010
 11
463.9463
 21
206.055000000000010
  0
LINE
  8
PT2-Rzut2
  6
CONTINUOUS
 62
     7
 10
466.9463
 20
205.935000000000000
 11
466.9463
 21
204.435000000000000
  0
LINE
  8
PT2-Rzut2
  6
CONTINUOUS
 62
     7
 10
466.9463
 20
205.935000000000000
 11
463.9463
 21
205.935000000000000
  0
LINE
  8
PT2-Rzut2
  6
CONTINUOUS
 62
     7
 10
466.9463
 20
204.435000000000000
 11
463.9463
 21
204.435000000000000
  0
LINE
  8
PT2-Rzut2
  6
CONTINUOUS
 62
     7
 10
463.9463
 20
204.435000000000000
 11
463.9463
 21
205.935000000000000
  0
LINE
  8
PT2-Rzut2
  6
CONTINUOUS
 62
     7
 10
466.9463
 20
204.315000000000000
 11
466.9463
 21
202.815000000000000
  0
LINE
  8
PT2-Rzut2
  6
CONTINUOUS
 62
     7
 10
466.9463
 20
204.315000000000000
 11
463.9463
 21
204.315000000000000
  0
LINE
  8
PT2-Rzut2
  6
CONTINUOUS
 62
     7
 10
466.9463
 20
202.815000000000000
 11
463.9463
 21
202.815000000000000
  0
LINE
  8
PT2-Rzut2
  6
CONTINUOUS
 62
     7
 10
463.9463
 20
202.815000000000000
 11
463.9463
 21
204.315000000000000
  0
LINE
  8
PT2-Rzut2
  6
CONTINUOUS
 62
     7
 10
466.9463
 20
202.694999999999990
 11
466.9463
 21
201.194999999999990
  0
LINE
  8
PT2-Rzut2
  6
CONTINUOUS
 62
     7
 10
466.9463
 20
202.694999999999990
 11
463.9463
 21
202.694999999999990
  0
LINE
  8
PT2-Rzut2
  6
CONTINUOUS
 62
     7
 10
466.9463
 20
201.194999999999990
 11
463.9463
 21
201.194999999999990
  0
LINE
  8
PT2-Rzut2
  6
CONTINUOUS
 62
     7
 10
463.9463
 20
201.194999999999990
 11
463.9463
 21
202.694999999999990
  0
LINE
  8
PT2-Rzut2
  6
CONTINUOUS
 62
     7
 10
466.9463
 20
201.074999999999990
 11
466.9463
 21
199.574999999999990
  0
LINE
  8
PT2-Rzut2
  6
CONTINUOUS
 62
     7
 10
466.9463
 20
201.074999999999990
 11
463.9463
 21
201.074999999999990
  0
LINE
  8
PT2-Rzut2
  6
CONTINUOUS
 62
     7
 10
466.9463
 20
199.574999999999990
 11
463.9463
 21
199.574999999999990
  0
LINE
  8
PT2-Rzut2
  6
CONTINUOUS
 62
     7
 10
463.9463
 20
199.574999999999990
 11
463.9463
 21
201.074999999999990
  0
LINE
  8
PT2-Rzut2
  6
CONTINUOUS
 62
     7
 10
466.9463
 20
199.455000000000010
 11
466.9463
 21
197.955000000000010
  0
LINE
  8
PT2-Rzut2
  6
CONTINUOUS
 62
     7
 10
466.9463
 20
199.455000000000010
 11
463.9463
 21
199.455000000000010
  0
LINE
  8
PT2-Rzut2
  6
CONTINUOUS
 62
     7
 10
466.9463
 20
197.955000000000010
 11
463.9463
 21
197.955000000000010
  0
LINE
  8
PT2-Rzut2
  6
CONTINUOUS
 62
     7
 10
463.9463
 20
197.955000000000010
 11
463.9463
 21
199.455000000000010
  0
LINE
  8
PT2-Rzut2
  6
CONTINUOUS
 62
     7
 10
466.9463
 20
197.835000000000010
 11
466.9463
 21
196.875000000000000
  0
LINE
  8
PT2-Rzut2
  6
CONTINUOUS
 62
     7
 10
466.9463
 20
197.835000000000010
 11
463.9463
 21
197.835000000000010
  0
LINE
  8
PT2-Rzut2
  6
CONTINUOUS
 62
     7
 10
463.9463
 20
196.875000000000000
 11
463.9463
 21
197.835000000000010
  0
LINE
  8
PT2-Rzut2
  6
CONTINUOUS
 62
     7
 10
469.1463
 20
196.474999999999990
 11
469.1463
 21
193.275000000000010
  0
LINE
  8
PT2-Rzut2
  6
CONTINUOUS
 62
     7
 10
469.0463
 20
196.574999999999990
 11
462.8463
 21
196.574999999999990
  0
LINE
  8
PT2-Rzut2
  6
CONTINUOUS
 62
     7
 10
462.7463
 20
196.474999999999990
 11
462.7463
 21
193.275000000000010
  0
LINE
  8
PT2-Rzut2
  6
CONTINUOUS
 62
     7
 10
469.0463
 20
193.175000000000010
 11
462.8463
 21
193.175000000000010
  0
LINE
  8
PT2-Rzut2
  6
CONTINUOUS
 62
     7
 10
469.1157
 20
196.402899999999990
 11
468.7366
 21
196.153300000000000
  0
LINE
  8
PT2-Rzut2
  6
CONTINUOUS
 62
     7
 10
468.9531
 20
196.511100000000000
 11
468.8269
 21
196.076400000000010
  0
CIRCLE
  8
PT2-Rzut2
  6
CONTINUOUS
 62
     7
 10
469.046299999999970
 20
196.474999999999990
 40
0.100000000000000
  0
CIRCLE
  8
PT2-Rzut2
  6
CONTINUOUS
 62
     7
 10
469.046299999999970
 20
193.275000000000010
 40
0.100000000000000
  0
CIRCLE
  8
PT2-Rzut2
  6
CONTINUOUS
 62
     7
 10
462.846299999999990
 20
196.474999999999990
 40
0.100000000000000
  0
CIRCLE
  8
PT2-Rzut2
  6
CONTINUOUS
 62
     7
 10
462.846299999999990
 20
193.275000000000010
 40
0.100000000000000
  0
ARC
  8
PT2-Rzut2
  6
CONTINUOUS
 62
     7
 10
467.221299999999990
 20
203.590200000000010
 40
0.125000000000000
 50
90.000000000000000
 51
270.000000000000000
  0
ARC
  8
PT2-Rzut2
  6
CONTINUOUS
 62
     7
 10
467.771300000000000
 20
203.470000000000000
 40
0.125000000000000
 50
270.000000000000000
 51
90.000000000000000
  0
ARC
  8
PT2-Rzut2
  6
CONTINUOUS
 62
     7
 10
467.221299999999990
 20
200.340200000000010
 40
0.125000000000000
 50
90.000000000000000
 51
270.000000000000000
  0
ARC
  8
PT2-Rzut2
  6
CONTINUOUS
 62
     7
 10
467.771300000000000
 20
200.220000000000000
 40
0.125000000000000
 50
270.000000000000000
 51
90.000000000000000
  0
ARC
  8
PT2-Rzut2
  6
CONTINUOUS
 62
     7
 10
467.221299999999990
 20
198.590200000000010
 40
0.125000000000000
 50
90.000000000000000
 51
270.000000000000000
  0
ARC
  8
PT2-Rzut2
  6
CONTINUOUS
 62
     7
 10
467.771300000000000
 20
198.470000000000000
 40
0.125000000000000
 50
360.000000000000000
 51
90.000000000000000
  0
ARC
  8
PT2-Rzut2
  6
CONTINUOUS
 62
     7
 10
467.771300000000000
 20
198.720000000000000
 40
0.125000000000000
 50
270.000000000000000
 51
360.000000000000000
  0
ARC
  8
PT2-Rzut2
  6
CONTINUOUS
 62
     7
 10
467.221299999999990
 20
198.340200000000010
 40
0.125000000000000
 50
90.000000000000000
 51
270.000000000000000
  0
ARC
  8
PT2-Rzut2
  6
CONTINUOUS
 62
     7
 10
467.179599999999990
 20
196.902899999999990
 40
0.087400000000000
 50
95.413499999999999
 51
198.644299999999930
  0
ARC
  8
PT2-Rzut2
  6
CONTINUOUS
 62
     7
 10
467.221299999999990
 20
198.090200000000010
 40
0.125000000000000
 50
90.000000000000000
 51
270.000000000000000
  0
ARC
  8
PT2-Rzut2
  6
CONTINUOUS
 62
     7
 10
467.771300000000000
 20
198.470000000000000
 40
0.125000000000000
 50
270.000000000000000
 51
360.000000000000000
  0
ARC
  8
PT2-Rzut2
  6
CONTINUOUS
 62
     7
 10
467.771300000000000
 20
197.970000000000000
 40
0.125000000000000
 50
293.073899999999980
 51
90.000000000000000
  0
ARC
  8
PT2-Rzut2
  6
CONTINUOUS
 62
     7
 10
467.771300000000000
 20
198.220000000000000
 40
0.125000000000000
 50
270.000000000000000
 51
90.000000000000000
  0
ARC
  8
PT2-Rzut2
  6
CONTINUOUS
 62
     7
 10
467.221299999999990
 20
199.840200000000010
 40
0.125000000000000
 50
90.000000000000000
 51
270.000000000000000
  0
ARC
  8
PT2-Rzut2
  6
CONTINUOUS
 62
     7
 10
467.221299999999990
 20
199.590200000000010
 40
0.125000000000000
 50
90.000000000000000
 51
270.000000000000000
  0
ARC
  8
PT2-Rzut2
  6
CONTINUOUS
 62
     7
 10
467.221299999999990
 20
200.090200000000010
 40
0.125000000000000
 50
90.000000000000000
 51
270.000000000000000
  0
ARC
  8
PT2-Rzut2
  6
CONTINUOUS
 62
     7
 10
467.221299999999990
 20
199.090200000000010
 40
0.125000000000000
 50
90.000000000000000
 51
270.000000000000000
  0
ARC
  8
PT2-Rzut2
  6
CONTINUOUS
 62
     7
 10
467.221299999999990
 20
198.840200000000010
 40
0.125000000000000
 50
90.000000000000000
 51
270.000000000000000
  0
ARC
  8
PT2-Rzut2
  6
CONTINUOUS
 62
     7
 10
467.221299999999990
 20
199.340200000000010
 40
0.125000000000000
 50
90.000000000000000
 51
270.000000000000000
  0
ARC
  8
PT2-Rzut2
  6
CONTINUOUS
 62
     7
 10
467.771300000000000
 20
198.720000000000000
 40
0.125000000000000
 50
360.000000000000000
 51
90.000000000000000
  0
ARC
  8
PT2-Rzut2
  6
CONTINUOUS
 62
     7
 10
467.771300000000000
 20
199.970000000000000
 40
0.125000000000000
 50
270.000000000000000
 51
360.000000000000000
  0
ARC
  8
PT2-Rzut2
  6
CONTINUOUS
 62
     7
 10
467.771300000000000
 20
199.720000000000000
 40
0.125000000000000
 50
360.000000000000000
 51
90.000000000000000
  0
ARC
  8
PT2-Rzut2
  6
CONTINUOUS
 62
     7
 10
467.771300000000000
 20
199.720000000000000
 40
0.125000000000000
 50
270.000000000000000
 51
360.000000000000000
  0
ARC
  8
PT2-Rzut2
  6
CONTINUOUS
 62
     7
 10
467.771300000000000
 20
199.970000000000000
 40
0.125000000000000
 50
360.000000000000000
 51
90.000000000000000
  0
ARC
  8
PT2-Rzut2
  6
CONTINUOUS
 62
     7
 10
467.771300000000000
 20
199.720000000000000
 40
0.125000000000000
 50
270.000000000000000
 51
360.000000000000000
  0
ARC
  8
PT2-Rzut2
  6
CONTINUOUS
 62
     7
 10
467.771300000000000
 20
199.470000000000000
 40
0.125000000000000
 50
360.000000000000000
 51
90.000000000000000
  0
ARC
  8
PT2-Rzut2
  6
CONTINUOUS
 62
     7
 10
467.771300000000000
 20
199.470000000000000
 40
0.125000000000000
 50
270.000000000000000
 51
360.000000000000000
  0
ARC
  8
PT2-Rzut2
  6
CONTINUOUS
 62
     7
 10
467.771300000000000
 20
199.220000000000000
 40
0.125000000000000
 50
270.000000000000000
 51
90.000000000000000
  0
ARC
  8
PT2-Rzut2
  6
CONTINUOUS
 62
     7
 10
467.771300000000000
 20
198.970000000000000
 40
0.125000000000000
 50
270.000000000000000
 51
90.000000000000000
  0
ARC
  8
PT2-Rzut2
  6
CONTINUOUS
 62
     7
 10
467.771300000000000
 20
199.470000000000000
 40
0.125000000000000
 50
270.000000000000000
 51
360.000000000000000
  0
ARC
  8
PT2-Rzut2
  6
CONTINUOUS
 62
     7
 10
467.771300000000000
 20
199.720000000000000
 40
0.125000000000000
 50
270.000000000000000
 51
360.000000000000000
  0
ARC
  8
PT2-Rzut2
  6
CONTINUOUS
 62
     7
 10
467.221299999999990
 20
201.840200000000010
 40
0.125000000000000
 50
90.000000000000000
 51
270.000000000000000
  0
ARC
  8
PT2-Rzut2
  6
CONTINUOUS
 62
     7
 10
467.771300000000000
 20
201.970000000000000
 40
0.125000000000000
 50
270.000000000000000
 51
360.000000000000000
  0
ARC
  8
PT2-Rzut2
  6
CONTINUOUS
 62
     7
 10
467.771300000000000
 20
201.970000000000000
 40
0.125000000000000
 50
270.000000000000000
 51
360.000000000000000
  0
ARC
  8
PT2-Rzut2
  6
CONTINUOUS
 62
     7
 10
467.221299999999990
 20
201.340200000000010
 40
0.125000000000000
 50
90.000000000000000
 51
270.000000000000000
  0
ARC
  8
PT2-Rzut2
  6
CONTINUOUS
 62
     7
 10
467.221299999999990
 20
201.590200000000010
 40
0.125000000000000
 50
90.000000000000000
 51
270.000000000000000
  0
ARC
  8
PT2-Rzut2
  6
CONTINUOUS
 62
     7
 10
467.771300000000000
 20
201.220000000000000
 40
0.125000000000000
 50
270.000000000000000
 51
360.000000000000000
  0
ARC
  8
PT2-Rzut2
  6
CONTINUOUS
 62
     7
 10
467.771300000000000
 20
201.220000000000000
 40
0.125000000000000
 50
360.000000000000000
 51
90.000000000000000
  0
ARC
  8
PT2-Rzut2
  6
CONTINUOUS
 62
     7
 10
467.771300000000000
 20
201.470000000000000
 40
0.125000000000000
 50
270.000000000000000
 51
90.000000000000000
  0
ARC
  8
PT2-Rzut2
  6
CONTINUOUS
 62
     7
 10
467.771300000000000
 20
201.720000000000000
 40
0.125000000000000
 50
270.000000000000000
 51
90.000000000000000
  0
ARC
  8
PT2-Rzut2
  6
CONTINUOUS
 62
     7
 10
467.221299999999990
 20
200.590200000000010
 40
0.125000000000000
 50
90.000000000000000
 51
270.000000000000000
  0
ARC
  8
PT2-Rzut2
  6
CONTINUOUS
 62
     7
 10
467.221299999999990
 20
200.840200000000010
 40
0.125000000000000
 50
90.000000000000000
 51
270.000000000000000
  0
ARC
  8
PT2-Rzut2
  6
CONTINUOUS
 62
     7
 10
467.771300000000000
 20
200.970000000000000
 40
0.125000000000000
 50
270.000000000000000
 51
360.000000000000000
  0
ARC
  8
PT2-Rzut2
  6
CONTINUOUS
 62
     7
 10
467.771300000000000
 20
200.720000000000000
 40
0.125000000000000
 50
270.000000000000000
 51
360.000000000000000
  0
ARC
  8
PT2-Rzut2
  6
CONTINUOUS
 62
     7
 10
467.771300000000000
 20
200.470000000000000
 40
0.125000000000000
 50
270.000000000000000
 51
90.000000000000000
  0
ARC
  8
PT2-Rzut2
  6
CONTINUOUS
 62
     7
 10
467.771300000000000
 20
200.720000000000000
 40
0.125000000000000
 50
270.000000000000000
 51
360.000000000000000
  0
ARC
  8
PT2-Rzut2
  6
CONTINUOUS
 62
     7
 10
467.771300000000000
 20
200.720000000000000
 40
0.125000000000000
 50
360.000000000000000
 51
90.000000000000000
  0
ARC
  8
PT2-Rzut2
  6
CONTINUOUS
 62
     7
 10
467.771300000000000
 20
200.970000000000000
 40
0.125000000000000
 50
270.000000000000000
 51
360.000000000000000
  0
ARC
  8
PT2-Rzut2
  6
CONTINUOUS
 62
     7
 10
467.771300000000000
 20
200.970000000000000
 40
0.125000000000000
 50
360.000000000000000
 51
90.000000000000000
  0
ARC
  8
PT2-Rzut2
  6
CONTINUOUS
 62
     7
 10
467.221299999999990
 20
201.090200000000010
 40
0.125000000000000
 50
90.000000000000000
 51
270.000000000000000
  0
ARC
  8
PT2-Rzut2
  6
CONTINUOUS
 62
     7
 10
467.221299999999990
 20
202.840200000000010
 40
0.125000000000000
 50
90.000000000000000
 51
270.000000000000000
  0
ARC
  8
PT2-Rzut2
  6
CONTINUOUS
 62
     7
 10
467.221299999999990
 20
203.340200000000010
 40
0.125000000000000
 50
90.000000000000000
 51
270.000000000000000
  0
ARC
  8
PT2-Rzut2
  6
CONTINUOUS
 62
     7
 10
467.221299999999990
 20
203.090200000000010
 40
0.125000000000000
 50
90.000000000000000
 51
270.000000000000000
  0
ARC
  8
PT2-Rzut2
  6
CONTINUOUS
 62
     7
 10
467.221299999999990
 20
202.340200000000010
 40
0.125000000000000
 50
90.000000000000000
 51
270.000000000000000
  0
ARC
  8
PT2-Rzut2
  6
CONTINUOUS
 62
     7
 10
467.221299999999990
 20
202.090200000000010
 40
0.125000000000000
 50
90.000000000000000
 51
270.000000000000000
  0
ARC
  8
PT2-Rzut2
  6
CONTINUOUS
 62
     7
 10
467.221299999999990
 20
202.590200000000010
 40
0.125000000000000
 50
90.000000000000000
 51
270.000000000000000
  0
ARC
  8
PT2-Rzut2
  6
CONTINUOUS
 62
     7
 10
467.771300000000000
 20
203.220000000000000
 40
0.125000000000000
 50
360.000000000000000
 51
90.000000000000000
  0
ARC
  8
PT2-Rzut2
  6
CONTINUOUS
 62
     7
 10
467.771300000000000
 20
202.970000000000000
 40
0.125000000000000
 50
270.000000000000000
 51
360.000000000000000
  0
ARC
  8
PT2-Rzut2
  6
CONTINUOUS
 62
     7
 10
467.771300000000000
 20
202.970000000000000
 40
0.125000000000000
 50
360.000000000000000
 51
90.000000000000000
  0
ARC
  8
PT2-Rzut2
  6
CONTINUOUS
 62
     7
 10
467.771300000000000
 20
203.220000000000000
 40
0.125000000000000
 50
270.000000000000000
 51
360.000000000000000
  0
ARC
  8
PT2-Rzut2
  6
CONTINUOUS
 62
     7
 10
467.771300000000000
 20
202.470000000000000
 40
0.125000000000000
 50
270.000000000000000
 51
90.000000000000000
  0
ARC
  8
PT2-Rzut2
  6
CONTINUOUS
 62
     7
 10
467.771300000000000
 20
202.220000000000000
 40
0.125000000000000
 50
270.000000000000000
 51
360.000000000000000
  0
ARC
  8
PT2-Rzut2
  6
CONTINUOUS
 62
     7
 10
467.771300000000000
 20
201.970000000000000
 40
0.125000000000000
 50
360.000000000000000
 51
90.000000000000000
  0
ARC
  8
PT2-Rzut2
  6
CONTINUOUS
 62
     7
 10
467.771300000000000
 20
202.220000000000000
 40
0.125000000000000
 50
360.000000000000000
 51
90.000000000000000
  0
ARC
  8
PT2-Rzut2
  6
CONTINUOUS
 62
     7
 10
467.771300000000000
 20
202.720000000000000
 40
0.125000000000000
 50
270.000000000000000
 51
90.000000000000000
  0
ARC
  8
PT2-Rzut2
  6
CONTINUOUS
 62
     7
 10
454.796400000000010
 20
209.525000000000010
 40
0.250000000000000
 50
270.000000000000000
 51
360.000000000000000
  0
ARC
  8
PT2-Rzut2
  6
CONTINUOUS
 62
     7
 10
454.796400000000010
 20
209.525000000000010
 40
0.250000000000000
 50
180.000000000000000
 51
270.000000000000000
  0
ARC
  8
PT2-Rzut2
  6
CONTINUOUS
 62
     7
 10
454.296400000000010
 20
209.525000000000010
 40
0.250000000000000
 50
180.000000000000000
 51
360.000000000000000
  0
ARC
  8
PT2-Rzut2
  6
CONTINUOUS
 62
     7
 10
453.796400000000010
 20
209.525000000000010
 40
0.250000000000000
 50
306.851600000000020
 51
360.000000000000000
  0
ARC
  8
PT2-Rzut2
  6
CONTINUOUS
 62
     7
 10
455.296400000000010
 20
209.525000000000010
 40
0.250000000000000
 50
180.000000000000000
 51
360.000000000000000
  0
ARC
  8
PT2-Rzut2
  6
CONTINUOUS
 62
     7
 10
458.796400000000010
 20
209.525000000000010
 40
0.250000000000000
 50
180.000000000000000
 51
360.000000000000000
  0
ARC
  8
PT2-Rzut2
  6
CONTINUOUS
 62
     7
 10
459.296400000000010
 20
209.525000000000010
 40
0.250000000000000
 50
270.000000000000000
 51
360.000000000000000
  0
ARC
  8
PT2-Rzut2
  6
CONTINUOUS
 62
     7
 10
459.296400000000010
 20
209.525000000000010
 40
0.250000000000000
 50
180.000000000000000
 51
270.000000000000000
  0
ARC
  8
PT2-Rzut2
  6
CONTINUOUS
 62
     7
 10
456.296400000000010
 20
209.525000000000010
 40
0.250000000000000
 50
180.000000000000000
 51
270.000000000000000
  0
ARC
  8
PT2-Rzut2
  6
CONTINUOUS
 62
     7
 10
456.796400000000010
 20
209.525000000000010
 40
0.250000000000000
 50
180.000000000000000
 51
360.000000000000000
  0
ARC
  8
PT2-Rzut2
  6
CONTINUOUS
 62
     7
 10
456.296400000000010
 20
209.525000000000010
 40
0.250000000000000
 50
270.000000000000000
 51
360.000000000000000
  0
ARC
  8
PT2-Rzut2
  6
CONTINUOUS
 62
     7
 10
457.796400000000010
 20
209.525000000000010
 40
0.250000000000000
 50
180.000000000000000
 51
270.000000000000000
  0
ARC
  8
PT2-Rzut2
  6
CONTINUOUS
 62
     7
 10
457.796400000000010
 20
209.525000000000010
 40
0.250000000000000
 50
270.000000000000000
 51
360.000000000000000
  0
ARC
  8
PT2-Rzut2
  6
CONTINUOUS
 62
     7
 10
458.296400000000010
 20
209.525000000000010
 40
0.250000000000000
 50
180.000000000000000
 51
360.000000000000000
  0
ARC
  8
PT2-Rzut2
  6
CONTINUOUS
 62
     7
 10
457.296400000000010
 20
209.525000000000010
 40
0.250000000000000
 50
180.000000000000000
 51
360.000000000000000
  0
ARC
  8
PT2-Rzut2
  6
CONTINUOUS
 62
     7
 10
455.796400000000010
 20
209.525000000000010
 40
0.250000000000000
 50
180.000000000000000
 51
360.000000000000000
  0
ARC
  8
PT2-Rzut2
  6
CONTINUOUS
 62
     7
 10
460.296400000000010
 20
209.525000000000010
 40
0.250000000000000
 50
180.000000000000000
 51
360.000000000000000
  0
ARC
  8
PT2-Rzut2
  6
CONTINUOUS
 62
     7
 10
460.796400000000010
 20
209.525000000000010
 40
0.250000000000000
 50
180.000000000000000
 51
270.000000000000000
  0
ARC
  8
PT2-Rzut2
  6
CONTINUOUS
 62
     7
 10
461.796400000000010
 20
209.525000000000010
 40
0.250000000000000
 50
180.000000000000000
 51
360.000000000000000
  0
ARC
  8
PT2-Rzut2
  6
CONTINUOUS
 62
     7
 10
461.296400000000010
 20
209.525000000000010
 40
0.250000000000000
 50
180.000000000000000
 51
360.000000000000000
  0
ARC
  8
PT2-Rzut2
  6
CONTINUOUS
 62
     7
 10
460.796400000000010
 20
209.525000000000010
 40
0.250000000000000
 50
270.000000000000000
 51
360.000000000000000
  0
ARC
  8
PT2-Rzut2
  6
CONTINUOUS
 62
     7
 10
462.296400000000010
 20
209.525000000000010
 40
0.250000000000000
 50
180.000000000000000
 51
270.000000000000000
  0
ARC
  8
PT2-Rzut2
  6
CONTINUOUS
 62
     7
 10
462.296400000000010
 20
209.525000000000010
 40
0.250000000000000
 50
270.000000000000000
 51
360.000000000000000
  0
ARC
  8
PT2-Rzut2
  6
CONTINUOUS
 62
     7
 10
463.296400000000010
 20
209.525000000000010
 40
0.250000000000000
 50
180.000000000000000
 51
360.000000000000000
  0
ARC
  8
PT2-Rzut2
  6
CONTINUOUS
 62
     7
 10
462.796400000000010
 20
209.525000000000010
 40
0.250000000000000
 50
180.000000000000000
 51
360.000000000000000
  0
ARC
  8
PT2-Rzut2
  6
CONTINUOUS
 62
     7
 10
463.896200000000020
 20
209.427500000000010
 40
0.050000000000000
 50
360.000000000000000
 51
90.000000000000000
  0
ARC
  8
PT2-Rzut2
  6
CONTINUOUS
 62
     7
 10
463.796200000000000
 20
209.477499999999990
 40
0.050000000000000
 50
90.000000000000000
 51
270.000000000000000
  0
ARC
  8
PT2-Rzut2
  6
CONTINUOUS
 62
     7
 10
467.296299999999970
 20
209.595000000000000
 40
0.200000000000000
 50
90.000000000000000
 51
270.000000000000000
  0
ARC
  8
PT2-Rzut2
  6
CONTINUOUS
 62
     7
 10
463.796400000000010
 20
209.525000000000010
 40
0.250000000000000
 50
180.000000000000000
 51
258.433200000000000
  0
ARC
  8
PT2-Rzut2
  6
CONTINUOUS
 62
     7
 10
459.796400000000010
 20
209.525000000000010
 40
0.250000000000000
 50
180.000000000000000
 51
360.000000000000000
  0
ARC
  8
PT2-Rzut2
  6
CONTINUOUS
 62
     7
 10
467.696300000000010
 20
209.395000000000010
 40
0.200000000000000
 50
323.130099999999970
 51
90.000000000000000
  0
ARC
  8
PT2-Rzut2
  6
CONTINUOUS
 62
     7
 10
467.221299999999990
 20
206.840200000000010
 40
0.125000000000000
 50
90.000000000000000
 51
270.000000000000000
  0
ARC
  8
PT2-Rzut2
  6
CONTINUOUS
 62
     7
 10
467.771300000000000
 20
206.970000000000000
 40
0.125000000000000
 50
270.000000000000000
 51
360.000000000000000
  0
ARC
  8
PT2-Rzut2
  6
CONTINUOUS
 62
     7
 10
467.221299999999990
 20
205.090200000000010
 40
0.125000000000000
 50
90.000000000000000
 51
270.000000000000000
  0
ARC
  8
PT2-Rzut2
  6
CONTINUOUS
 62
     7
 10
467.771300000000000
 20
205.220000000000000
 40
0.125000000000000
 50
270.000000000000000
 51
90.000000000000000
  0
ARC
  8
PT2-Rzut2
  6
CONTINUOUS
 62
     7
 10
467.771300000000000
 20
205.220000000000000
 40
0.125000000000000
 50
270.000000000000000
 51
360.000000000000000
  0
ARC
  8
PT2-Rzut2
  6
CONTINUOUS
 62
     7
 10
467.221299999999990
 20
204.590200000000010
 40
0.125000000000000
 50
90.000000000000000
 51
270.000000000000000
  0
ARC
  8
PT2-Rzut2
  6
CONTINUOUS
 62
     7
 10
467.221299999999990
 20
204.840200000000010
 40
0.125000000000000
 50
90.000000000000000
 51
270.000000000000000
  0
ARC
  8
PT2-Rzut2
  6
CONTINUOUS
 62
     7
 10
467.221299999999990
 20
204.090200000000010
 40
0.125000000000000
 50
90.000000000000000
 51
270.000000000000000
  0
ARC
  8
PT2-Rzut2
  6
CONTINUOUS
 62
     7
 10
467.221299999999990
 20
203.840200000000010
 40
0.125000000000000
 50
90.000000000000000
 51
270.000000000000000
  0
ARC
  8
PT2-Rzut2
  6
CONTINUOUS
 62
     7
 10
467.221299999999990
 20
204.340200000000010
 40
0.125000000000000
 50
90.000000000000000
 51
270.000000000000000
  0
ARC
  8
PT2-Rzut2
  6
CONTINUOUS
 62
     7
 10
467.771300000000000
 20
204.470000000000000
 40
0.125000000000000
 50
270.000000000000000
 51
90.000000000000000
  0
ARC
  8
PT2-Rzut2
  6
CONTINUOUS
 62
     7
 10
467.771300000000000
 20
204.220000000000000
 40
0.125000000000000
 50
270.000000000000000
 51
360.000000000000000
  0
ARC
  8
PT2-Rzut2
  6
CONTINUOUS
 62
     7
 10
467.771300000000000
 20
203.970000000000000
 40
0.125000000000000
 50
360.000000000000000
 51
90.000000000000000
  0
ARC
  8
PT2-Rzut2
  6
CONTINUOUS
 62
     7
 10
467.771300000000000
 20
203.970000000000000
 40
0.125000000000000
 50
270.000000000000000
 51
360.000000000000000
  0
ARC
  8
PT2-Rzut2
  6
CONTINUOUS
 62
     7
 10
467.771300000000000
 20
204.220000000000000
 40
0.125000000000000
 50
360.000000000000000
 51
90.000000000000000
  0
ARC
  8
PT2-Rzut2
  6
CONTINUOUS
 62
     7
 10
467.771300000000000
 20
204.720000000000000
 40
0.125000000000000
 50
270.000000000000000
 51
90.000000000000000
  0
ARC
  8
PT2-Rzut2
  6
CONTINUOUS
 62
     7
 10
467.771300000000000
 20
204.970000000000000
 40
0.125000000000000
 50
270.000000000000000
 51
360.000000000000000
  0
ARC
  8
PT2-Rzut2
  6
CONTINUOUS
 62
     7
 10
467.771300000000000
 20
204.970000000000000
 40
0.125000000000000
 50
360.000000000000000
 51
90.000000000000000
  0
ARC
  8
PT2-Rzut2
  6
CONTINUOUS
 62
     7
 10
467.771300000000000
 20
203.720000000000000
 40
0.125000000000000
 50
270.000000000000000
 51
90.000000000000000
  0
ARC
  8
PT2-Rzut2
  6
CONTINUOUS
 62
     7
 10
467.221299999999990
 20
206.590200000000010
 40
0.125000000000000
 50
90.000000000000000
 51
270.000000000000000
  0
ARC
  8
PT2-Rzut2
  6
CONTINUOUS
 62
     7
 10
467.221299999999990
 20
206.090200000000010
 40
0.125000000000000
 50
90.000000000000000
 51
270.000000000000000
  0
ARC
  8
PT2-Rzut2
  6
CONTINUOUS
 62
     7
 10
467.221299999999990
 20
206.340200000000010
 40
0.125000000000000
 50
90.000000000000000
 51
270.000000000000000
  0
ARC
  8
PT2-Rzut2
  6
CONTINUOUS
 62
     7
 10
467.221299999999990
 20
205.340200000000010
 40
0.125000000000000
 50
90.000000000000000
 51
270.000000000000000
  0
ARC
  8
PT2-Rzut2
  6
CONTINUOUS
 62
     7
 10
467.221299999999990
 20
205.590200000000010
 40
0.125000000000000
 50
90.000000000000000
 51
270.000000000000000
  0
ARC
  8
PT2-Rzut2
  6
CONTINUOUS
 62
     7
 10
467.221299999999990
 20
205.840200000000010
 40
0.125000000000000
 50
90.000000000000000
 51
270.000000000000000
  0
ARC
  8
PT2-Rzut2
  6
CONTINUOUS
 62
     7
 10
467.771300000000000
 20
205.220000000000000
 40
0.125000000000000
 50
360.000000000000000
 51
90.000000000000000
  0
ARC
  8
PT2-Rzut2
  6
CONTINUOUS
 62
     7
 10
467.771300000000000
 20
205.970000000000000
 40
0.125000000000000
 50
270.000000000000000
 51
90.000000000000000
  0
ARC
  8
PT2-Rzut2
  6
CONTINUOUS
 62
     7
 10
467.771300000000000
 20
205.470000000000000
 40
0.125000000000000
 50
270.000000000000000
 51
360.000000000000000
  0
ARC
  8
PT2-Rzut2
  6
CONTINUOUS
 62
     7
 10
467.771300000000000
 20
205.470000000000000
 40
0.125000000000000
 50
360.000000000000000
 51
90.000000000000000
  0
ARC
  8
PT2-Rzut2
  6
CONTINUOUS
 62
     7
 10
467.771300000000000
 20
205.720000000000000
 40
0.125000000000000
 50
270.000000000000000
 51
90.000000000000000
  0
ARC
  8
PT2-Rzut2
  6
CONTINUOUS
 62
     7
 10
467.771300000000000
 20
206.720000000000000
 40
0.125000000000000
 50
270.000000000000000
 51
90.000000000000000
  0
ARC
  8
PT2-Rzut2
  6
CONTINUOUS
 62
     7
 10
467.771300000000000
 20
206.220000000000000
 40
0.125000000000000
 50
270.000000000000000
 51
360.000000000000000
  0
ARC
  8
PT2-Rzut2
  6
CONTINUOUS
 62
     7
 10
467.771300000000000
 20
206.470000000000000
 40
0.125000000000000
 50
270.000000000000000
 51
90.000000000000000
  0
ARC
  8
PT2-Rzut2
  6
CONTINUOUS
 62
     7
 10
467.771300000000000
 20
206.220000000000000
 40
0.125000000000000
 50
360.000000000000000
 51
90.000000000000000
  0
ARC
  8
PT2-Rzut2
  6
CONTINUOUS
 62
     7
 10
467.221299999999990
 20
208.590200000000010
 40
0.125000000000000
 50
90.000000000000000
 51
270.000000000000000
  0
ARC
  8
PT2-Rzut2
  6
CONTINUOUS
 62
     7
 10
467.771300000000000
 20
208.470000000000000
 40
0.125000000000000
 50
270.000000000000000
 51
90.000000000000000
  0
ARC
  8
PT2-Rzut2
  6
CONTINUOUS
 62
     7
 10
467.221299999999990
 20
208.340200000000010
 40
0.125000000000000
 50
90.000000000000000
 51
270.000000000000000
  0
ARC
  8
PT2-Rzut2
  6
CONTINUOUS
 62
     7
 10
467.221299999999990
 20
207.840200000000010
 40
0.125000000000000
 50
90.000000000000000
 51
270.000000000000000
  0
ARC
  8
PT2-Rzut2
  6
CONTINUOUS
 62
     7
 10
467.221299999999990
 20
208.090200000000010
 40
0.125000000000000
 50
90.000000000000000
 51
270.000000000000000
  0
ARC
  8
PT2-Rzut2
  6
CONTINUOUS
 62
     7
 10
467.771300000000000
 20
207.720000000000000
 40
0.125000000000000
 50
270.000000000000000
 51
90.000000000000000
  0
ARC
  8
PT2-Rzut2
  6
CONTINUOUS
 62
     7
 10
467.771300000000000
 20
208.220000000000000
 40
0.125000000000000
 50
270.000000000000000
 51
360.000000000000000
  0
ARC
  8
PT2-Rzut2
  6
CONTINUOUS
 62
     7
 10
467.771300000000000
 20
207.970000000000000
 40
0.125000000000000
 50
270.000000000000000
 51
90.000000000000000
  0
ARC
  8
PT2-Rzut2
  6
CONTINUOUS
 62
     7
 10
467.771300000000000
 20
208.220000000000000
 40
0.125000000000000
 50
360.000000000000000
 51
90.000000000000000
  0
ARC
  8
PT2-Rzut2
  6
CONTINUOUS
 62
     7
 10
467.221299999999990
 20
207.340200000000010
 40
0.125000000000000
 50
90.000000000000000
 51
270.000000000000000
  0
ARC
  8
PT2-Rzut2
  6
CONTINUOUS
 62
     7
 10
467.221299999999990
 20
207.090200000000010
 40
0.125000000000000
 50
90.000000000000000
 51
270.000000000000000
  0
ARC
  8
PT2-Rzut2
  6
CONTINUOUS
 62
     7
 10
467.771300000000000
 20
207.220000000000000
 40
0.125000000000000
 50
270.000000000000000
 51
90.000000000000000
  0
ARC
  8
PT2-Rzut2
  6
CONTINUOUS
 62
     7
 10
467.771300000000000
 20
207.470000000000000
 40
0.125000000000000
 50
270.000000000000000
 51
360.000000000000000
  0
ARC
  8
PT2-Rzut2
  6
CONTINUOUS
 62
     7
 10
467.771300000000000
 20
206.970000000000000
 40
0.125000000000000
 50
360.000000000000000
 51
90.000000000000000
  0
ARC
  8
PT2-Rzut2
  6
CONTINUOUS
 62
     7
 10
467.771300000000000
 20
207.470000000000000
 40
0.125000000000000
 50
360.000000000000000
 51
90.000000000000000
  0
ARC
  8
PT2-Rzut2
  6
CONTINUOUS
 62
     7
 10
467.221299999999990
 20
207.590200000000010
 40
0.125000000000000
 50
90.000000000000000
 51
270.000000000000000
  0
ARC
  8
PT2-Rzut2
  6
CONTINUOUS
 62
     7
 10
467.221299999999990
 20
208.840200000000010
 40
0.125000000000000
 50
90.000000000000000
 51
270.000000000000000
  0
ARC
  8
PT2-Rzut2
  6
CONTINUOUS
 62
     7
 10
467.221299999999990
 20
209.090200000000010
 40
0.125000000000000
 50
90.000000000000000
 51
270.000000000000000
  0
ARC
  8
PT2-Rzut2
  6
CONTINUOUS
 62
     7
 10
467.771300000000000
 20
208.970000000000000
 40
0.125000000000000
 50
360.000000000000000
 51
90.000000000000000
  0
ARC
  8
PT2-Rzut2
  6
CONTINUOUS
 62
     7
 10
467.771300000000000
 20
208.720000000000000
 40
0.125000000000000
 50
270.000000000000000
 51
90.000000000000000
  0
ARC
  8
PT2-Rzut2
  6
CONTINUOUS
 62
     7
 10
467.771300000000000
 20
208.970000000000000
 40
0.125000000000000
 50
270.000000000000000
 51
360.000000000000000
  0
ARC
  8
PT2-Rzut2
  6
CONTINUOUS
 62
     7
 10
463.896200000000020
 20
209.427500000000010
 40
0.050000000000000
 50
270.000000000000000
 51
360.000000000000000
  0
ARC
  8
PT2-Rzut2
  6
CONTINUOUS
 62
     7
 10
463.896200000000020
 20
209.327499999999990
 40
0.050000000000000
 50
270.000000000000000
 51
90.000000000000000
  0
ARC
  8
PT2-Rzut2
  6
CONTINUOUS
 62
     7
 10
463.796200000000000
 20
209.377500000000000
 40
0.050000000000000
 50
90.000000000000000
 51
270.000000000000000
  0
ARC
  8
PT2-Rzut2
  6
CONTINUOUS
 62
     7
 10
463.796200000000000
 20
209.277500000000000
 40
0.050000000000000
 50
90.000000000000000
 51
180.000000000000000
  0
ARC
  8
PT2-Rzut2
  6
CONTINUOUS
 62
     7
 10
467.296299999999970
 20
212.794999999999990
 40
0.200000000000000
 50
135.276700000000010
 51
270.000000000000000
  0
ARC
  8
PT2-Rzut2
  6
CONTINUOUS
 62
     7
 10
467.696300000000010
 20
212.595000000000000
 40
0.200000000000000
 50
270.000000000000000
 51
90.000000000000000
  0
ARC
  8
PT2-Rzut2
  6
CONTINUOUS
 62
     7
 10
460.546400000000010
 20
210.025000000000010
 40
0.250000000000000
 50
360.000000000000000
 51
180.000000000000000
  0
ARC
  8
PT2-Rzut2
  6
CONTINUOUS
 62
     7
 10
467.296299999999970
 20
211.194999999999990
 40
0.200000000000000
 50
90.000000000000000
 51
270.000000000000000
  0
ARC
  8
PT2-Rzut2
  6
CONTINUOUS
 62
     7
 10
467.696300000000010
 20
210.995000000000000
 40
0.200000000000000
 50
270.000000000000000
 51
90.000000000000000
  0
ARC
  8
PT2-Rzut2
  6
CONTINUOUS
 62
     7
 10
467.296299999999970
 20
210.794999999999990
 40
0.200000000000000
 50
90.000000000000000
 51
270.000000000000000
  0
ARC
  8
PT2-Rzut2
  6
CONTINUOUS
 62
     7
 10
467.296299999999970
 20
210.395000000000010
 40
0.200000000000000
 50
90.000000000000000
 51
270.000000000000000
  0
ARC
  8
PT2-Rzut2
  6
CONTINUOUS
 62
     7
 10
467.296299999999970
 20
209.995000000000000
 40
0.200000000000000
 50
90.000000000000000
 51
270.000000000000000
  0
ARC
  8
PT2-Rzut2
  6
CONTINUOUS
 62
     7
 10
467.696300000000010
 20
210.595000000000000
 40
0.200000000000000
 50
270.000000000000000
 51
90.000000000000000
  0
ARC
  8
PT2-Rzut2
  6
CONTINUOUS
 62
     7
 10
467.696300000000010
 20
210.194999999999990
 40
0.200000000000000
 50
360.000000000000000
 51
90.000000000000000
  0
ARC
  8
PT2-Rzut2
  6
CONTINUOUS
 62
     7
 10
467.696300000000010
 20
209.794999999999990
 40
0.200000000000000
 50
270.000000000000000
 51
90.000000000000000
  0
ARC
  8
PT2-Rzut2
  6
CONTINUOUS
 62
     7
 10
467.696300000000010
 20
210.194999999999990
 40
0.200000000000000
 50
270.000000000000000
 51
360.000000000000000
  0
ARC
  8
PT2-Rzut2
  6
CONTINUOUS
 62
     7
 10
463.796200000000000
 20
210.577499999999990
 40
0.050000000000000
 50
90.000000000000000
 51
270.000000000000000
  0
ARC
  8
PT2-Rzut2
  6
CONTINUOUS
 62
     7
 10
463.896200000000020
 20
210.627500000000000
 40
0.050000000000000
 50
270.000000000000000
 51
360.000000000000000
  0
ARC
  8
PT2-Rzut2
  6
CONTINUOUS
 62
     7
 10
463.796200000000000
 20
210.477499999999990
 40
0.050000000000000
 50
90.000000000000000
 51
270.000000000000000
  0
ARC
  8
PT2-Rzut2
  6
CONTINUOUS
 62
     7
 10
463.796200000000000
 20
210.377500000000000
 40
0.050000000000000
 50
90.000000000000000
 51
270.000000000000000
  0
ARC
  8
PT2-Rzut2
  6
CONTINUOUS
 62
     7
 10
463.896200000000020
 20
210.427500000000010
 40
0.050000000000000
 50
270.000000000000000
 51
90.000000000000000
  0
ARC
  8
PT2-Rzut2
  6
CONTINUOUS
 62
     7
 10
463.896200000000020
 20
210.327499999999990
 40
0.050000000000000
 50
360.000000000000000
 51
90.000000000000000
  0
ARC
  8
PT2-Rzut2
  6
CONTINUOUS
 62
     7
 10
463.896200000000020
 20
210.527500000000000
 40
0.050000000000000
 50
270.000000000000000
 51
90.000000000000000
  0
ARC
  8
PT2-Rzut2
  6
CONTINUOUS
 62
     7
 10
463.896200000000020
 20
210.327499999999990
 40
0.050000000000000
 50
270.000000000000000
 51
360.000000000000000
  0
ARC
  8
PT2-Rzut2
  6
CONTINUOUS
 62
     7
 10
463.796200000000000
 20
210.277500000000000
 40
0.050000000000000
 50
90.000000000000000
 51
270.000000000000000
  0
ARC
  8
PT2-Rzut2
  6
CONTINUOUS
 62
     7
 10
463.896200000000020
 20
210.827499999999990
 40
0.050000000000000
 50
270.000000000000000
 51
71.711700000000008
  0
ARC
  8
PT2-Rzut2
  6
CONTINUOUS
 62
     7
 10
463.896200000000020
 20
210.727499999999990
 40
0.050000000000000
 50
270.000000000000000
 51
90.000000000000000
  0
ARC
  8
PT2-Rzut2
  6
CONTINUOUS
 62
     7
 10
463.796200000000000
 20
210.877500000000000
 40
0.050000000000000
 50
182.895299999999990
 51
270.000000000000000
  0
ARC
  8
PT2-Rzut2
  6
CONTINUOUS
 62
     7
 10
463.796200000000000
 20
210.677500000000010
 40
0.050000000000000
 50
90.000000000000000
 51
270.000000000000000
  0
ARC
  8
PT2-Rzut2
  6
CONTINUOUS
 62
     7
 10
463.796200000000000
 20
210.777500000000000
 40
0.050000000000000
 50
90.000000000000000
 51
270.000000000000000
  0
ARC
  8
PT2-Rzut2
  6
CONTINUOUS
 62
     7
 10
463.896200000000020
 20
210.627500000000000
 40
0.050000000000000
 50
360.000000000000000
 51
90.000000000000000
  0
ARC
  8
PT2-Rzut2
  6
CONTINUOUS
 62
     7
 10
463.896200000000020
 20
210.027500000000000
 40
0.050000000000000
 50
270.000000000000000
 51
360.000000000000000
  0
ARC
  8
PT2-Rzut2
  6
CONTINUOUS
 62
     7
 10
463.896200000000020
 20
209.927500000000010
 40
0.050000000000000
 50
270.000000000000000
 51
90.000000000000000
  0
ARC
  8
PT2-Rzut2
  6
CONTINUOUS
 62
     7
 10
463.896200000000020
 20
210.027500000000000
 40
0.050000000000000
 50
360.000000000000000
 51
90.000000000000000
  0
ARC
  8
PT2-Rzut2
  6
CONTINUOUS
 62
     7
 10
463.896200000000020
 20
210.127500000000000
 40
0.050000000000000
 50
270.000000000000000
 51
90.000000000000000
  0
ARC
  8
PT2-Rzut2
  6
CONTINUOUS
 62
     7
 10
463.896200000000020
 20
209.527500000000000
 40
0.050000000000000
 50
270.000000000000000
 51
90.000000000000000
  0
ARC
  8
PT2-Rzut2
  6
CONTINUOUS
 62
     7
 10
463.896200000000020
 20
209.727499999999990
 40
0.050000000000000
 50
360.000000000000000
 51
90.000000000000000
  0
ARC
  8
PT2-Rzut2
  6
CONTINUOUS
 62
     7
 10
463.896200000000020
 20
209.727499999999990
 40
0.050000000000000
 50
270.000000000000000
 51
360.000000000000000
  0
ARC
  8
PT2-Rzut2
  6
CONTINUOUS
 62
     7
 10
463.896200000000020
 20
209.627500000000000
 40
0.050000000000000
 50
270.000000000000000
 51
90.000000000000000
  0
ARC
  8
PT2-Rzut2
  6
CONTINUOUS
 62
     7
 10
463.896200000000020
 20
209.827499999999990
 40
0.050000000000000
 50
270.000000000000000
 51
90.000000000000000
  0
ARC
  8
PT2-Rzut2
  6
CONTINUOUS
 62
     7
 10
463.796200000000000
 20
209.977499999999990
 40
0.050000000000000
 50
90.000000000000000
 51
270.000000000000000
  0
ARC
  8
PT2-Rzut2
  6
CONTINUOUS
 62
     7
 10
463.796200000000000
 20
210.077499999999990
 40
0.050000000000000
 50
90.000000000000000
 51
270.000000000000000
  0
ARC
  8
PT2-Rzut2
  6
CONTINUOUS
 62
     7
 10
463.796200000000000
 20
209.677500000000010
 40
0.050000000000000
 50
90.000000000000000
 51
270.000000000000000
  0
ARC
  8
PT2-Rzut2
  6
CONTINUOUS
 62
     7
 10
463.796200000000000
 20
209.577499999999990
 40
0.050000000000000
 50
180.000000000000000
 51
270.000000000000000
  0
ARC
  8
PT2-Rzut2
  6
CONTINUOUS
 62
     7
 10
463.796200000000000
 20
209.777500000000000
 40
0.050000000000000
 50
90.000000000000000
 51
270.000000000000000
  0
ARC
  8
PT2-Rzut2
  6
CONTINUOUS
 62
     7
 10
463.796200000000000
 20
209.877500000000000
 40
0.050000000000000
 50
90.000000000000000
 51
270.000000000000000
  0
ARC
  8
PT2-Rzut2
  6
CONTINUOUS
 62
     7
 10
463.546400000000010
 20
210.025000000000010
 40
0.250000000000000
 50
36.918599999999969
 51
180.000000000000000
  0
ARC
  8
PT2-Rzut2
  6
CONTINUOUS
 62
     7
 10
463.896200000000020
 20
210.227499999999990
 40
0.050000000000000
 50
270.000000000000000
 51
90.000000000000000
  0
ARC
  8
PT2-Rzut2
  6
CONTINUOUS
 62
     7
 10
463.796200000000000
 20
210.177500000000010
 40
0.050000000000000
 50
90.000000000000000
 51
270.000000000000000
  0
ARC
  8
PT2-Rzut2
  6
CONTINUOUS
 62
     7
 10
461.046400000000010
 20
210.025000000000010
 40
0.250000000000000
 50
360.000000000000000
 51
180.000000000000000
  0
ARC
  8
PT2-Rzut2
  6
CONTINUOUS
 62
     7
 10
461.546400000000010
 20
210.025000000000010
 40
0.250000000000000
 50
360.000000000000000
 51
180.000000000000000
  0
ARC
  8
PT2-Rzut2
  6
CONTINUOUS
 62
     7
 10
462.046400000000010
 20
210.025000000000010
 40
0.250000000000000
 50
360.000000000000000
 51
180.000000000000000
  0
ARC
  8
PT2-Rzut2
  6
CONTINUOUS
 62
     7
 10
462.546400000000010
 20
210.025000000000010
 40
0.250000000000000
 50
360.000000000000000
 51
180.000000000000000
  0
ARC
  8
PT2-Rzut2
  6
CONTINUOUS
 62
     7
 10
463.046400000000010
 20
210.025000000000010
 40
0.250000000000000
 50
360.000000000000000
 51
180.000000000000000
  0
ARC
  8
PT2-Rzut2
  6
CONTINUOUS
 62
     7
 10
467.296299999999970
 20
212.395000000000010
 40
0.200000000000000
 50
90.000000000000000
 51
270.000000000000000
  0
ARC
  8
PT2-Rzut2
  6
CONTINUOUS
 62
     7
 10
467.296299999999970
 20
211.595000000000000
 40
0.200000000000000
 50
90.000000000000000
 51
270.000000000000000
  0
ARC
  8
PT2-Rzut2
  6
CONTINUOUS
 62
     7
 10
467.296299999999970
 20
211.995000000000000
 40
0.200000000000000
 50
90.000000000000000
 51
270.000000000000000
  0
ARC
  8
PT2-Rzut2
  6
CONTINUOUS
 62
     7
 10
467.696300000000010
 20
212.194999999999990
 40
0.200000000000000
 50
360.000000000000000
 51
90.000000000000000
  0
ARC
  8
PT2-Rzut2
  6
CONTINUOUS
 62
     7
 10
467.696300000000010
 20
212.194999999999990
 40
0.200000000000000
 50
270.000000000000000
 51
360.000000000000000
  0
ARC
  8
PT2-Rzut2
  6
CONTINUOUS
 62
     7
 10
467.696300000000010
 20
211.395000000000010
 40
0.200000000000000
 50
360.000000000000000
 51
90.000000000000000
  0
ARC
  8
PT2-Rzut2
  6
CONTINUOUS
 62
     7
 10
467.696300000000010
 20
211.395000000000010
 40
0.200000000000000
 50
270.000000000000000
 51
360.000000000000000
  0
ARC
  8
PT2-Rzut2
  6
CONTINUOUS
 62
     7
 10
467.696300000000010
 20
211.794999999999990
 40
0.200000000000000
 50
270.000000000000000
 51
90.000000000000000
  0
ARC
  8
PT2-Rzut2
  6
CONTINUOUS
 62
     7
 10
456.546400000000010
 20
210.025000000000010
 40
0.250000000000000
 50
360.000000000000000
 51
180.000000000000000
  0
ARC
  8
PT2-Rzut2
  6
CONTINUOUS
 62
     7
 10
460.046400000000010
 20
210.025000000000010
 40
0.250000000000000
 50
360.000000000000000
 51
180.000000000000000
  0
ARC
  8
PT2-Rzut2
  6
CONTINUOUS
 62
     7
 10
459.046400000000010
 20
210.025000000000010
 40
0.250000000000000
 50
360.000000000000000
 51
180.000000000000000
  0
ARC
  8
PT2-Rzut2
  6
CONTINUOUS
 62
     7
 10
459.546400000000010
 20
210.025000000000010
 40
0.250000000000000
 50
360.000000000000000
 51
180.000000000000000
  0
ARC
  8
PT2-Rzut2
  6
CONTINUOUS
 62
     7
 10
457.546400000000010
 20
210.025000000000010
 40
0.250000000000000
 50
360.000000000000000
 51
180.000000000000000
  0
ARC
  8
PT2-Rzut2
  6
CONTINUOUS
 62
     7
 10
458.546400000000010
 20
210.025000000000010
 40
0.250000000000000
 50
360.000000000000000
 51
180.000000000000000
  0
ARC
  8
PT2-Rzut2
  6
CONTINUOUS
 62
     7
 10
458.046400000000010
 20
210.025000000000010
 40
0.250000000000000
 50
360.000000000000000
 51
180.000000000000000
  0
ARC
  8
PT2-Rzut2
  6
CONTINUOUS
 62
     7
 10
457.046400000000010
 20
210.025000000000010
 40
0.250000000000000
 50
360.000000000000000
 51
180.000000000000000
  0
ARC
  8
PT2-Rzut2
  6
CONTINUOUS
 62
     7
 10
456.046400000000010
 20
210.025000000000010
 40
0.250000000000000
 50
360.000000000000000
 51
180.000000000000000
  0
ARC
  8
PT2-Rzut2
  6
CONTINUOUS
 62
     7
 10
455.046400000000010
 20
210.025000000000010
 40
0.250000000000000
 50
360.000000000000000
 51
180.000000000000000
  0
ARC
  8
PT2-Rzut2
  6
CONTINUOUS
 62
     7
 10
454.546400000000010
 20
210.025000000000010
 40
0.250000000000000
 50
360.000000000000000
 51
180.000000000000000
  0
ARC
  8
PT2-Rzut2
  6
CONTINUOUS
 62
     7
 10
454.046400000000010
 20
210.025000000000010
 40
0.250000000000000
 50
360.000000000000000
 51
113.594100000000030
  0
ARC
  8
PT2-Rzut2
  6
CONTINUOUS
 62
     7
 10
455.546400000000010
 20
210.025000000000010
 40
0.250000000000000
 50
360.000000000000000
 51
180.000000000000000
  0
ARC
  8
PT2-Rzut2
  6
CONTINUOUS
 62
     7
 10
467.696300000000010
 20
212.995000000000000
 40
0.200000000000000
 50
270.000000000000000
 51
342.763500000000020
  0
ARC
  8
PT2-Rzut2
  6
CONTINUOUS
 62
     7
 10
467.771300000000000
 20
197.720000000000000
 40
0.125000000000000
 50
293.073899999999980
 51
90.000000000000000
  0
ARC
  8
PT2-Rzut2
  6
CONTINUOUS
 62
     7
 10
467.221299999999990
 20
197.840200000000010
 40
0.125000000000000
 50
90.000000000000000
 51
270.000000000000000
  0
ARC
  8
PT2-Rzut2
  6
CONTINUOUS
 62
     7
 10
467.771300000000000
 20
197.470000000000000
 40
0.125000000000000
 50
293.073899999999980
 51
90.000000000000000
  0
ARC
  8
PT2-Rzut2
  6
CONTINUOUS
 62
     7
 10
467.221299999999990
 20
197.590200000000010
 40
0.125000000000000
 50
90.000000000000000
 51
270.000000000000000
  0
ARC
  8
PT2-Rzut2
  6
CONTINUOUS
 62
     7
 10
467.771300000000000
 20
197.220000000000000
 40
0.125000000000000
 50
293.073899999999980
 51
90.000000000000000
  0
ARC
  8
PT2-Rzut2
  6
CONTINUOUS
 62
     7
 10
467.221299999999990
 20
197.340200000000010
 40
0.125000000000000
 50
90.000000000000000
 51
270.000000000000000
  0
ARC
  8
PT2-Rzut2
  6
CONTINUOUS
 62
     7
 10
467.771300000000000
 20
196.970000000000000
 40
0.125000000000000
 50
293.073899999999980
 51
90.000000000000000
  0
ARC
  8
PT2-Rzut2
  6
CONTINUOUS
 62
     7
 10
467.221299999999990
 20
197.090200000000010
 40
0.125000000000000
 50
90.000000000000000
 51
270.000000000000000
  0
ARC
  8
PT2-Rzut2
  6
CONTINUOUS
 62
     7
 10
462.846299999999990
 20
196.474999999999990
 40
0.100000000000000
 50
90.000000000000000
 51
180.000000000000000
  0
ARC
  8
PT2-Rzut2
  6
CONTINUOUS
 62
     7
 10
469.046299999999970
 20
196.474999999999990
 40
0.100000000000000
 50
360.000000000000000
 51
90.000000000000000
  0
ARC
  8
PT2-Rzut2
  6
CONTINUOUS
 62
     7
 10
469.046299999999970
 20
193.275000000000010
 40
0.100000000000000
 50
270.000000000000000
 51
360.000000000000000
  0
ARC
  8
PT2-Rzut2
  6
CONTINUOUS
 62
     7
 10
462.846299999999990
 20
193.275000000000010
 40
0.100000000000000
 50
180.000000000000000
 51
270.000000000000000
  0
LINE
  8
PT2-Rzut2
  6
GESTRICHELT
 62
     7
 10
460.5033
 20
214.654699999999990
 11
470.9528
 21
214.654699999999990
  0
LINE
  8
PT2-Rzut2
  6
GESTRICHELT
 62
     7
 10
460.4516
 20
189.565599999999990
 11
471.0045
 21
189.565599999999990
  0
LINE
  8
PT2-Rzut2
  6
CONTINUOUS
 62
     7
 10
462.4683
 20
242.948000000000010
 11
462.4683
 21
214.654699999999990
  0
LINE
  8
PT2-Rzut2
  6
CONTINUOUS
 62
     7
 10
462.4683
 20
189.565599999999990
 11
462.4683
 21
185.195500000000010
  0
LINE
  8
PT2-Rzut2
  6
CONTINUOUS
 62
     7
 10
469.4683
 20
87.964900000000000
 11
469.4683
 21
189.565599999999990
  0
LINE
  8
PT2-Rzut2
  6
CONTINUOUS
 62
     7
 10
469.4683
 20
214.654699999999990
 11
469.4683
 21
249.945500000000010
  0
LINE
  8
PT3-Rzut8
  6
CONTINUOUS
 62
     7
 10
463.9683
 20
244.448000000000010
 11
463.9683
 21
214.654699999999990
  0
LINE
  8
PT3-Rzut8
  6
CONTINUOUS
 62
     7
 10
463.9683
 20
189.565599999999990
 11
463.9683
 21
183.695500000000010
  0
LINE
  8
PT3-Rzut8
  6
CONTINUOUS
 62
     7
 10
467.9683
 20
89.442999999999984
 11
467.9683
 21
189.565599999999990
  0
LINE
  8
PT3-Rzut8
  6
CONTINUOUS
 62
     7
 10
467.9683
 20
214.654699999999990
 11
467.9683
 21
248.445500000000010
  0
LINE
  8
PT2-Wymiarowanie5
  6
CONTINUOUS
 62
     7
 10
476.8963
 20
209.275000000000010
 11
476.8963
 21
204.875000000000000
  0
LINE
  8
PT2-Wymiarowanie5
  6
CONTINUOUS
 62
     7
 10
476.8963
 20
210.275000000000010
 11
476.8963
 21
209.275000000000010
  0
LINE
  8
PT2-Wymiarowanie5
  6
CONTINUOUS
 62
     7
 10
476.8963
 20
203.875000000000000
 11
476.8963
 21
204.875000000000000
  0
LINE
  8
PT2-Wymiarowanie5
  6
CONTINUOUS
 62
     7
 10
477.3962
 20
208.775100000000010
 11
476.3964
 21
209.774900000000000
  0
LINE
  8
PT2-Wymiarowanie5
  6
CONTINUOUS
 62
     7
 10
477.3962
 20
204.375100000000000
 11
476.3964
 21
205.374900000000000
  0
LINE
  8
PT2-Wymiarowanie5
  6
CONTINUOUS
 62
     7
 10
477.8963
 20
209.275000000000010
 11
475.8963
 21
209.275000000000010
  0
LINE
  8
PT2-Wymiarowanie5
  6
CONTINUOUS
 62
     7
 10
477.8963
 20
204.875000000000000
 11
475.8963
 21
204.875000000000000
  0
TEXT
  8
PT2-Wymiarowanie5
  6
CONTINUOUS
 62
     7
 10
475.629099999999990
 20
203.542900000000000
 40
2.000000000000000
 50
450.000000000000000
  1
44
  0
TEXT
  8
PT2-Wymiarowanie5
  6
CONTINUOUS
 62
     7
 10
475.343300000000000
 20
196.900800000000000
 40
2.000000000000000
 50
450.000000000000000
  1
80
  0
LINE
  8
PT2-Wymiarowanie5
  6
CONTINUOUS
 62
     7
 10
476.8963
 20
204.875000000000000
 11
476.8963
 21
196.875000000000000
  0
LINE
  8
PT2-Wymiarowanie5
  6
CONTINUOUS
 62
     7
 10
476.8963
 20
205.875000000000000
 11
476.8963
 21
204.875000000000000
  0
LINE
  8
PT2-Wymiarowanie5
  6
CONTINUOUS
 62
     7
 10
476.8963
 20
195.875000000000000
 11
476.8963
 21
196.875000000000000
  0
LINE
  8
PT2-Wymiarowanie5
  6
CONTINUOUS
 62
     7
 10
477.3962
 20
204.375100000000000
 11
476.3964
 21
205.374900000000000
  0
LINE
  8
PT2-Wymiarowanie5
  6
CONTINUOUS
 62
     7
 10
477.3962
 20
196.375100000000000
 11
476.3964
 21
197.374900000000000
  0
LINE
  8
PT2-Wymiarowanie5
  6
CONTINUOUS
 62
     7
 10
477.8963
 20
204.875000000000000
 11
475.8963
 21
204.875000000000000
  0
LINE
  8
PT2-Wymiarowanie5
  6
CONTINUOUS
 62
     7
 10
477.8963
 20
196.875000000000000
 11
475.8963
 21
196.875000000000000
  0
LINE
  8
PT2-Wymiarowanie5
  6
CONTINUOUS
 62
     7
 10
476.8963
 20
196.875000000000000
 11
476.8963
 21
192.875000000000000
  0
LINE
  8
PT2-Wymiarowanie5
  6
CONTINUOUS
 62
     7
 10
476.8963
 20
197.875000000000000
 11
476.8963
 21
196.875000000000000
  0
LINE
  8
PT2-Wymiarowanie5
  6
CONTINUOUS
 62
     7
 10
476.8963
 20
191.875000000000000
 11
476.8963
 21
192.875000000000000
  0
LINE
  8
PT2-Wymiarowanie5
  6
CONTINUOUS
 62
     7
 10
477.3962
 20
196.375100000000000
 11
476.3964
 21
197.374900000000000
  0
LINE
  8
PT2-Wymiarowanie5
  6
CONTINUOUS
 62
     7
 10
477.3962
 20
192.375100000000000
 11
476.3964
 21
193.374900000000000
  0
LINE
  8
PT2-Wymiarowanie5
  6
CONTINUOUS
 62
     7
 10
477.8963
 20
196.875000000000000
 11
475.8963
 21
196.875000000000000
  0
LINE
  8
PT2-Wymiarowanie5
  6
CONTINUOUS
 62
     7
 10
477.8963
 20
192.875000000000000
 11
475.8963
 21
192.875000000000000
  0
TEXT
  8
PT2-Wymiarowanie5
  6
CONTINUOUS
 62
     7
 10
475.506899999999970
 20
191.202400000000010
 40
2.000000000000000
 50
450.000000000000000
  1
40
  0
LINE
  8
PT2-Wymiarowanie5
  6
CONTINUOUS
 62
     7
 10
476.8963
 20
192.875000000000000
 11
476.8963
 21
191.875000000000000
  0
LINE
  8
PT2-Wymiarowanie5
  6
CONTINUOUS
 62
     7
 10
476.8963
 20
193.875000000000000
 11
476.8963
 21
192.875000000000000
  0
LINE
  8
PT2-Wymiarowanie5
  6
CONTINUOUS
 62
     7
 10
476.8963
 20
190.875000000000000
 11
476.8963
 21
191.875000000000000
  0
LINE
  8
PT2-Wymiarowanie5
  6
CONTINUOUS
 62
     7
 10
477.3962
 20
192.375100000000000
 11
476.3964
 21
193.374900000000000
  0
LINE
  8
PT2-Wymiarowanie5
  6
CONTINUOUS
 62
     7
 10
477.3962
 20
191.375100000000000
 11
476.3964
 21
192.374900000000000
  0
LINE
  8
PT2-Wymiarowanie5
  6
CONTINUOUS
 62
     7
 10
477.8963
 20
192.875000000000000
 11
475.8963
 21
192.875000000000000
  0
LINE
  8
PT2-Wymiarowanie5
  6
CONTINUOUS
 62
     7
 10
477.8963
 20
191.875000000000000
 11
475.8963
 21
191.875000000000000
  0
TEXT
  8
PT2-Wymiarowanie5
  6
CONTINUOUS
 62
     7
 10
475.751300000000010
 20
186.376100000000010
 40
2.000000000000000
 50
450.000000000000000
  1
10
  0
TEXT
  8
PT2-Wymiarowanie5
  6
CONTINUOUS
 62
     7
 10
479.015300000000020
 20
193.730799999999990
 40
2.000000000000000
 50
450.000000000000000
  1
1,20
  0
LINE
  8
PT2-Wymiarowanie5
  6
CONTINUOUS
 62
     7
 10
480.5683
 20
204.875000000000000
 11
480.5683
 21
192.875000000000000
  0
LINE
  8
PT2-Wymiarowanie5
  6
CONTINUOUS
 62
     7
 10
480.5683
 20
205.875000000000000
 11
480.5683
 21
204.875000000000000
  0
LINE
  8
PT2-Wymiarowanie5
  6
CONTINUOUS
 62
     7
 10
480.5683
 20
191.875000000000000
 11
480.5683
 21
192.875000000000000
  0
LINE
  8
PT2-Wymiarowanie5
  6
CONTINUOUS
 62
     7
 10
481.0682
 20
204.375100000000000
 11
480.0684
 21
205.374900000000000
  0
LINE
  8
PT2-Wymiarowanie5
  6
CONTINUOUS
 62
     7
 10
481.0682
 20
192.375100000000000
 11
480.0684
 21
193.374900000000000
  0
LINE
  8
PT2-Wymiarowanie5
  6
CONTINUOUS
 62
     7
 10
481.5683
 20
204.875000000000000
 11
479.5683
 21
204.875000000000000
  0
LINE
  8
PT2-Wymiarowanie5
  6
CONTINUOUS
 62
     7
 10
481.5683
 20
192.875000000000000
 11
479.5683
 21
192.875000000000000
  0
LINE
  8
PT2-Rzut2
  6
CONTINUOUS
 62
     7
 10
264.9321
 20
139.235999999999990
 11
264.9321
 21
119.177799999999990
  0
LINE
  8
PT2-Rzut2
  6
CONTINUOUS
 62
     7
 10
257.7321
 20
139.232300000000010
 11
257.7321
 21
119.177799999999990
  0
LINE
  8
PT2-Rzut2
  6
CONTINUOUS
 62
     7
 10
257.7321
 20
119.177799999999990
 11
264.9321
 21
119.177799999999990
  0
LINE
  8
PT2-Rzut2
  6
VERDECKT
 62
     7
 10
256.8868
 20
143.741000000000010
 11
273.6623
 21
143.741000000000010
  0
LINE
  8
PT2-Rzut2
  6
VERDECKT
 62
     7
 10
256.4259
 20
115.167300000000010
 11
273.6623
 21
115.167300000000010
  0
LINE
  8
PT2-Rzut2
  6
CONTINUOUS
 62
     7
 10
257.7683
 20
154.048000000000000
 11
257.7683
 21
143.741000000000010
  0
LINE
  8
PT2-Rzut2
  6
CONTINUOUS
 62
     7
 10
257.7683
 20
115.167300000000010
 11
257.7683
 21
96.145500000000027
  0
LINE
  8
PT2-Rzut2
  6
CONTINUOUS
 62
     7
 10
264.9683
 20
88.942999999999984
 11
264.9683
 21
115.167300000000010
  0
LINE
  8
PT2-Rzut2
  6
CONTINUOUS
 62
     7
 10
264.9683
 20
143.741000000000010
 11
264.9683
 21
248.944300000000000
  0
LINE
  8
PT2-Rzut2
  6
CONTINUOUS
 62
     7
 10
265.1683
 20
185.198000000000010
 11
265.1733
 21
143.741000000000010
  0
LINE
  8
PT2-Rzut2
  6
CONTINUOUS
 62
     7
 10
265.1768
 20
115.167300000000010
 11
265.1799
 21
88.743800000000022
  0
LINE
  8
PT2-Rzut2
  6
CONTINUOUS
 62
     7
 10
272.1799
 20
88.933600000000013
 11
272.1766
 21
115.167300000000010
  0
LINE
  8
PT2-Rzut2
  6
CONTINUOUS
 62
     7
 10
272.1729
 20
143.741000000000010
 11
272.1717
 21
152.871100000000010
  0
LINE
  8
PT3-Rzut8
  6
CONTINUOUS
 62
     7
 10
257.7683
 20
154.048000000000000
 11
257.7683
 21
144.219200000000000
  0
LINE
  8
PT3-Rzut8
  6
CONTINUOUS
 62
     7
 10
257.7683
 20
115.167300000000010
 11
257.7683
 21
96.145500000000027
  0
LINE
  8
PT3-Rzut8
  6
CONTINUOUS
 62
     7
 10
264.9683
 20
88.942999999999984
 11
264.9683
 21
113.255800000000020
  0
LINE
  8
PT3-Rzut8
  6
CONTINUOUS
 62
     7
 10
264.9683
 20
144.284400000000010
 11
264.9683
 21
248.944300000000000
  0
LINE
  8
PT3-Rzut8
  6
CONTINUOUS
 62
     7
 10
265.1683
 20
183.698000000000010
 11
265.1732
 21
143.741000000000010
  0
LINE
  8
PT3-Rzut8
  6
CONTINUOUS
 62
     7
 10
265.1769
 20
113.712100000000020
 11
265.1799
 21
88.744199999999978
  0
POLYLINE
  8
PT3-Kreskowanie9
  6
CONTINUOUS
 62
     7
 66
     1
 70
     1
  0
VERTEX
  8
PT3-Kreskowanie9
 10
257.7683
 20
96.841099999999983
  0
VERTEX
  8
PT3-Kreskowanie9
 10
257.7683
 20
115.167300000000010
  0
VERTEX
  8
PT3-Kreskowanie9
 10
264.9683
 20
115.167300000000010
  0
VERTEX
  8
PT3-Kreskowanie9
 10
265.1799
 20
88.769499999999994
  0
VERTEX
  8
PT3-Kreskowanie9
 10
257.7683
 20
96.145500000000027
  0
SEQEND
  8
PT3-Kreskowanie9
  0
LINE
  8
PT2-Wymiarowanie5
  6
CONTINUOUS
 62
     7
 10
282.7777
 20
119.177799999999990
 11
282.7777
 21
123.177799999999990
  0
LINE
  8
PT2-Wymiarowanie5
  6
CONTINUOUS
 62
     7
 10
282.7777
 20
118.177799999999990
 11
282.7777
 21
119.177799999999990
  0
LINE
  8
PT2-Wymiarowanie5
  6
CONTINUOUS
 62
     7
 10
282.7777
 20
124.177799999999990
 11
282.7777
 21
123.177799999999990
  0
LINE
  8
PT2-Wymiarowanie5
  6
CONTINUOUS
 62
     7
 10
282.2778
 20
119.677700000000020
 11
283.2777
 21
118.677900000000020
  0
LINE
  8
PT2-Wymiarowanie5
  6
CONTINUOUS
 62
     7
 10
282.2778
 20
123.677700000000020
 11
283.2777
 21
122.677900000000020
  0
LINE
  8
PT2-Wymiarowanie5
  6
CONTINUOUS
 62
     7
 10
283.7777
 20
119.177799999999990
 11
281.7777
 21
119.177799999999990
  0
LINE
  8
PT2-Wymiarowanie5
  6
CONTINUOUS
 62
     7
 10
283.7777
 20
123.177799999999990
 11
281.7777
 21
123.177799999999990
  0
TEXT
  8
PT2-Wymiarowanie5
  6
CONTINUOUS
 62
     7
 10
281.362199999999970
 20
119.850799999999990
 40
2.000000000000000
 50
90.000000000000000
  1
40
  0
LINE
  8
PT2-Wymiarowanie5
  6
CONTINUOUS
 62
     7
 10
282.7777
 20
123.177799999999990
 11
282.7777
 21
135.577800000000000
  0
LINE
  8
PT2-Wymiarowanie5
  6
CONTINUOUS
 62
     7
 10
282.7777
 20
122.177799999999990
 11
282.7777
 21
123.177799999999990
  0
LINE
  8
PT2-Wymiarowanie5
  6
CONTINUOUS
 62
     7
 10
282.7777
 20
136.577800000000000
 11
282.7777
 21
135.577800000000000
  0
LINE
  8
PT2-Wymiarowanie5
  6
CONTINUOUS
 62
     7
 10
282.2778
 20
123.677700000000020
 11
283.2777
 21
122.677900000000020
  0
LINE
  8
PT2-Wymiarowanie5
  6
CONTINUOUS
 62
     7
 10
282.2778
 20
136.077699999999990
 11
283.2777
 21
135.077900000000000
  0
LINE
  8
PT2-Wymiarowanie5
  6
CONTINUOUS
 62
     7
 10
283.7777
 20
123.177799999999990
 11
281.7777
 21
123.177799999999990
  0
LINE
  8
PT2-Wymiarowanie5
  6
CONTINUOUS
 62
     7
 10
283.7777
 20
135.577800000000000
 11
281.7777
 21
135.577800000000000
  0
TEXT
  8
PT2-Wymiarowanie5
  6
CONTINUOUS
 62
     7
 10
281.408799999999990
 20
126.505100000000030
 40
2.000000000000000
 50
90.000000000000000
  1
1,24
  0
LINE
  8
PT2-Wymiarowanie5
  6
CONTINUOUS
 62
     7
 10
463.9463
 20
199.354999999999990
 11
462.4463
 21
199.354999999999990
  0
LINE
  8
PT2-Wymiarowanie5
  6
CONTINUOUS
 62
     7
 10
464.9463
 20
199.354999999999990
 11
463.9463
 21
199.354999999999990
  0
LINE
  8
PT2-Wymiarowanie5
  6
CONTINUOUS
 62
     7
 10
461.4463
 20
199.354999999999990
 11
462.4463
 21
199.354999999999990
  0
LINE
  8
PT2-Wymiarowanie5
  6
CONTINUOUS
 62
     7
 10
463.4464
 20
198.855099999999990
 11
464.4462
 21
199.854899999999990
  0
LINE
  8
PT2-Wymiarowanie5
  6
CONTINUOUS
 62
     7
 10
461.9464
 20
198.855099999999990
 11
462.9462
 21
199.854899999999990
  0
LINE
  8
PT2-Wymiarowanie5
  6
CONTINUOUS
 62
     7
 10
463.9463
 20
200.354999999999990
 11
463.9463
 21
198.354999999999990
  0
LINE
  8
PT2-Wymiarowanie5
  6
CONTINUOUS
 62
     7
 10
462.4463
 20
200.354999999999990
 11
462.4463
 21
198.354999999999990
  0
TEXT
  8
PT2-Wymiarowanie5
  6
CONTINUOUS
 62
     7
 10
460.430000000000010
 20
200.730400000000000
 40
2.000000000000000
 50
360.000000000000000
  1
15
  0
TEXT
  8
PT2-Opis4
  6
CONTINUOUS
 62
     7
 10
440.927300000000000
 20
199.865500000000000
 40
1.800000000000000
  1
Nr 1 
  0
TEXT
  8
PT2-Opis4
  6
CONTINUOUS
 62
     7
 10
443.528500000000010
 20
197.404900000000000
 40
1.800000000000000
  1
f
  0
TEXT
  8
PT2-Opis4
  6
CONTINUOUS
 62
     7
 10
440.716400000000020
 20
197.123599999999980
 40
1.800000000000000
  1
4    12 mm
  0
LINE
  8
PT2-Opis4
  6
CONTINUOUS
 62
     7
 10
438.6776
 20
194.705500000000000
 11
454.2848
 21
194.705500000000000
  0
LINE
  8
PT2-Opis4
  6
CONTINUOUS
 62
     7
 10
454.2848
 20
194.705500000000000
 11
454.2848
 21
202.017000000000000
  0
LINE
  8
PT2-Opis4
  6
CONTINUOUS
 62
     7
 10
454.2848
 20
202.017000000000000
 11
438.6776
 21
202.017000000000000
  0
LINE
  8
PT2-Opis4
  6
CONTINUOUS
 62
     7
 10
438.6776
 20
202.017000000000000
 11
438.6776
 21
194.705500000000000
  0
LINE
  8
PT2-Opis4
  6
CONTINUOUS
 62
     7
 10
454.3551
 20
198.009700000000010
 11
462.8463
 21
196.375000000000000
  0
LINE
  8
PT2-Opis4
  6
CONTINUOUS
 62
     7
 10
454.3551
 20
198.009700000000010
 11
462.8463
 21
193.175000000000010
  0
LINE
  8
PT2-Opis4
  6
CONTINUOUS
 62
     7
 10
454.3551
 20
198.009700000000010
 11
469.0463
 21
196.375000000000000
  0
LINE
  8
PT2-Opis4
  6
CONTINUOUS
 62
     7
 10
454.3551
 20
198.009700000000010
 11
469.0463
 21
193.275000000000010
  0
TEXT
  8
PT2-Opis4
  6
CONTINUOUS
 62
     7
 10
441.067900000000010
 20
191.448199999999990
 40
1.800000000000000
  1
Nr 2 
  0
TEXT
  8
PT2-Opis4
  6
CONTINUOUS
 62
     7
 10
441.067900000000010
 20
188.987599999999990
 40
1.800000000000000
  1
f
  0
TEXT
  8
PT2-Opis4
  6
CONTINUOUS
 62
     7
 10
442.684800000000000
 20
188.565800000000000
 40
1.800000000000000
  1
6 mm co 
  0
TEXT
  8
PT2-Opis4
  6
CONTINUOUS
 62
     7
 10
442.684800000000000
 20
185.865800000000010
 40
1.800000000000000
  1
25 cm
  0
LINE
  8
PT2-Opis4
  6
CONTINUOUS
 62
     7
 10
438.8182
 20
184.370900000000010
 11
454.4254
 21
184.370900000000010
  0
LINE
  8
PT2-Opis4
  6
CONTINUOUS
 62
     7
 10
454.4254
 20
184.370900000000010
 11
454.4254
 21
193.599700000000010
  0
LINE
  8
PT2-Opis4
  6
CONTINUOUS
 62
     7
 10
454.4254
 20
193.599700000000010
 11
438.8182
 21
193.599700000000010
  0
LINE
  8
PT2-Opis4
  6
CONTINUOUS
 62
     7
 10
438.8182
 20
193.599700000000010
 11
438.8182
 21
184.370900000000010
  0
LINE
  8
PT2-Opis4
  6
CONTINUOUS
 62
     7
 10
454.5661
 20
189.362400000000010
 11
464.9006
 21
193.175000000000010
  0
TEXT
  8
PT2-Opis4
  6
CONTINUOUS
 62
     7
 10
281.259400000000030
 20
115.763800000000000
 40
1.800000000000000
  1
Nr 1 
  0
TEXT
  8
PT2-Opis4
  6
CONTINUOUS
 62
     7
 10
283.860599999999980
 20
113.303200000000000
 40
1.800000000000000
  1
f
  0
TEXT
  8
PT2-Opis4
  6
CONTINUOUS
 62
     7
 10
281.048499999999990
 20
113.021999999999990
 40
1.800000000000000
  1
4    12 mm
  0
LINE
  8
PT2-Opis4
  6
CONTINUOUS
 62
     7
 10
279.0097
 20
110.603799999999980
 11
294.6169
 21
110.603799999999980
  0
LINE
  8
PT2-Opis4
  6
CONTINUOUS
 62
     7
 10
294.6169
 20
110.603799999999980
 11
294.6169
 21
117.915399999999980
  0
LINE
  8
PT2-Opis4
  6
CONTINUOUS
 62
     7
 10
294.6169
 20
117.915399999999980
 11
279.0097
 21
117.915399999999980
  0
LINE
  8
PT2-Opis4
  6
CONTINUOUS
 62
     7
 10
279.0097
 20
117.915399999999980
 11
279.0097
 21
110.603799999999980
  0
TEXT
  8
PT2-Opis4
  6
CONTINUOUS
 62
     7
 10
278.381800000000000
 20
106.969299999999980
 40
1.800000000000000
  1
Nr 2 
  0
TEXT
  8
PT2-Opis4
  6
CONTINUOUS
 62
     7
 10
278.381800000000000
 20
104.508699999999980
 40
1.800000000000000
  1
f
  0
TEXT
  8
PT2-Opis4
  6
CONTINUOUS
 62
     7
 10
279.998800000000020
 20
104.086900000000010
 40
1.800000000000000
  1
6 mm co 
  0
TEXT
  8
PT2-Opis4
  6
CONTINUOUS
 62
     7
 10
279.998800000000020
 20
101.386900000000030
 40
1.800000000000000
  1
25 cm
  0
LINE
  8
PT2-Opis4
  6
CONTINUOUS
 62
     7
 10
276.1321
 20
99.891999999999996
 11
291.7394
 21
99.891999999999996
  0
LINE
  8
PT2-Opis4
  6
CONTINUOUS
 62
     7
 10
291.7394
 20
99.891999999999996
 11
291.7394
 21
109.120799999999970
  0
LINE
  8
PT2-Opis4
  6
CONTINUOUS
 62
     7
 10
291.7394
 20
109.120799999999970
 11
276.1321
 21
109.120799999999970
  0
LINE
  8
PT2-Opis4
  6
CONTINUOUS
 62
     7
 10
276.1321
 20
109.120799999999970
 11
276.1321
 21
99.891999999999996
  0
LINE
  8
PT2-Opis4
  6
CONTINUOUS
 62
     7
 10
265.5321
 20
119.477800000000000
 11
279.0097
 21
114.259599999999980
  0
LINE
  8
PT2-Opis4
  6
CONTINUOUS
 62
     7
 10
279.0097
 20
114.259599999999980
 11
271.6321
 21
119.577800000000020
  0
LINE
  8
PT2-Opis4
  6
CONTINUOUS
 62
     7
 10
279.0097
 20
114.259599999999980
 11
271.6321
 21
122.777800000000010
  0
LINE
  8
PT2-Opis4
  6
CONTINUOUS
 62
     7
 10
279.0097
 20
114.259599999999980
 11
265.5321
 21
122.677799999999990
  0
LINE
  8
PT2-Opis4
  6
CONTINUOUS
 62
     7
 10
276.1321
 20
104.506399999999990
 11
268.6321
 21
119.477800000000000
  0
LINE
  8
PT2-Rzut2
  6
CONTINUOUS
 62
     7
 10
299.6849
 20
291.526500000000000
 11
371.6713
 21
291.526500000000000
  0
LINE
  8
PT2-Rzut2
  6
CONTINUOUS
 62
     7
 10
299.6849
 20
307.928400000000010
 11
371.6713
 21
307.928400000000010
  0
LINE
  8
PT2-Rzut2
  6
CONTINUOUS
 62
     7
 10
299.6849
 20
316.129400000000030
 11
299.6849
 21
280.591800000000030
  0
LINE
  8
PT2-Rzut2
  6
CONTINUOUS
 62
     7
 10
299.6849
 20
310.662100000000010
 11
371.6713
 21
310.662100000000010
  0
LINE
  8
PT2-Rzut2
  6
CONTINUOUS
 62
     7
 10
344.6384
 20
313.395800000000010
 11
371.6713
 21
313.395800000000010
  0
LINE
  8
PT2-Rzut2
  6
CONTINUOUS
 62
     7
 10
299.6849
 20
316.129400000000030
 11
371.6713
 21
316.129400000000030
  0
LINE
  8
PT2-Rzut2
  6
CONTINUOUS
 62
     7
 10
299.6849
 20
305.194799999999990
 11
371.6713
 21
305.194799999999990
  0
LINE
  8
PT2-Rzut2
  6
CONTINUOUS
 62
     7
 10
299.6849
 20
302.461099999999990
 11
371.6713
 21
302.461099999999990
  0
LINE
  8
PT2-Rzut2
  6
CONTINUOUS
 62
     7
 10
299.6849
 20
299.727500000000020
 11
371.6713
 21
299.727500000000020
  0
LINE
  8
PT2-Rzut2
  6
CONTINUOUS
 62
     7
 10
299.6849
 20
296.993799999999960
 11
371.6713
 21
296.993799999999960
  0
LINE
  8
PT2-Rzut2
  6
CONTINUOUS
 62
     7
 10
299.6849
 20
294.260099999999970
 11
371.6713
 21
294.260099999999970
  0
LINE
  8
PT2-Rzut2
  6
CONTINUOUS
 62
     7
 10
304.5448
 20
316.129400000000030
 11
304.5448
 21
294.260099999999970
  0
LINE
  8
PT2-Rzut2
  6
CONTINUOUS
 62
     7
 10
316.3906
 20
316.129400000000030
 11
316.3906
 21
294.260099999999970
  0
LINE
  8
PT2-Rzut2
  6
CONTINUOUS
 62
     7
 10
331.2739
 20
316.129400000000030
 11
331.2739
 21
294.260099999999970
  0
LINE
  8
PT2-Rzut2
  6
CONTINUOUS
 62
     7
 10
344.6384
 20
316.129400000000030
 11
344.6384
 21
294.260099999999970
  0
LINE
  8
PT2-Rzut2
  6
CONTINUOUS
 62
     7
 10
358.6105
 20
313.395800000000010
 11
358.6105
 21
294.260099999999970
  0
LINE
  8
PT2-Rzut2
  6
CONTINUOUS
 62
     7
 10
371.6713
 20
316.129400000000030
 11
371.6713
 21
280.591800000000030
  0
LINE
  8
PT2-Rzut2
  6
CONTINUOUS
 62
     7
 10
299.6849
 20
288.792800000000000
 11
371.6713
 21
288.792800000000000
  0
LINE
  8
PT2-Rzut2
  6
CONTINUOUS
 62
     7
 10
299.6849
 20
286.059200000000030
 11
371.6713
 21
286.059200000000030
  0
LINE
  8
PT2-Rzut2
  6
CONTINUOUS
 62
     7
 10
299.6849
 20
283.325500000000030
 11
371.6713
 21
283.325500000000030
  0
LINE
  8
PT2-Rzut2
  6
CONTINUOUS
 62
     7
 10
299.6849
 20
280.591800000000030
 11
371.6713
 21
280.591800000000030
  0
LINE
  8
PT2-Rzut2
  6
CONTINUOUS
 62
     7
 10
344.6384
 20
291.526500000000000
 11
344.6384
 21
280.591800000000030
  0
LINE
  8
PT2-Rzut2
  6
CONTINUOUS
 62
     7
 10
358.6105
 20
291.526500000000000
 11
358.6105
 21
283.325500000000030
  0
TEXT
  8
PT2-Rzut2
  6
CONTINUOUS
 62
     7
 10
302.175599999999970
 20
308.710199999999990
 40
1.800000000000000
  1
1
  0
TEXT
  8
PT2-Rzut2
  6
CONTINUOUS
 62
     7
 10
310.376600000000000
 20
308.710199999999990
 40
1.800000000000000
  1
12
  0
TEXT
  8
PT2-Rzut2
  6
CONTINUOUS
 62
     7
 10
322.829900000000010
 20
308.710199999999990
 40
1.800000000000000
  1
144,0
  0
TEXT
  8
PT2-Rzut2
  6
CONTINUOUS
 62
     7
 10
336.498200000000000
 20
308.710199999999990
 40
1.800000000000000
  1
4
  0
TEXT
  8
PT2-Rzut2
  6
CONTINUOUS
 62
     7
 10
351.381500000000020
 20
308.710199999999990
 40
1.800000000000000
  1
576
  0
TEXT
  8
PT2-Rzut2
  6
CONTINUOUS
 62
     7
 10
302.175599999999970
 20
305.976600000000020
 40
1.800000000000000
  1
2
  0
TEXT
  8
PT2-Rzut2
  6
CONTINUOUS
 62
     7
 10
310.376600000000000
 20
305.976600000000020
 40
1.800000000000000
  1
6
  0
TEXT
  8
PT2-Rzut2
  6
CONTINUOUS
 62
     7
 10
322.829900000000010
 20
305.976600000000020
 40
1.800000000000000
  1
2,06
  0
TEXT
  8
PT2-Rzut2
  6
CONTINUOUS
 62
     7
 10
336.567000000000010
 20
306.120200000000010
 40
1.800000000000000
  1
578
  0
TEXT
  8
PT2-Rzut2
  6
CONTINUOUS
 62
     7
 10
364.212400000000000
 20
306.056899999999980
 40
1.800000000000000
  1
1191
  0
TEXT
  8
PT2-Rzut2
  6
CONTINUOUS
 62
     7
 10
300.960600000000000
 20
314.177599999999980
 40
1.800000000000000
  1
NR
  0
TEXT
  8
PT2-Rzut2
  6
CONTINUOUS
 62
     7
 10
304.642100000000030
 20
314.088000000000020
 40
1.800000000000000
  1
ŚREDNICA
  0
TEXT
  8
PT2-Rzut2
  6
CONTINUOUS
 62
     7
 10
318.787199999999980
 20
314.088000000000020
 40
1.800000000000000
  1
DŁUGOŚĆ
  0
TEXT
  8
PT2-Rzut2
  6
CONTINUOUS
 62
     7
 10
335.283300000000000
 20
314.177599999999980
 40
1.800000000000000
  1
ILOŚĆ
  0
TEXT
  8
PT2-Rzut2
  6
CONTINUOUS
 62
     7
 10
351.381500000000020
 20
314.177599999999980
 40
1.800000000000000
  1
DŁUGOŚĆ [M]
  0
TEXT
  8
PT2-Rzut2
  6
CONTINUOUS
 62
     7
 10
322.829900000000010
 20
313.223999999999990
 40
0.019900000000000
  1
CM
  0
TEXT
  8
PT2-Rzut2
  6
CONTINUOUS
 62
     7
 10
336.498200000000000
 20
313.223999999999990
 40
0.019900000000000
  1
SZT
  0
TEXT
  8
PT2-Rzut2
  6
CONTINUOUS
 62
     7
 10
351.261700000000020
 20
311.804800000000000
 40
1.800000000000000
  1
12
  0
TEXT
  8
PT2-Rzut2
  6
CONTINUOUS
 62
     7
 10
365.049800000000000
 20
311.443899999999990
 40
1.800000000000000
  1
6
  0
TEXT
  8
PT2-Rzut2
  6
CONTINUOUS
 62
     7
 10
365.049800000000000
 20
289.574600000000030
 40
1.800000000000000
  1
1191
  0
TEXT
  8
PT2-Rzut2
  6
CONTINUOUS
 62
     7
 10
351.381500000000020
 20
289.574600000000030
 40
1.800000000000000
  1
576
  0
TEXT
  8
PT2-Rzut2
  6
CONTINUOUS
 62
     7
 10
302.175599999999970
 20
281.373600000000010
 40
1.800000000000000
  1
MASA OGÓŁEM [kg]
  0
TEXT
  8
PT2-Rzut2
  6
CONTINUOUS
 62
     7
 10
351.381500000000020
 20
286.841000000000010
 40
1.800000000000000
  1
0,887
  0
TEXT
  8
PT2-Rzut2
  6
CONTINUOUS
 62
     7
 10
351.381500000000020
 20
284.107300000000010
 40
1.800000000000000
  1
510,9
  0
TEXT
  8
PT2-Rzut2
  6
CONTINUOUS
 62
     7
 10
354.418900000000010
 20
281.373600000000010
 40
1.800000000000000
  1
775,3
  0
TEXT
  8
PT2-Rzut2
  6
CONTINUOUS
 62
     7
 10
365.049800000000000
 20
286.841000000000010
 40
1.800000000000000
  1
0,222
  0
TEXT
  8
PT2-Rzut2
  6
CONTINUOUS
 62
     7
 10
365.566700000000030
 20
284.107300000000010
 40
1.800000000000000
  1
264,4
  0
TEXT
  8
PT2-Rzut2
  6
CONTINUOUS
 62
     7
 10
350.114500000000020
 20
311.833300000000010
 40
1.800000000000000
  1
f
  0
TEXT
  8
PT2-Rzut2
  6
CONTINUOUS
 62
     7
 10
348.790799999999990
 20
307.701199999999970
 40
1.800000000000000
  1

  0
TEXT
  8
PT2-Rzut2
  6
CONTINUOUS
 62
     7
 10
363.486699999999980
 20
311.663599999999970
 40
1.800000000000000
  1
f
  0
TEXT
  8
PT2-Rzut2
  6
CONTINUOUS
 62
     7
 10
302.219499999999980
 20
289.739000000000030
 40
1.800000000000000
  1
DŁUGOŚĆ RAZEM [m]
  0
TEXT
  8
PT2-Rzut2
  6
CONTINUOUS
 62
     7
 10
302.349100000000020
 20
286.992799999999990
 40
1.800000000000000
  1
MASA 1 mb [kg]
  0
TEXT
  8
PT2-Rzut2
  6
CONTINUOUS
 62
     7
 10
302.413900000000010
 20
284.259200000000020
 40
1.800000000000000
  1
MASA OGÓŁEM [kg]
  0
LINE
  8
PT1-Tabelka_rysu1
  6
CONTINUOUS
 62
     7
 10
495.1282
 20
324.113400000000010
 11
495.1282
 21
304.031499999999990
  0
LINE
  8
PT1-Tabelka_rysu1
  6
CONTINUOUS
 62
     7
 10
495.1279
 20
304.031499999999990
 11
520.7796
 21
304.031499999999990
  0
LINE
  8
PT1-Tabelka_rysu1
  6
CONTINUOUS
 62
     7
 10
520.7796
 20
304.031799999999980
 11
520.7796
 21
303.273700000000020
  0
LINE
  8
PT1-Tabelka_rysu1
  6
CONTINUOUS
 62
     7
 10
520.7792
 20
303.273700000000020
 11
525.4779
 21
303.273700000000020
  0
LINE
  8
PT1-Tabelka_rysu1
  6
CONTINUOUS
 62
     7
 10
525.4779
 20
303.273399999999980
 11
525.4778
 21
304.031499999999990
  0
LINE
  8
PT1-Tabelka_rysu1
  6
CONTINUOUS
 62
     7
 10
525.4775
 20
304.031499999999990
 11
546.09
 21
304.034099999999970
  0
LINE
  8
PT1-Tabelka_rysu1
  6
CONTINUOUS
 62
     7
 10
546.09
 20
304.034499999999980
 11
546.09
 21
304.031499999999990
  0
LINE
  8
PT1-Tabelka_rysu1
  6
CONTINUOUS
 62
     7
 10
546.0897
 20
304.031499999999990
 11
546.5952
 21
304.031499999999990
  0
LINE
  8
PT1-Tabelka_rysu1
  6
CONTINUOUS
 62
     7
 10
546.5952
 20
304.031200000000010
 11
546.5952
 21
324.113100000000030
  0
LINE
  8
PT1-Tabelka_rysu1
  6
CONTINUOUS
 62
     7
 10
546.5955
 20
324.113100000000030
 11
524.6823
 21
324.113100000000030
  0
LINE
  8
PT1-Tabelka_rysu1
  6
CONTINUOUS
 62
     7
 10
524.6823
 20
324.113400000000010
 11
524.6823
 21
315.935200000000010
  0
LINE
  8
PT1-Tabelka_rysu1
  6
CONTINUOUS
 62
     7
 10
524.6826
 20
315.935200000000010
 11
520.9185
 21
315.935200000000010
  0
LINE
  8
PT1-Tabelka_rysu1
  6
CONTINUOUS
 62
     7
 10
520.9185
 20
315.935499999999990
 11
520.9185
 21
304.031499999999990
  0
LINE
  8
PT1-Tabelka_rysu1
  6
CONTINUOUS
 62
     7
 10
520.9189
 20
304.031499999999990
 11
520.8933
 21
304.031499999999990
  0
LINE
  8
PT1-Tabelka_rysu1
  6
CONTINUOUS
 62
     7
 10
520.8933
 20
304.031200000000010
 11
520.8933
 21
331.611300000000030
  0
LINE
  8
PT1-Tabelka_rysu1
  6
CONTINUOUS
 62
     7
 10
507.1014
 20
338.284100000000020
 11
507.1014
 21
324.113100000000030
  0
LINE
  8
PT1-Tabelka_rysu1
  6
CONTINUOUS
 62
     7
 10
507.1017
 20
324.113100000000030
 11
495.1282
 21
324.113100000000030
  0
LINE
  8
PT1-Tabelka_rysu1
  6
CONTINUOUS
 62
     7
 10
498.6264
 20
328.672800000000000
 11
498.6267
 21
324.113100000000030
  0
LINE
  8
PT1-Tabelka_rysu1
  6
CONTINUOUS
 62
     7
 10
507.1014
 20
328.672500000000010
 11
498.6264
 21
328.672500000000010
  0
LINE
  8
PT1-Tabelka_rysu1
  6
CONTINUOUS
 62
     7
 10
512.3577
 20
365.416299999999980
 11
502.8199
 21
339.883500000000030
  0
LINE
  8
PT1-Tabelka_rysu1
  6
CONTINUOUS
 62
     7
 10
502.8196
 20
339.883600000000000
 11
515.1572
 21
335.274800000000030
  0
LINE
  8
PT1-Tabelka_rysu1
  6
CONTINUOUS
 62
     7
 10
521.3334
 20
332.967699999999980
 11
530.0184
 21
356.208300000000010
  0
LINE
  8
PT1-Tabelka_rysu1
  6
CONTINUOUS
 62
     7
 10
530.0184
 20
356.208300000000010
 11
534.2776
 21
354.616899999999990
  0
LINE
  8
PT1-Tabelka_rysu1
  6
CONTINUOUS
 62
     7
 10
534.2775
 20
354.616600000000010
 11
537.284
 21
362.661900000000000
  0
LINE
  8
PT1-Tabelka_rysu1
  6
CONTINUOUS
 62
     7
 10
537.2843
 20
362.661799999999970
 11
532.9065
 21
364.297500000000010
  0
LINE
  8
PT1-Tabelka_rysu1
  6
CONTINUOUS
 62
     7
 10
532.9066
 20
364.297800000000000
 11
532.4047
 21
362.954700000000000
  0
LINE
  8
PT1-Tabelka_rysu1
  6
CONTINUOUS
 62
     7
 10
532.4047
 20
362.954700000000000
 11
514.0062
 21
369.829000000000010
  0
LINE
  8
PT1-Tabelka_rysu1
  6
CONTINUOUS
 62
     7
 10
514.0062
 20
369.829000000000010
 11
512.3576
 21
365.416000000000000
  0
LINE
  8
PT1-Tabelka_rysu1
  6
CONTINUOUS
 62
     7
 10
512.3577
 20
365.416299999999980
 11
502.8199
 21
339.883500000000030
  0
LINE
  8
PT1-Tabelka_rysu1
  6
CONTINUOUS
 62
     7
 10
502.8196
 20
339.883600000000000
 11
515.1572
 21
335.274800000000030
  0
LINE
  8
PT1-Tabelka_rysu1
  6
CONTINUOUS
 62
     7
 10
512.3577
 20
365.416299999999980
 11
502.8199
 21
339.883500000000030
  0
LINE
  8
PT1-Tabelka_rysu1
  6
CONTINUOUS
 62
     7
 10
502.8196
 20
339.883600000000000
 11
521.3334
 21
332.967699999999980
  0
LINE
  8
PT1-Tabelka_rysu1
  6
CONTINUOUS
 62
     7
 10
521.3334
 20
332.967699999999980
 11
520.8933
 21
331.611300000000030
  0
POLYLINE
  8
PT1-Tabelka_rysu1
  6
CONTINUOUS
 62
     7
 66
     1
 70
     1
  0
VERTEX
  8
PT1-Tabelka_rysu1
 10
507.1014
 20
338.284100000000020
  0
VERTEX
  8
PT1-Tabelka_rysu1
 10
521.3334
 20
332.967699999999980
  0
VERTEX
  8
PT1-Tabelka_rysu1
 10
520.8933
 20
331.611300000000030
  0
VERTEX
  8
PT1-Tabelka_rysu1
 10
520.9185
 20
315.935200000000010
  0
VERTEX
  8
PT1-Tabelka_rysu1
 10
524.6826
 20
315.935200000000010
  0
VERTEX
  8
PT1-Tabelka_rysu1
 10
524.6823
 20
324.113100000000030
  0
VERTEX
  8
PT1-Tabelka_rysu1
 10
546.5955
 20
324.113100000000030
  0
VERTEX
  8
PT1-Tabelka_rysu1
 10
546.5952
 20
304.031499999999990
  0
VERTEX
  8
PT1-Tabelka_rysu1
 10
525.4775
 20
304.031499999999990
  0
VERTEX
  8
PT1-Tabelka_rysu1
 10
525.4779
 20
303.652400000000000
  0
VERTEX
  8
PT1-Tabelka_rysu1
 10
520.7796
 20
303.652800000000010
  0
VERTEX
  8
PT1-Tabelka_rysu1
 10
520.9189
 20
304.031499999999990
  0
VERTEX
  8
PT1-Tabelka_rysu1
 10
495.1282
 20
304.031499999999990
  0
VERTEX
  8
PT1-Tabelka_rysu1
 10
495.1282
 20
324.113100000000030
  0
VERTEX
  8
PT1-Tabelka_rysu1
 10
498.6267
 20
324.113100000000030
  0
VERTEX
  8
PT1-Tabelka_rysu1
 10
498.6264
 20
328.672500000000010
  0
VERTEX
  8
PT1-Tabelka_rysu1
 10
507.1014
 20
328.672500000000010
  0
SEQEND
  8
PT1-Tabelka_rysu1
  0
LINE
  8
PT1-Tabelka_rysu1
  6
CONTINUOUS
 62
     7
 10
507.1014
 20
338.284100000000020
 11
521.3334
 21
332.967699999999980
  0
POLYLINE
  8
PT1-Tabelka_rysu1
  6
CONTINUOUS
 62
     7
 66
     1
 70
     1
  0
VERTEX
  8
PT1-Tabelka_rysu1
 10
488.146
 20
12.668999999999983
  0
VERTEX
  8
PT1-Tabelka_rysu1
 10
560.1127
 20
12.668999999999983
  0
VERTEX
  8
PT1-Tabelka_rysu1
 10
560.1127
 20
13.727300000000014
  0
VERTEX
  8
PT1-Tabelka_rysu1
 10
488.146
 20
13.727300000000014
  0
SEQEND
  8
PT1-Tabelka_rysu1
  0
LINE
  8
PT1-Tabelka_rysu1
  6
CONTINUOUS
 62
     7
 10
487.0877
 20
13.727199999999982
 11
559.0544
 21
13.727199999999982
  0
LINE
  8
PT1-Tabelka_rysu1
  6
CONTINUOUS
 62
     7
 10
487.7932
 20
14.432799999999986
 11
558.3488
 21
14.432799999999986
  0
LINE
  8
PT1-Tabelka_rysu1
  6
CONTINUOUS
 62
     7
 10
558.3488
 20
14.432799999999986
 11
558.3488
 21
59.588399999999979
  0
LINE
  8
PT1-Tabelka_rysu1
  6
CONTINUOUS
 62
     7
 10
558.3488
 20
59.588399999999979
 11
487.7932
 21
59.588399999999979
  0
LINE
  8
PT1-Tabelka_rysu1
  6
CONTINUOUS
 62
     7
 10
487.7932
 20
14.432799999999986
 11
487.7932
 21
59.588399999999979
  0
LINE
  8
PT1-Tabelka_rysu1
  6
CONTINUOUS
 62
     7
 10
487.7932
 20
31.366199999999992
 11
558.3488
 21
31.366199999999992
  0
TEXT
  8
PT1-Tabelka_rysu1
  6
CONTINUOUS
 62
     7
 10
488.498800000000020
 20
29.215800000000002
 40
1.797600000000000
  1
Skala:
  0
TEXT
  8
PT1-Tabelka_rysu1
  6
CONTINUOUS
 62
     7
 10
488.498800000000020
 20
29.215800000000002
 40
1.797600000000000
  1
1 : 100
  0
LINE
  8
PT1-Tabelka_rysu1
  6
CONTINUOUS
 62
     7
 10
511.0766
 20
31.366199999999992
 11
511.0766
 21
27.838399999999979
  0
TEXT
  8
PT1-Tabelka_rysu1
  6
CONTINUOUS
 62
     7
 10
511.782100000000010
 20
29.215800000000002
 40
1.797600000000000
  1
Data:
  0
TEXT
  8
PT1-Tabelka_rysu1
  6
CONTINUOUS
 62
     7
 10
511.782100000000010
 20
29.215800000000002
 40
1.797600000000000
  1
07.2004
  0
LINE
  8
PT1-Tabelka_rysu1
  6
CONTINUOUS
 62
     7
 10
534.3599
 20
31.366199999999992
 11
534.3599
 21
27.838399999999979
  0
TEXT
  8
PT1-Tabelka_rysu1
  6
CONTINUOUS
 62
     7
 10
535.365199999999960
 20
29.215800000000002
 40
1.797600000000000
  1
01-P-04/K
  0
LINE
  8
PT1-Tabelka_rysu1
  6
CONTINUOUS
 62
     7
 10
487.7932
 20
34.893899999999974
 11
558.3488
 21
34.893899999999974
  0
TEXT
  8
PT1-Tabelka_rysu1
  6
CONTINUOUS
 62
     7
 10
488.498800000000020
 20
32.743600000000015
 40
1.797600000000000
  1
Branża: konstrukcyjna
  0
TEXT
  8
PT1-Tabelka_rysu1
  6
CONTINUOUS
 62
     7
 10
488.498800000000020
 20
57.085199999999986
 40
1.797600000000000
  1
Projekt: Rozbudowa Szkoły Podstawowej i Gimnazjum
  0
TEXT
  8
PT1-Tabelka_rysu1
  6
CONTINUOUS
 62
     7
 10
488.498800000000020
 20
54.388799999999947
 40
1.797600000000000
  1
              w Rzerzęczycach
  0
LINE
  8
PT1-Tabelka_rysu1
  6
CONTINUOUS
 62
     7
 10
487.7932
 20
51.474499999999978
 11
558.3488
 21
51.474499999999978
  0
TEXT
  8
PT1-Tabelka_rysu1
  6
CONTINUOUS
 62
     7
 10
488.648599999999990
 20
48.971299999999985
 40
1.797600000000000
  1
Inwestor: Urząd Gminy w Kłomnicach
  0
TEXT
  8
PT1-Tabelka_rysu1
  6
CONTINUOUS
 62
     7
 10
488.648599999999990
 20
46.274900000000002
 40
1.797600000000000
  1
                ul. Strażacka 20, 42-270 Kłomnice
  0
LINE
  8
PT1-Tabelka_rysu1
  6
CONTINUOUS
 62
     7
 10
487.7932
 20
43.360599999999977
 11
558.3488
 21
43.360599999999977
  0
TEXT
  8
PT1-Tabelka_rysu1
  6
CONTINUOUS
 62
     7
 10
488.498800000000020
 20
41.447000000000003
 40
1.797600000000000
  1
Projektował: Elżbieta Ochocka UAN-VIII/83861/146/87
  0
TEXT
  8
PT1-Tabelka_rysu1
  6
CONTINUOUS
 62
     7
 10
500.140400000000000
 20
45.443600000000004
 40
1.797600000000000
  1
 
  0
LINE
  8
PT1-Tabelka_rysu1
  6
CONTINUOUS
 62
     7
 10
487.7932
 20
27.838399999999979
 11
558.3488
 21
27.838399999999979
  0
TEXT
  8
PT1-Tabelka_rysu1
  6
CONTINUOUS
 62
     7
 10
488.498800000000020
 20
24.982399999999984
 40
1.797600000000000
  1

  0
TEXT
  8
PT1-Tabelka_rysu1
  6
CONTINUOUS
 62
     7
 10
488.422199999999980
 20
38.552000000000021
 40
1.797600000000000
  1
Sprawdził: Stanisław Kret UAN-VIII-7342/199/94
  0
TEXT
  8
PT1-Tabelka_rysu1
  6
CONTINUOUS
 62
     7
 10
488.506399999999990
 20
35.772500000000036
 40
1.797600000000000
  1
Opracował: Michał Urbańczyk
  0
TEXT
  8
PT1-Tabelka_rysu1
  6
CONTINUOUS
 62
     7
 10
488.550299999999990
 20
25.459600000000023
 40
1.797600000000000
  1
Nazwa rysunku:
  0
TEXT
  8
PT1-Tabelka_rysu1
  6
CONTINUOUS
 62
     7
 10
488.209600000000020
 20
16.223200000000020
 40
2.500000000000000
  1
RZUT FUNDAMENTÓW
  0
TEXT
  8
PT1-Tabelka_rysu1
  6
CONTINUOUS
 62
     7
 10
488.173800000000030
 20
20.677099999999996
 40
2.500000000000000
  1
Szkoła
  0
TEXT
  8
PT2-Opis4
  6
CONTINUOUS
 62
     7
 10
260.901200000000020
 20
55.171499999999980
 40
2.500000000000000
  1
UWAGA:
  0
TEXT
  8
PT2-Opis4
  6
CONTINUOUS
 62
     7
 10
260.901200000000020
 20
51.421499999999980
 40
2.500000000000000
  1
- poziom posadowienia nowych ław fundamentowych wynosi -1,80 m
  0
TEXT
  8
PT2-Opis4
  6
CONTINUOUS
 62
     7
 10
260.901200000000020
 20
47.671499999999980
 40
2.500000000000000
  1
- poziom posadowienia nowych ław fundamentowych wzdłuż istniejącego
  0
TEXT
  8
PT2-Opis4
  6
CONTINUOUS
 62
     7
 10
260.901200000000020
 20
43.921499999999980
 40
2.500000000000000
  1
  budynku ustalić po odkopaniu jego fundamentów. Nowe ławy należy w tych miejscach 
  0
TEXT
  8
PT2-Opis4
  6
CONTINUOUS
 62
     7
 10
260.901200000000020
 20
40.171499999999980
 40
2.500000000000000
  1
  posadowić na poziomie posadowienia ław istniejących.
  0
TEXT
  8
PT2-Opis4
  6
CONTINUOUS
 62
     7
 10
260.901200000000020
 20
36.421499999999980
 40
2.500000000000000
  1
- stal A-III, beton B-15.
  0
LINE
  8
PT3-Rzut8
  6
CONTINUOUS
 62
     7
 10
268.1767
 20
115.160599999999990
 11
268.1801
 21
87.435099999999977
  0
LINE
  8
PT3-Rzut8
  6
CONTINUOUS
 62
     7
 10
268.1732
 20
143.701100000000000
 11
268.1719
 21
154.370499999999990
  0
LINE
  8
PT3-Rzut8
  6
CONTINUOUS
 62
     7
 10
268.1714
 20
158.370499999999990
 11
268.1688
 21
179.695500000000010
  0
LINE
  8
PT2-Rzut2
  6
CONTINUOUS
 62
     7
 10
268.1778
 20
126.717899999999990
 11
272.1778
 21
126.717899999999990
  0
LINE
  8
PT2-Rzut2
  6
CONTINUOUS
 62
     7
 10
267.1778
 20
126.717899999999990
 11
268.1778
 21
126.717899999999990
  0
LINE
  8
PT2-Rzut2
  6
CONTINUOUS
 62
     7
 10
273.1778
 20
126.717899999999990
 11
272.1778
 21
126.717899999999990
  0
LINE
  8
PT2-Rzut2
  6
CONTINUOUS
 62
     7
 10
268.6777
 20
127.217899999999990
 11
267.6779
 21
126.218000000000020
  0
LINE
  8
PT2-Rzut2
  6
CONTINUOUS
 62
     7
 10
272.6777
 20
127.217899999999990
 11
271.6779
 21
126.218000000000020
  0
LINE
  8
PT2-Rzut2
  6
CONTINUOUS
 62
     7
 10
268.1778
 20
125.717899999999990
 11
268.1778
 21
127.717899999999990
  0
LINE
  8
PT2-Rzut2
  6
CONTINUOUS
 62
     7
 10
272.1778
 20
125.717899999999990
 11
272.1778
 21
127.717899999999990
  0
TEXT
  8
PT2-Rzut2
  6
CONTINUOUS
 62
     7
 10
268.718599999999980
 20
127.968399999999970
 40
2.000000000000000
  1
40
  0
LINE
  8
PT3-Rzut8
  6
CONTINUOUS
 62
     7
 10
92.166
 20
252.136400000000010
 11
151.3163
 21
252.143900000000000
  0
LINE
  8
PT3-Rzut8
  6
CONTINUOUS
 62
     7
 10
151.3163
 20
252.143900000000000
 11
151.3181
 21
280.545500000000000
  0
ENDSEC
  0
EOF
