  0
SECTION
  2
HEADER
  9
$ACADVER
  1
AC1004
  9
$EXTMIN
 10
0.0
 20
0.0
  9
$EXTMAX
 10
600.000000000000000
 20
270.000000000000000
  9
$LIMMIN
 10
0.0
 20
0.0
  9
$LIMMAX
 10
600.000000000000000
 20
270.000000000000000
  9
$CLAYER
  8
PT1-Tabelka_rysu1
  0
ENDSEC
  0
SECTION
  2
TABLES
  0
TABLE
  2
LTYPE
 70
11
  0
LTYPE
  2
CONTINUOUS
 70
     0
  3
Solid line
 72
    65
 73
     0
 40
     0.0
  0
LTYPE
  2
GESTRICHELT
 70
     0
  3
__ __ __ __ __ __ __ __ __ __ __ __ __ __ __
 72
    65
 73
     2
 40
     0.75
 49
0.5
 49
-0.25
  0
LTYPE
  2
VERDECKT
 70
     0
  3
_ _ _ _ _ _ _ _ _ _ _ _ _ _ _ _ _ _ _ _ _ _
 72
    65
 73
     2
 40
     0.25
 49
0.125
 49
-0.125
  0
LTYPE
  2
MITTELLINIE
 70
     0
  3
____ _ ____ _ ____ _ ____ _ ____ _ ____ _ __
 72
    65
 73
     4
 40
     2.0
 49
1.25
 49
-0.25
 49
0.25
 49
-0.25
  0
LTYPE
  2
PHANTOM
 70
     0
  3
_____ _ _ _____ _ _ _____ _ _ _____ _ _ ____
 72
    65
 73
     6
 40
     2.5
 49
1.25
 49
-0.25
 49
0.25
 49
-0.25
 49
0.25
 49
-0.25
  0
LTYPE
  2
PUNKTIERT
 70
     0
  3
............................................
 72
    65
 73
     2
 40
     0.25
 49
0.0
 49
-0.25
  0
LTYPE
  2
STRICHPUNKTIERT
 70
     0
  3
__ . __ . __ . __ . __ . __ . __ . __ . __ .
 72
    65
 73
     4
 40
     1.0
 49
0.5
 49
-0.25
 49
0.0
 49
-0.25
  0
LTYPE
  2
RAND
 70
     0
  3
__ __ . __ __ . __ __ . __ __ . __ __ . __ _
 72
    65
 73
     6
 40
     1.75
 49
0.5
 49
-0.25
 49
0.5
 49
-0.25
 49
0.0
 49
-0.25
  0
LTYPE
  2
TRENNLINIE
 70
     0
  3
__ . . __ . . __ . . __ . . __ . . __ . . __
 72
    65
 73
     6
 40
     1.25
 49
0.5
 49
-0.25
 49
0.0
 49
-0.25
 49
0.0
 49
-0.25
  0
LTYPE
  2
ENG_PUNKTIERT
 70
     0
  3
Schließen
 72
    65
 73
     2
 40
     0.1
 49
0.05
 49
-0.05
  0
LTYPE
  2
CLOSE
 70
     0
  3

 72
    65
 73
     0
 40
     0.0
  0
ENDTAB
  0
TABLE
  2
LAYER
 70
   5
  0
LAYER
  2
PT1-Tabelka_rysu1
 70
     0
 62
     7
  6
CONTINUOUS
  0
LAYER
  2
PT2-Teren2
 70
     0
 62
     7
  6
CONTINUOUS
  0
LAYER
  2
PT2-Urządzenia_z3
 70
     0
 62
     7
  6
CONTINUOUS
  0
LAYER
  2
PT2-Tabelka_rysu4
 70
     0
 62
     7
  6
CONTINUOUS
  0
LAYER
  2
PT3-Grafika_wekt5
 70
     0
 62
    -7
  6
CONTINUOUS
  0
ENDTAB
  0
TABLE
  2
STYLE
 70
    1
  0
STYLE
  2
STANDARD
 70
    0
 40
0.0
 41
1.0
 50
0.0
71
     0
 42
0.2
  3
txt
  4

  0
ENDTAB
  0
ENDSEC
  0
SECTION
  2
ENTITIES
  0
POLYLINE
  8
PT1-Tabelka_rysu1
  6
CONTINUOUS
 62
     7
 66
     1
 70
     1
  0
VERTEX
  8
PT1-Tabelka_rysu1
 10
590.0554
 20
9.196700000000021
  0
VERTEX
  8
PT1-Tabelka_rysu1
 10
591.1137
 20
9.196700000000021
  0
VERTEX
  8
PT1-Tabelka_rysu1
 10
591.1137
 20
70.227300000000014
  0
VERTEX
  8
PT1-Tabelka_rysu1
 10
590.0554
 20
70.227300000000014
  0
SEQEND
  8
PT1-Tabelka_rysu1
  0
LINE
  8
PT1-Tabelka_rysu1
  6
CONTINUOUS
 62
     7
 10
590.0554
 20
10.254999999999995
 11
590.0554
 21
71.285599999999988
  0
LINE
  8
PT1-Tabelka_rysu1
  6
CONTINUOUS
 62
     7
 10
590.0554
 20
71.285599999999988
 11
518.0887
 21
71.285599999999988
  0
LINE
  8
PT1-Tabelka_rysu1
  6
CONTINUOUS
 62
     7
 10
518.0887
 20
10.254999999999995
 11
518.0887
 21
71.285599999999988
  0
POLYLINE
  8
PT1-Tabelka_rysu1
  6
CONTINUOUS
 62
     7
 66
     1
 70
     1
  0
VERTEX
  8
PT1-Tabelka_rysu1
 10
518.9971
 20
9.267600000000016
  0
VERTEX
  8
PT1-Tabelka_rysu1
 10
590.9638
 20
9.267600000000016
  0
VERTEX
  8
PT1-Tabelka_rysu1
 10
590.9638
 20
10.325899999999990
  0
VERTEX
  8
PT1-Tabelka_rysu1
 10
518.9971
 20
10.325899999999990
  0
SEQEND
  8
PT1-Tabelka_rysu1
  0
LINE
  8
PT1-Tabelka_rysu1
  6
CONTINUOUS
 62
     7
 10
517.9388
 20
10.325800000000015
 11
589.9055
 21
10.325800000000015
  0
LINE
  8
PT1-Tabelka_rysu1
  6
CONTINUOUS
 62
     7
 10
518.6443
 20
11.031400000000019
 11
589.1999
 21
11.031400000000019
  0
LINE
  8
PT1-Tabelka_rysu1
  6
CONTINUOUS
 62
     7
 10
589.1999
 20
11.031400000000019
 11
589.1999
 21
56.187000000000012
  0
LINE
  8
PT1-Tabelka_rysu1
  6
CONTINUOUS
 62
     7
 10
589.1999
 20
56.187000000000012
 11
518.6443
 21
56.187000000000012
  0
LINE
  8
PT1-Tabelka_rysu1
  6
CONTINUOUS
 62
     7
 10
518.6443
 20
11.031400000000019
 11
518.6443
 21
56.187000000000012
  0
LINE
  8
PT1-Tabelka_rysu1
  6
CONTINUOUS
 62
     7
 10
518.6443
 20
27.964799999999997
 11
589.1999
 21
27.964799999999997
  0
TEXT
  8
PT1-Tabelka_rysu1
  6
CONTINUOUS
 62
     7
 10
519.349900000000050
 20
25.814400000000006
 40
1.797600000000000
  1
Skala:
  0
TEXT
  8
PT1-Tabelka_rysu1
  6
CONTINUOUS
 62
     7
 10
519.349900000000050
 20
25.814400000000006
 40
1.797600000000000
  1
1 : 100
  0
LINE
  8
PT1-Tabelka_rysu1
  6
CONTINUOUS
 62
     7
 10
541.9277
 20
27.964799999999997
 11
541.9277
 21
24.437000000000012
  0
TEXT
  8
PT1-Tabelka_rysu1
  6
CONTINUOUS
 62
     7
 10
542.633199999999990
 20
25.814400000000006
 40
1.797600000000000
  1
Data:
  0
TEXT
  8
PT1-Tabelka_rysu1
  6
CONTINUOUS
 62
     7
 10
542.633199999999990
 20
25.814400000000006
 40
1.797600000000000
  1
07.2004
  0
LINE
  8
PT1-Tabelka_rysu1
  6
CONTINUOUS
 62
     7
 10
565.211
 20
27.964799999999997
 11
565.211
 21
24.437000000000012
  0
TEXT
  8
PT1-Tabelka_rysu1
  6
CONTINUOUS
 62
     7
 10
566.216199999999960
 20
25.814400000000006
 40
1.797600000000000
  1
17-P-04/A
  0
LINE
  8
PT1-Tabelka_rysu1
  6
CONTINUOUS
 62
     7
 10
518.6443
 20
31.492500000000007
 11
589.1999
 21
31.492500000000007
  0
TEXT
  8
PT1-Tabelka_rysu1
  6
CONTINUOUS
 62
     7
 10
519.349900000000050
 20
29.342200000000020
 40
1.797600000000000
  1
Branża:  architektoniczna
  0
TEXT
  8
PT1-Tabelka_rysu1
  6
CONTINUOUS
 62
     7
 10
519.349900000000050
 20
53.683800000000019
 40
1.797600000000000
  1
Projekt: Rozbudowa Szkoły Podstawowej i Gimnazjum
  0
TEXT
  8
PT1-Tabelka_rysu1
  6
CONTINUOUS
 62
     7
 10
519.349900000000050
 20
50.987400000000008
 40
1.797600000000000
  1
              w Rzerzęczycach
  0
LINE
  8
PT1-Tabelka_rysu1
  6
CONTINUOUS
 62
     7
 10
518.6443
 20
48.073100000000011
 11
589.1999
 21
48.073100000000011
  0
TEXT
  8
PT1-Tabelka_rysu1
  6
CONTINUOUS
 62
     7
 10
519.499699999999960
 20
45.569900000000018
 40
1.797600000000000
  1
Inwestor: Urząd Gminy w Kłomnicach
  0
TEXT
  8
PT1-Tabelka_rysu1
  6
CONTINUOUS
 62
     7
 10
519.499699999999960
 20
42.873500000000007
 40
1.797600000000000
  1
                ul. Strażacka 20, 42-270 Kłomnice
  0
LINE
  8
PT1-Tabelka_rysu1
  6
CONTINUOUS
 62
     7
 10
518.6443
 20
39.959200000000010
 11
589.1999
 21
39.959200000000010
  0
TEXT
  8
PT1-Tabelka_rysu1
  6
CONTINUOUS
 62
     7
 10
519.349900000000050
 20
38.045600000000007
 40
1.797600000000000
  1
Projektował: Beata Król-Stroba UAB-VIII/83861/102/90
  0
TEXT
  8
PT1-Tabelka_rysu1
  6
CONTINUOUS
 62
     7
 10
530.991499999999970
 20
53.683800000000019
 40
1.797600000000000
  1

  0
TEXT
  8
PT1-Tabelka_rysu1
  6
CONTINUOUS
 62
     7
 10
530.991499999999970
 20
42.042200000000008
 40
1.797600000000000
  1
 
  0
LINE
  8
PT1-Tabelka_rysu1
  6
CONTINUOUS
 62
     7
 10
518.6443
 20
24.437000000000012
 11
589.1999
 21
24.437000000000012
  0
TEXT
  8
PT1-Tabelka_rysu1
  6
CONTINUOUS
 62
     7
 10
519.349900000000050
 20
21.581000000000017
 40
1.797600000000000
  1

  0
TEXT
  8
PT1-Tabelka_rysu1
  6
CONTINUOUS
 62
     7
 10
519.273299999999950
 20
35.150700000000001
 40
1.797600000000000
  1
Sprawdził: Witold Dominik   -  Decyzja Nr 65
  0
TEXT
  8
PT1-Tabelka_rysu1
  6
CONTINUOUS
 62
     7
 10
519.357499999999960
 20
32.371200000000016
 40
1.797600000000000
  1
Opracował: Michał Urbańczyk
  0
TEXT
  8
PT1-Tabelka_rysu1
  6
CONTINUOUS
 62
     7
 10
519.401399999999970
 20
22.058199999999999
 40
1.797600000000000
  1
Nazwa rysunku:
  0
TEXT
  8
PT1-Tabelka_rysu1
  6
CONTINUOUS
 62
     7
 10
519.670399999999970
 20
18.584100000000007
 40
3.000000000000000
  1
ELEWACJA BOCZNA
  0
TEXT
  8
PT1-Tabelka_rysu1
  6
CONTINUOUS
 62
     7
 10
519.670399999999970
 20
14.084100000000007
 40
3.000000000000000
  1
(południowa)
  0
LINE
  8
PT3-Grafika_wekt5
  6
CONTINUOUS
 62
     7
 10
180.3695
 20
192.559800000000000
 11
180.3878
 21
192.547900000000000
  0
LINE
  8
PT3-Grafika_wekt5
  6
CONTINUOUS
 62
     7
 10
185.3288
 20
189.349600000000010
 11
187.3758
 21
188.019800000000000
  0
LINE
  8
PT3-Grafika_wekt5
  6
CONTINUOUS
 62
     7
 10
185.3362
 20
189.360900000000020
 11
190.0322
 21
186.310000000000000
  0
LINE
  8
PT3-Grafika_wekt5
  6
CONTINUOUS
 62
     7
 10
190.0322
 20
186.310000000000000
 11
190.1223
 21
186.235400000000000
  0
LINE
  8
PT3-Grafika_wekt5
  6
CONTINUOUS
 62
     7
 10
189.3399
 20
186.743699999999990
 11
189.808
 21
186.439700000000020
  0
LINE
  8
PT3-Grafika_wekt5
  6
CONTINUOUS
 62
     7
 10
189.4614
 20
186.664699999999980
 11
189.4688
 21
186.675999999999990
  0
LINE
  8
PT3-Grafika_wekt5
  6
CONTINUOUS
 62
     7
 10
189.8294
 20
186.425700000000010
 11
189.8874
 21
186.388000000000010
  0
LINE
  8
PT3-Grafika_wekt5
  6
CONTINUOUS
 62
     7
 10
190.2121
 20
186.161000000000000
 11
190.2456
 21
186.133300000000020
  0
LINE
  8
PT3-Grafika_wekt5
  6
CONTINUOUS
 62
     7
 10
190.2631
 20
186.160000000000000
 11
190.2688
 21
186.156299999999990
  0
LINE
  8
PT3-Grafika_wekt5
  6
CONTINUOUS
 62
     7
 10
157.8506
 20
206.351800000000000
 11
211.1931
 21
206.351800000000000
  0
LINE
  8
PT3-Grafika_wekt5
  6
CONTINUOUS
 62
     7
 10
211.1931
 20
206.351800000000000
 11
211.1931
 21
193.371100000000010
  0
LINE
  8
PT3-Grafika_wekt5
  6
CONTINUOUS
 62
     7
 10
211.1931
 20
193.371100000000010
 11
177.8312
 21
193.371100000000010
  0
LINE
  8
PT3-Grafika_wekt5
  6
CONTINUOUS
 62
     7
 10
211.1931
 20
192.971299999999990
 11
211.1931
 21
193.371100000000010
  0
LINE
  8
PT3-Grafika_wekt5
  6
CONTINUOUS
 62
     7
 10
46.3599
 20
192.971299999999990
 11
46.3599
 21
205.053699999999990
  0
LINE
  8
PT3-Grafika_wekt5
  6
CONTINUOUS
 62
     7
 10
46.3599
 20
205.053699999999990
 11
93.3365
 21
205.053699999999990
  0
LINE
  8
PT3-Grafika_wekt5
  6
CONTINUOUS
 62
     7
 10
46.3599
 20
193.371100000000010
 11
79.7155
 21
193.371100000000010
  0
LINE
  8
PT3-Grafika_wekt5
  6
CONTINUOUS
 62
     7
 10
97.1329
 20
205.053699999999990
 11
97.698
 21
205.053699999999990
  0
LINE
  8
PT3-Grafika_wekt5
  6
CONTINUOUS
 62
     7
 10
180.0053
 20
191.958699999999990
 11
180.3931
 21
192.556100000000010
  0
LINE
  8
PT3-Grafika_wekt5
  6
CONTINUOUS
 62
     7
 10
180.3931
 20
192.556100000000010
 11
190.2179
 21
186.173299999999980
  0
LINE
  8
PT3-Grafika_wekt5
  6
CONTINUOUS
 62
     7
 10
190.2179
 20
186.173299999999980
 11
189.8301
 21
185.575800000000020
  0
LINE
  8
PT3-Grafika_wekt5
  6
CONTINUOUS
 62
     7
 10
180.3695
 20
192.559800000000000
 11
180.3878
 21
192.547900000000000
  0
LINE
  8
PT3-Grafika_wekt5
  6
CONTINUOUS
 62
     7
 10
180.5311
 20
192.808800000000020
 11
180.3695
 21
192.559800000000000
  0
LINE
  8
PT3-Grafika_wekt5
  6
CONTINUOUS
 62
     7
 10
181.163
 20
192.055999999999980
 11
181.2007
 21
192.114199999999980
  0
LINE
  8
PT3-Grafika_wekt5
  6
CONTINUOUS
 62
     7
 10
181.2216
 20
192.146300000000000
 11
181.163
 21
192.055999999999980
  0
LINE
  8
PT3-Grafika_wekt5
  6
CONTINUOUS
 62
     7
 10
181.2216
 20
192.146300000000000
 11
185.3874
 21
189.439899999999990
  0
LINE
  8
PT3-Grafika_wekt5
  6
CONTINUOUS
 62
     7
 10
185.3874
 20
189.439899999999990
 11
185.3288
 21
189.349600000000010
  0
LINE
  8
PT3-Grafika_wekt5
  6
CONTINUOUS
 62
     7
 10
185.3288
 20
189.349600000000010
 11
187.3758
 21
188.019800000000000
  0
LINE
  8
PT3-Grafika_wekt5
  6
CONTINUOUS
 62
     7
 10
181.3192
 20
192.296800000000020
 11
180.5311
 21
192.808800000000020
  0
LINE
  8
PT3-Grafika_wekt5
  6
CONTINUOUS
 62
     7
 10
185.3288
 20
189.349600000000010
 11
187.8097
 21
187.737799999999990
  0
LINE
  8
PT3-Grafika_wekt5
  6
CONTINUOUS
 62
     7
 10
185.3362
 20
189.360900000000020
 11
185.3874
 21
189.439899999999990
  0
LINE
  8
PT3-Grafika_wekt5
  6
CONTINUOUS
 62
     7
 10
185.3874
 20
189.439899999999990
 11
190.3178
 21
186.236800000000020
  0
LINE
  8
PT3-Grafika_wekt5
  6
CONTINUOUS
 62
     7
 10
190.3178
 20
186.236800000000020
 11
190.2688
 21
186.156299999999990
  0
LINE
  8
PT3-Grafika_wekt5
  6
CONTINUOUS
 62
     7
 10
190.2688
 20
186.156299999999990
 11
185.3362
 21
189.360900000000020
  0
LINE
  8
PT3-Grafika_wekt5
  6
CONTINUOUS
 62
     7
 10
185.3362
 20
189.360900000000020
 11
190.0322
 21
186.310000000000000
  0
LINE
  8
PT3-Grafika_wekt5
  6
CONTINUOUS
 62
     7
 10
190.0322
 20
186.310000000000000
 11
190.1223
 21
186.235400000000000
  0
LINE
  8
PT3-Grafika_wekt5
  6
CONTINUOUS
 62
     7
 10
189.3399
 20
186.743699999999990
 11
189.808
 21
186.439700000000020
  0
LINE
  8
PT3-Grafika_wekt5
  6
CONTINUOUS
 62
     7
 10
189.3418
 20
186.742400000000000
 11
185.3288
 21
189.349600000000010
  0
LINE
  8
PT3-Grafika_wekt5
  6
CONTINUOUS
 62
     7
 10
189.4614
 20
186.664699999999980
 11
189.4688
 21
186.675999999999990
  0
LINE
  8
PT3-Grafika_wekt5
  6
CONTINUOUS
 62
     7
 10
189.8294
 20
186.425700000000010
 11
189.8874
 21
186.388000000000010
  0
LINE
  8
PT3-Grafika_wekt5
  6
CONTINUOUS
 62
     7
 10
189.8316
 20
185.574799999999980
 11
190.2195
 21
186.172300000000010
  0
LINE
  8
PT3-Grafika_wekt5
  6
CONTINUOUS
 62
     7
 10
190.2195
 20
186.172300000000010
 11
190.2157
 21
186.170000000000020
  0
LINE
  8
PT3-Grafika_wekt5
  6
CONTINUOUS
 62
     7
 10
190.2121
 20
186.161000000000000
 11
190.2456
 21
186.133300000000020
  0
LINE
  8
PT3-Grafika_wekt5
  6
CONTINUOUS
 62
     7
 10
190.2456
 20
186.133300000000020
 11
190.2631
 21
186.160000000000000
  0
LINE
  8
PT3-Grafika_wekt5
  6
CONTINUOUS
 62
     7
 10
190.2631
 20
186.160000000000000
 11
190.2688
 21
186.156299999999990
  0
LINE
  8
PT3-Grafika_wekt5
  6
CONTINUOUS
 62
     7
 10
190.2179
 20
186.173299999999980
 11
190.2195
 21
186.172300000000010
  0
LINE
  8
PT3-Grafika_wekt5
  6
CONTINUOUS
 62
     7
 10
180.3695
 20
192.559800000000000
 11
180.3878
 21
192.547900000000000
  0
LINE
  8
PT3-Grafika_wekt5
  6
CONTINUOUS
 62
     7
 10
185.3288
 20
189.349600000000010
 11
187.3758
 21
188.019800000000000
  0
LINE
  8
PT3-Grafika_wekt5
  6
CONTINUOUS
 62
     7
 10
185.3362
 20
189.360900000000020
 11
190.0322
 21
186.310000000000000
  0
LINE
  8
PT3-Grafika_wekt5
  6
CONTINUOUS
 62
     7
 10
190.0322
 20
186.310000000000000
 11
190.1223
 21
186.235400000000000
  0
LINE
  8
PT3-Grafika_wekt5
  6
CONTINUOUS
 62
     7
 10
189.3399
 20
186.743699999999990
 11
189.808
 21
186.439700000000020
  0
LINE
  8
PT3-Grafika_wekt5
  6
CONTINUOUS
 62
     7
 10
189.4614
 20
186.664699999999980
 11
189.4688
 21
186.675999999999990
  0
LINE
  8
PT3-Grafika_wekt5
  6
CONTINUOUS
 62
     7
 10
189.8294
 20
186.425700000000010
 11
189.8874
 21
186.388000000000010
  0
LINE
  8
PT3-Grafika_wekt5
  6
CONTINUOUS
 62
     7
 10
190.2121
 20
186.161000000000000
 11
190.2456
 21
186.133300000000020
  0
LINE
  8
PT3-Grafika_wekt5
  6
CONTINUOUS
 62
     7
 10
190.2631
 20
186.160000000000000
 11
190.2688
 21
186.156299999999990
  0
LINE
  8
PT3-Grafika_wekt5
  6
CONTINUOUS
 62
     7
 10
167.6983
 20
199.954099999999980
 11
168.0862
 21
200.551500000000000
  0
LINE
  8
PT3-Grafika_wekt5
  6
CONTINUOUS
 62
     7
 10
168.0862
 20
200.551500000000000
 11
177.911
 21
194.168700000000000
  0
LINE
  8
PT3-Grafika_wekt5
  6
CONTINUOUS
 62
     7
 10
177.911
 20
194.168700000000000
 11
177.5231
 21
193.571200000000000
  0
LINE
  8
PT3-Grafika_wekt5
  6
CONTINUOUS
 62
     7
 10
168.0625
 20
200.555200000000010
 11
168.0809
 21
200.543299999999990
  0
LINE
  8
PT3-Grafika_wekt5
  6
CONTINUOUS
 62
     7
 10
168.2242
 20
200.804199999999980
 11
168.0625
 21
200.555200000000010
  0
LINE
  8
PT3-Grafika_wekt5
  6
CONTINUOUS
 62
     7
 10
168.856
 20
200.051400000000000
 11
168.8938
 21
200.109600000000000
  0
LINE
  8
PT3-Grafika_wekt5
  6
CONTINUOUS
 62
     7
 10
168.9146
 20
200.141700000000010
 11
168.856
 21
200.051400000000000
  0
LINE
  8
PT3-Grafika_wekt5
  6
CONTINUOUS
 62
     7
 10
168.9146
 20
200.141700000000010
 11
173.0805
 21
197.435299999999980
  0
LINE
  8
PT3-Grafika_wekt5
  6
CONTINUOUS
 62
     7
 10
173.0805
 20
197.435299999999980
 11
173.0219
 21
197.345000000000000
  0
LINE
  8
PT3-Grafika_wekt5
  6
CONTINUOUS
 62
     7
 10
173.0219
 20
197.345000000000000
 11
175.0689
 21
196.015199999999990
  0
LINE
  8
PT3-Grafika_wekt5
  6
CONTINUOUS
 62
     7
 10
169.0123
 20
200.292199999999980
 11
168.2242
 21
200.804199999999980
  0
LINE
  8
PT3-Grafika_wekt5
  6
CONTINUOUS
 62
     7
 10
173.0219
 20
197.345000000000000
 11
175.5028
 21
195.733200000000010
  0
LINE
  8
PT3-Grafika_wekt5
  6
CONTINUOUS
 62
     7
 10
173.0292
 20
197.356300000000000
 11
173.0805
 21
197.435299999999980
  0
LINE
  8
PT3-Grafika_wekt5
  6
CONTINUOUS
 62
     7
 10
173.0805
 20
197.435299999999980
 11
178.0108
 21
194.232200000000010
  0
LINE
  8
PT3-Grafika_wekt5
  6
CONTINUOUS
 62
     7
 10
178.0108
 20
194.232200000000010
 11
177.9619
 21
194.151700000000010
  0
LINE
  8
PT3-Grafika_wekt5
  6
CONTINUOUS
 62
     7
 10
177.9619
 20
194.151700000000010
 11
173.0292
 21
197.356300000000000
  0
LINE
  8
PT3-Grafika_wekt5
  6
CONTINUOUS
 62
     7
 10
173.0292
 20
197.356300000000000
 11
177.7253
 21
194.305499999999990
  0
LINE
  8
PT3-Grafika_wekt5
  6
CONTINUOUS
 62
     7
 10
177.7253
 20
194.305499999999990
 11
177.8154
 21
194.230799999999990
  0
LINE
  8
PT3-Grafika_wekt5
  6
CONTINUOUS
 62
     7
 10
177.033
 20
194.739199999999980
 11
177.5011
 21
194.435100000000010
  0
LINE
  8
PT3-Grafika_wekt5
  6
CONTINUOUS
 62
     7
 10
177.0349
 20
194.737799999999990
 11
173.0219
 21
197.345000000000000
  0
LINE
  8
PT3-Grafika_wekt5
  6
CONTINUOUS
 62
     7
 10
177.1545
 20
194.660100000000000
 11
177.1618
 21
194.671400000000010
  0
LINE
  8
PT3-Grafika_wekt5
  6
CONTINUOUS
 62
     7
 10
177.5225
 20
194.421100000000000
 11
177.5805
 21
194.383399999999990
  0
LINE
  8
PT3-Grafika_wekt5
  6
CONTINUOUS
 62
     7
 10
177.5247
 20
193.570200000000000
 11
177.9125
 21
194.167700000000000
  0
LINE
  8
PT3-Grafika_wekt5
  6
CONTINUOUS
 62
     7
 10
177.9125
 20
194.167700000000000
 11
177.9088
 21
194.165400000000010
  0
LINE
  8
PT3-Grafika_wekt5
  6
CONTINUOUS
 62
     7
 10
177.9052
 20
194.156499999999990
 11
177.9387
 21
194.128699999999980
  0
LINE
  8
PT3-Grafika_wekt5
  6
CONTINUOUS
 62
     7
 10
177.9387
 20
194.128699999999980
 11
177.9561
 21
194.155500000000020
  0
LINE
  8
PT3-Grafika_wekt5
  6
CONTINUOUS
 62
     7
 10
177.9561
 20
194.155500000000020
 11
177.9619
 21
194.151700000000010
  0
LINE
  8
PT3-Grafika_wekt5
  6
CONTINUOUS
 62
     7
 10
177.911
 20
194.168700000000000
 11
177.9125
 21
194.167700000000000
  0
LINE
  8
PT3-Grafika_wekt5
  6
CONTINUOUS
 62
     7
 10
168.0625
 20
200.555200000000010
 11
168.0809
 21
200.543299999999990
  0
LINE
  8
PT3-Grafika_wekt5
  6
CONTINUOUS
 62
     7
 10
173.0219
 20
197.345000000000000
 11
175.0689
 21
196.015199999999990
  0
LINE
  8
PT3-Grafika_wekt5
  6
CONTINUOUS
 62
     7
 10
173.0292
 20
197.356300000000000
 11
177.7253
 21
194.305499999999990
  0
LINE
  8
PT3-Grafika_wekt5
  6
CONTINUOUS
 62
     7
 10
177.7253
 20
194.305499999999990
 11
177.8154
 21
194.230799999999990
  0
LINE
  8
PT3-Grafika_wekt5
  6
CONTINUOUS
 62
     7
 10
177.033
 20
194.739199999999980
 11
177.5011
 21
194.435100000000010
  0
LINE
  8
PT3-Grafika_wekt5
  6
CONTINUOUS
 62
     7
 10
177.1545
 20
194.660100000000000
 11
177.1618
 21
194.671400000000010
  0
LINE
  8
PT3-Grafika_wekt5
  6
CONTINUOUS
 62
     7
 10
177.5225
 20
194.421100000000000
 11
177.5805
 21
194.383399999999990
  0
LINE
  8
PT3-Grafika_wekt5
  6
CONTINUOUS
 62
     7
 10
177.9052
 20
194.156499999999990
 11
177.9387
 21
194.128699999999980
  0
LINE
  8
PT3-Grafika_wekt5
  6
CONTINUOUS
 62
     7
 10
177.9561
 20
194.155500000000020
 11
177.9619
 21
194.151700000000010
  0
LINE
  8
PT3-Grafika_wekt5
  6
CONTINUOUS
 62
     7
 10
168.0625
 20
200.555200000000010
 11
168.0809
 21
200.543299999999990
  0
LINE
  8
PT3-Grafika_wekt5
  6
CONTINUOUS
 62
     7
 10
173.0219
 20
197.345000000000000
 11
175.0689
 21
196.015199999999990
  0
LINE
  8
PT3-Grafika_wekt5
  6
CONTINUOUS
 62
     7
 10
173.0292
 20
197.356300000000000
 11
177.7253
 21
194.305499999999990
  0
LINE
  8
PT3-Grafika_wekt5
  6
CONTINUOUS
 62
     7
 10
177.7253
 20
194.305499999999990
 11
177.8154
 21
194.230799999999990
  0
LINE
  8
PT3-Grafika_wekt5
  6
CONTINUOUS
 62
     7
 10
177.033
 20
194.739199999999980
 11
177.5011
 21
194.435100000000010
  0
LINE
  8
PT3-Grafika_wekt5
  6
CONTINUOUS
 62
     7
 10
177.1545
 20
194.660100000000000
 11
177.1618
 21
194.671400000000010
  0
LINE
  8
PT3-Grafika_wekt5
  6
CONTINUOUS
 62
     7
 10
177.5225
 20
194.421100000000000
 11
177.5805
 21
194.383399999999990
  0
LINE
  8
PT3-Grafika_wekt5
  6
CONTINUOUS
 62
     7
 10
177.9052
 20
194.156499999999990
 11
177.9387
 21
194.128699999999980
  0
LINE
  8
PT3-Grafika_wekt5
  6
CONTINUOUS
 62
     7
 10
177.9561
 20
194.155500000000020
 11
177.9619
 21
194.151700000000010
  0
LINE
  8
PT3-Grafika_wekt5
  6
CONTINUOUS
 62
     7
 10
110.7909
 20
192.771400000000000
 11
110.7909
 21
193.371100000000010
  0
LINE
  8
PT3-Grafika_wekt5
  6
CONTINUOUS
 62
     7
 10
110.7909
 20
193.371100000000010
 11
128.7734
 21
205.053699999999990
  0
LINE
  8
PT3-Grafika_wekt5
  6
CONTINUOUS
 62
     7
 10
128.7734
 20
205.053699999999990
 11
128.7734
 21
204.454000000000010
  0
LINE
  8
PT3-Grafika_wekt5
  6
CONTINUOUS
 62
     7
 10
128.7734
 20
204.454000000000010
 11
110.7909
 21
192.771400000000000
  0
LINE
  8
PT3-Grafika_wekt5
  6
CONTINUOUS
 62
     7
 10
128.7734
 20
204.454000000000010
 11
146.756
 21
192.771400000000000
  0
LINE
  8
PT3-Grafika_wekt5
  6
CONTINUOUS
 62
     7
 10
146.756
 20
192.771400000000000
 11
146.756
 21
193.371100000000010
  0
LINE
  8
PT3-Grafika_wekt5
  6
CONTINUOUS
 62
     7
 10
146.756
 20
193.371100000000010
 11
128.7734
 21
205.053699999999990
  0
LINE
  8
PT3-Grafika_wekt5
  6
CONTINUOUS
 62
     7
 10
38.3117
 20
189.539300000000000
 11
38.3117
 21
205.704700000000000
  0
LINE
  8
PT3-Grafika_wekt5
  6
CONTINUOUS
 62
     7
 10
38.3117
 20
205.704700000000000
 11
38.3117
 21
190.387400000000010
  0
LINE
  8
PT3-Grafika_wekt5
  6
CONTINUOUS
 62
     7
 10
38.3117
 20
190.387400000000010
 11
38.3366
 21
190.387400000000010
  0
LINE
  8
PT3-Grafika_wekt5
  6
CONTINUOUS
 62
     7
 10
38.3117
 20
205.704700000000000
 11
38.3616
 21
205.704700000000000
  0
LINE
  8
PT3-Grafika_wekt5
  6
CONTINUOUS
 62
     7
 10
38.3366
 20
189.887700000000000
 11
38.3366
 21
190.487399999999980
  0
LINE
  8
PT3-Grafika_wekt5
  6
CONTINUOUS
 62
     7
 10
38.3366
 20
190.487399999999980
 11
38.3866
 21
190.487399999999980
  0
LINE
  8
PT3-Grafika_wekt5
  6
CONTINUOUS
 62
     7
 10
38.3866
 20
190.487399999999980
 11
38.3866
 21
190.063400000000000
  0
LINE
  8
PT3-Grafika_wekt5
  6
CONTINUOUS
 62
     7
 10
38.3866
 20
190.063400000000000
 11
38.3366
 21
190.063400000000000
  0
LINE
  8
PT3-Grafika_wekt5
  6
CONTINUOUS
 62
     7
 10
38.3616
 20
189.468700000000010
 11
38.3616
 21
206.204399999999990
  0
LINE
  8
PT3-Grafika_wekt5
  6
CONTINUOUS
 62
     7
 10
38.3616
 20
206.204399999999990
 11
78.6223
 21
206.204399999999990
  0
LINE
  8
PT3-Grafika_wekt5
  6
CONTINUOUS
 62
     7
 10
38.3616
 20
189.539300000000000
 11
38.3117
 21
189.539300000000000
  0
LINE
  8
PT3-Grafika_wekt5
  6
CONTINUOUS
 62
     7
 10
38.3616
 20
189.887700000000000
 11
49.3569
 21
189.887700000000000
  0
LINE
  8
PT3-Grafika_wekt5
  6
CONTINUOUS
 62
     7
 10
38.3616
 20
190.487399999999980
 11
49.3569
 21
190.487399999999980
  0
LINE
  8
PT3-Grafika_wekt5
  6
CONTINUOUS
 62
     7
 10
38.3616
 20
190.587300000000000
 11
49.3569
 21
190.587300000000000
  0
LINE
  8
PT3-Grafika_wekt5
  6
CONTINUOUS
 62
     7
 10
38.3616
 20
190.887100000000000
 11
49.3569
 21
190.887100000000000
  0
LINE
  8
PT3-Grafika_wekt5
  6
CONTINUOUS
 62
     7
 10
38.3866
 20
189.887700000000000
 11
38.3366
 21
189.887700000000000
  0
LINE
  8
PT3-Grafika_wekt5
  6
CONTINUOUS
 62
     7
 10
38.3866
 20
190.063400000000000
 11
38.3866
 21
189.887700000000000
  0
LINE
  8
PT3-Grafika_wekt5
  6
CONTINUOUS
 62
     7
 10
43.0568
 20
169.999100000000000
 11
43.2323
 21
169.575100000000020
  0
LINE
  8
PT3-Grafika_wekt5
  6
CONTINUOUS
 62
     7
 10
43.2323
 20
169.575100000000020
 11
43.6562
 21
169.399499999999990
  0
LINE
  8
PT3-Grafika_wekt5
  6
CONTINUOUS
 62
     7
 10
43.6562
 20
169.399499999999990
 11
213.8905
 21
169.399499999999990
  0
LINE
  8
PT3-Grafika_wekt5
  6
CONTINUOUS
 62
     7
 10
213.8905
 20
169.399499999999990
 11
214.3143
 21
169.575100000000020
  0
LINE
  8
PT3-Grafika_wekt5
  6
CONTINUOUS
 62
     7
 10
214.3143
 20
169.575100000000020
 11
214.4899
 21
169.999100000000000
  0
LINE
  8
PT3-Grafika_wekt5
  6
CONTINUOUS
 62
     7
 10
214.4899
 20
169.999100000000000
 11
43.0568
 21
169.999100000000000
  0
LINE
  8
PT3-Grafika_wekt5
  6
CONTINUOUS
 62
     7
 10
43.3568
 20
189.468700000000010
 11
38.3616
 21
189.468700000000010
  0
LINE
  8
PT3-Grafika_wekt5
  6
CONTINUOUS
 62
     7
 10
43.3568
 20
189.539300000000000
 11
49.3507
 21
189.539300000000000
  0
LINE
  8
PT3-Grafika_wekt5
  6
CONTINUOUS
 62
     7
 10
49.3507
 20
189.539300000000000
 11
49.3507
 21
189.887700000000000
  0
LINE
  8
PT3-Grafika_wekt5
  6
CONTINUOUS
 62
     7
 10
43.3568
 20
189.887700000000000
 11
43.3568
 21
189.468700000000010
  0
LINE
  8
PT3-Grafika_wekt5
  6
CONTINUOUS
 62
     7
 10
44.3555
 20
169.999100000000000
 11
44.3555
 21
170.398900000000000
  0
LINE
  8
PT3-Grafika_wekt5
  6
CONTINUOUS
 62
     7
 10
44.3555
 20
170.398900000000000
 11
93.3365
 21
202.220200000000010
  0
LINE
  8
PT3-Grafika_wekt5
  6
CONTINUOUS
 62
     7
 10
44.3555
 20
170.099100000000020
 11
213.1912
 21
170.099100000000020
  0
LINE
  8
PT3-Grafika_wekt5
  6
CONTINUOUS
 62
     7
 10
213.1912
 20
170.099100000000020
 11
213.1912
 21
169.999100000000000
  0
LINE
  8
PT3-Grafika_wekt5
  6
CONTINUOUS
 62
     7
 10
44.3555
 20
170.398900000000000
 11
213.1912
 21
170.398900000000000
  0
LINE
  8
PT3-Grafika_wekt5
  6
CONTINUOUS
 62
     7
 10
213.1912
 20
170.398900000000000
 11
143.3089
 21
215.799000000000010
  0
LINE
  8
PT3-Grafika_wekt5
  6
CONTINUOUS
 62
     7
 10
143.3089
 20
215.799000000000010
 11
157.8506
 21
206.351800000000000
  0
LINE
  8
PT3-Grafika_wekt5
  6
CONTINUOUS
 62
     7
 10
44.855
 20
169.399499999999990
 11
45.2032
 21
169.051199999999990
  0
LINE
  8
PT3-Grafika_wekt5
  6
CONTINUOUS
 62
     7
 10
45.2032
 20
169.051199999999990
 11
212.3435
 21
169.051199999999990
  0
LINE
  8
PT3-Grafika_wekt5
  6
CONTINUOUS
 62
     7
 10
212.3435
 20
169.051199999999990
 11
212.6917
 21
169.399499999999990
  0
LINE
  8
PT3-Grafika_wekt5
  6
CONTINUOUS
 62
     7
 10
46.3099
 20
191.723500000000000
 11
46.3099
 21
204.254200000000000
  0
LINE
  8
PT3-Grafika_wekt5
  6
CONTINUOUS
 62
     7
 10
46.3099
 20
204.254200000000000
 11
46.3099
 21
192.571500000000010
  0
LINE
  8
PT3-Grafika_wekt5
  6
CONTINUOUS
 62
     7
 10
46.3099
 20
192.571500000000010
 11
46.3349
 21
192.571500000000010
  0
LINE
  8
PT3-Grafika_wekt5
  6
CONTINUOUS
 62
     7
 10
46.3099
 20
204.254200000000000
 11
46.3599
 21
204.254200000000000
  0
LINE
  8
PT3-Grafika_wekt5
  6
CONTINUOUS
 62
     7
 10
46.3349
 20
192.371700000000000
 11
46.3349
 21
192.971299999999990
  0
LINE
  8
PT3-Grafika_wekt5
  6
CONTINUOUS
 62
     7
 10
46.3349
 20
192.971299999999990
 11
46.3849
 21
192.971299999999990
  0
LINE
  8
PT3-Grafika_wekt5
  6
CONTINUOUS
 62
     7
 10
46.3849
 20
192.971299999999990
 11
46.3849
 21
192.547300000000010
  0
LINE
  8
PT3-Grafika_wekt5
  6
CONTINUOUS
 62
     7
 10
46.3849
 20
192.547300000000010
 11
46.3349
 21
192.547300000000010
  0
LINE
  8
PT3-Grafika_wekt5
  6
CONTINUOUS
 62
     7
 10
46.3599
 20
191.652899999999990
 11
46.3599
 21
192.971299999999990
  0
LINE
  8
PT3-Grafika_wekt5
  6
CONTINUOUS
 62
     7
 10
46.3599
 20
192.971299999999990
 11
79.1001
 21
192.971299999999990
  0
LINE
  8
PT3-Grafika_wekt5
  6
CONTINUOUS
 62
     7
 10
46.3599
 20
191.723500000000000
 11
46.3099
 21
191.723500000000000
  0
LINE
  8
PT3-Grafika_wekt5
  6
CONTINUOUS
 62
     7
 10
46.3599
 20
192.371700000000000
 11
78.1772
 21
192.371700000000000
  0
LINE
  8
PT3-Grafika_wekt5
  6
CONTINUOUS
 62
     7
 10
46.3849
 20
192.371700000000000
 11
46.3349
 21
192.371700000000000
  0
LINE
  8
PT3-Grafika_wekt5
  6
CONTINUOUS
 62
     7
 10
46.3849
 20
192.547300000000010
 11
46.3849
 21
192.371700000000000
  0
LINE
  8
PT3-Grafika_wekt5
  6
CONTINUOUS
 62
     7
 10
49.3569
 20
191.652899999999990
 11
46.3599
 21
191.652899999999990
  0
LINE
  8
PT3-Grafika_wekt5
  6
CONTINUOUS
 62
     7
 10
49.3569
 20
191.723500000000000
 11
77.1795
 21
191.723500000000000
  0
LINE
  8
PT3-Grafika_wekt5
  6
CONTINUOUS
 62
     7
 10
49.3569
 20
192.371700000000000
 11
49.3569
 21
191.652899999999990
  0
LINE
  8
PT3-Grafika_wekt5
  6
CONTINUOUS
 62
     7
 10
87.6135
 20
206.204399999999990
 11
93.3365
 21
206.204399999999990
  0
LINE
  8
PT3-Grafika_wekt5
  6
CONTINUOUS
 62
     7
 10
97.1329
 20
204.686600000000000
 11
128.7733
 21
225.242300000000000
  0
LINE
  8
PT3-Grafika_wekt5
  6
CONTINUOUS
 62
     7
 10
128.7733
 20
225.242300000000000
 11
118.9844
 21
218.882900000000010
  0
LINE
  8
PT3-Grafika_wekt5
  6
CONTINUOUS
 62
     7
 10
97.1329
 20
206.204399999999990
 11
99.4691
 21
206.204399999999990
  0
LINE
  8
PT3-Grafika_wekt5
  6
CONTINUOUS
 62
     7
 10
99.4691
 20
206.204399999999990
 11
97.698
 21
205.053699999999990
  0
LINE
  8
PT3-Grafika_wekt5
  6
CONTINUOUS
 62
     7
 10
99.4691
 20
206.204399999999990
 11
114.2624
 21
215.815100000000000
  0
LINE
  8
PT3-Grafika_wekt5
  6
CONTINUOUS
 62
     7
 10
109.4922
 20
192.971299999999990
 11
109.6678
 21
192.547300000000010
  0
LINE
  8
PT3-Grafika_wekt5
  6
CONTINUOUS
 62
     7
 10
109.6678
 20
192.547300000000010
 11
110.0916
 21
192.371700000000000
  0
LINE
  8
PT3-Grafika_wekt5
  6
CONTINUOUS
 62
     7
 10
110.0916
 20
192.371700000000000
 11
110.5155
 21
192.547300000000010
  0
LINE
  8
PT3-Grafika_wekt5
  6
CONTINUOUS
 62
     7
 10
110.5155
 20
192.547300000000010
 11
110.691
 21
192.971299999999990
  0
LINE
  8
PT3-Grafika_wekt5
  6
CONTINUOUS
 62
     7
 10
110.691
 20
192.971299999999990
 11
109.4922
 21
192.971299999999990
  0
LINE
  8
PT3-Grafika_wekt5
  6
CONTINUOUS
 62
     7
 10
110.7909
 20
192.571500000000010
 11
110.7909
 21
192.771400000000000
  0
LINE
  8
PT3-Grafika_wekt5
  6
CONTINUOUS
 62
     7
 10
110.7909
 20
192.771400000000000
 11
128.7734
 21
204.454000000000010
  0
LINE
  8
PT3-Grafika_wekt5
  6
CONTINUOUS
 62
     7
 10
128.7734
 20
204.454000000000010
 11
128.7734
 21
204.254200000000000
  0
LINE
  8
PT3-Grafika_wekt5
  6
CONTINUOUS
 62
     7
 10
128.7734
 20
204.254200000000000
 11
110.7909
 21
192.571500000000010
  0
LINE
  8
PT3-Grafika_wekt5
  6
CONTINUOUS
 62
     7
 10
110.7909
 20
192.571500000000010
 11
110.8616
 21
192.642200000000000
  0
LINE
  8
PT3-Grafika_wekt5
  6
CONTINUOUS
 62
     7
 10
110.8616
 20
192.642200000000000
 11
110.8766
 21
192.627200000000020
  0
LINE
  8
PT3-Grafika_wekt5
  6
CONTINUOUS
 62
     7
 10
111.6387
 20
191.723500000000000
 11
110.7909
 21
192.571500000000010
  0
LINE
  8
PT3-Grafika_wekt5
  6
CONTINUOUS
 62
     7
 10
111.6387
 20
191.723500000000000
 11
128.7734
 21
202.855400000000000
  0
LINE
  8
PT3-Grafika_wekt5
  6
CONTINUOUS
 62
     7
 10
128.7734
 20
202.855400000000000
 11
128.7734
 21
204.254200000000000
  0
LINE
  8
PT3-Grafika_wekt5
  6
CONTINUOUS
 62
     7
 10
128.7734
 20
204.254200000000000
 11
146.756
 21
192.571500000000010
  0
LINE
  8
PT3-Grafika_wekt5
  6
CONTINUOUS
 62
     7
 10
146.756
 20
192.571500000000010
 11
145.9083
 21
191.723500000000000
  0
LINE
  8
PT3-Grafika_wekt5
  6
CONTINUOUS
 62
     7
 10
145.9083
 20
191.723500000000000
 11
128.7734
 21
202.855400000000000
  0
LINE
  8
PT3-Grafika_wekt5
  6
CONTINUOUS
 62
     7
 10
112.3613
 20
192.192900000000010
 11
113.788
 21
192.922599999999990
  0
LINE
  8
PT3-Grafika_wekt5
  6
CONTINUOUS
 62
     7
 10
113.788
 20
192.922599999999990
 11
113.788
 21
192.822599999999990
  0
LINE
  8
PT3-Grafika_wekt5
  6
CONTINUOUS
 62
     7
 10
113.788
 20
192.822599999999990
 11
111.6387
 21
191.723500000000000
  0
LINE
  8
PT3-Grafika_wekt5
  6
CONTINUOUS
 62
     7
 10
113.788
 20
173.644099999999980
 11
143.7589
 21
173.644099999999980
  0
LINE
  8
PT3-Grafika_wekt5
  6
CONTINUOUS
 62
     7
 10
128.7733
 20
225.242300000000000
 11
137.4149
 21
230.856499999999980
  0
LINE
  8
PT3-Grafika_wekt5
  6
CONTINUOUS
 62
     7
 10
137.4149
 20
230.856499999999980
 11
156.1966
 21
230.856499999999980
  0
LINE
  8
PT3-Grafika_wekt5
  6
CONTINUOUS
 62
     7
 10
156.1966
 20
230.856499999999980
 11
189.714
 21
209.081400000000000
  0
LINE
  8
PT3-Grafika_wekt5
  6
CONTINUOUS
 62
     7
 10
189.714
 20
209.081400000000000
 11
290.2188
 21
209.081400000000000
  0
LINE
  8
PT3-Grafika_wekt5
  6
CONTINUOUS
 62
     7
 10
128.7734
 20
204.454000000000010
 11
146.756
 21
192.771400000000000
  0
LINE
  8
PT3-Grafika_wekt5
  6
CONTINUOUS
 62
     7
 10
146.756
 20
192.771400000000000
 11
146.756
 21
192.571500000000010
  0
LINE
  8
PT3-Grafika_wekt5
  6
CONTINUOUS
 62
     7
 10
146.756
 20
192.571500000000010
 11
146.8267
 21
192.500900000000000
  0
LINE
  8
PT3-Grafika_wekt5
  6
CONTINUOUS
 62
     7
 10
146.8267
 20
192.500900000000000
 11
145.9789
 21
191.652899999999990
  0
LINE
  8
PT3-Grafika_wekt5
  6
CONTINUOUS
 62
     7
 10
145.9789
 20
191.652899999999990
 11
145.9083
 21
191.723500000000000
  0
LINE
  8
PT3-Grafika_wekt5
  6
CONTINUOUS
 62
     7
 10
145.9083
 20
191.723500000000000
 11
143.7589
 21
192.822599999999990
  0
LINE
  8
PT3-Grafika_wekt5
  6
CONTINUOUS
 62
     7
 10
143.7589
 20
192.822599999999990
 11
143.7589
 21
192.922599999999990
  0
LINE
  8
PT3-Grafika_wekt5
  6
CONTINUOUS
 62
     7
 10
143.7589
 20
192.922599999999990
 11
145.1857
 21
192.192900000000010
  0
LINE
  8
PT3-Grafika_wekt5
  6
CONTINUOUS
 62
     7
 10
139.5126
 20
218.265400000000000
 11
128.7733
 21
225.242300000000000
  0
LINE
  8
PT3-Grafika_wekt5
  6
CONTINUOUS
 62
     7
 10
143.3089
 20
215.799000000000010
 11
167.6983
 21
199.954099999999980
  0
LINE
  8
PT3-Grafika_wekt5
  6
CONTINUOUS
 62
     7
 10
146.8559
 20
192.971299999999990
 11
147.0314
 21
192.547300000000010
  0
LINE
  8
PT3-Grafika_wekt5
  6
CONTINUOUS
 62
     7
 10
147.0314
 20
192.547300000000010
 11
147.4553
 21
192.371700000000000
  0
LINE
  8
PT3-Grafika_wekt5
  6
CONTINUOUS
 62
     7
 10
147.4553
 20
192.371700000000000
 11
147.8791
 21
192.547300000000010
  0
LINE
  8
PT3-Grafika_wekt5
  6
CONTINUOUS
 62
     7
 10
147.8791
 20
192.547300000000010
 11
148.0547
 21
192.971299999999990
  0
LINE
  8
PT3-Grafika_wekt5
  6
CONTINUOUS
 62
     7
 10
148.0547
 20
192.971299999999990
 11
146.8559
 21
192.971299999999990
  0
LINE
  8
PT3-Grafika_wekt5
  6
CONTINUOUS
 62
     7
 10
167.7619
 20
199.912800000000000
 11
143.3089
 21
215.799000000000010
  0
LINE
  8
PT3-Grafika_wekt5
  6
CONTINUOUS
 62
     7
 10
177.8498
 20
193.358999999999980
 11
178.4465
 21
192.971299999999990
  0
LINE
  8
PT3-Grafika_wekt5
  6
CONTINUOUS
 62
     7
 10
178.4465
 20
192.971299999999990
 11
211.1931
 21
192.971299999999990
  0
LINE
  8
PT3-Grafika_wekt5
  6
CONTINUOUS
 62
     7
 10
211.1931
 20
192.971299999999990
 11
211.1931
 21
192.371700000000000
  0
LINE
  8
PT3-Grafika_wekt5
  6
CONTINUOUS
 62
     7
 10
211.1931
 20
192.371700000000000
 11
181.2038
 21
192.371700000000000
  0
LINE
  8
PT3-Grafika_wekt5
  6
CONTINUOUS
 62
     7
 10
178.5988
 20
192.872400000000000
 11
180.0053
 21
191.958699999999990
  0
LINE
  8
PT3-Grafika_wekt5
  6
CONTINUOUS
 62
     7
 10
180.0053
 20
191.958699999999990
 11
179.4069
 21
192.347500000000000
  0
LINE
  8
PT3-Grafika_wekt5
  6
CONTINUOUS
 62
     7
 10
179.3695
 20
192.371700000000000
 11
180.2735
 21
192.371700000000000
  0
LINE
  8
PT3-Grafika_wekt5
  6
CONTINUOUS
 62
     7
 10
179.4238
 20
192.336500000000000
 11
180.0053
 21
191.958699999999990
  0
LINE
  8
PT3-Grafika_wekt5
  6
CONTINUOUS
 62
     7
 10
180.0687
 20
191.917399999999990
 11
189.7922
 21
185.600500000000010
  0
LINE
  8
PT3-Grafika_wekt5
  6
CONTINUOUS
 62
     7
 10
181.8723
 20
191.723500000000000
 11
208.196
 21
191.723500000000000
  0
LINE
  8
PT3-Grafika_wekt5
  6
CONTINUOUS
 62
     7
 10
208.196
 20
191.723500000000000
 11
208.196
 21
192.371700000000000
  0
LINE
  8
PT3-Grafika_wekt5
  6
CONTINUOUS
 62
     7
 10
189.7919
 20
185.600700000000020
 11
189.8138
 21
185.586400000000000
  0
LINE
  8
PT3-Grafika_wekt5
  6
CONTINUOUS
 62
     7
 10
189.8301
 20
185.575800000000020
 11
196.9854
 21
180.927300000000000
  0
LINE
  8
PT3-Grafika_wekt5
  6
CONTINUOUS
 62
     7
 10
196.9854
 20
180.927300000000000
 11
189.8334
 21
185.573700000000000
  0
LINE
  8
PT3-Grafika_wekt5
  6
CONTINUOUS
 62
     7
 10
189.8334
 20
185.573700000000000
 11
189.8316
 21
185.574799999999980
  0
LINE
  8
PT3-Grafika_wekt5
  6
CONTINUOUS
 62
     7
 10
189.8334
 20
185.573700000000000
 11
197.5069
 21
180.588500000000010
  0
LINE
  8
PT3-Grafika_wekt5
  6
CONTINUOUS
 62
     7
 10
208.196
 20
173.644099999999980
 11
213.1912
 21
170.398900000000000
  0
LINE
  8
PT3-Grafika_wekt5
  6
CONTINUOUS
 62
     7
 10
213.1912
 20
170.398900000000000
 11
167.7619
 21
199.912800000000000
  0
LINE
  8
PT3-Grafika_wekt5
  6
CONTINUOUS
 62
     7
 10
208.196
 20
191.652899999999990
 11
211.1931
 21
191.652899999999990
  0
LINE
  8
PT3-Grafika_wekt5
  6
CONTINUOUS
 62
     7
 10
211.1931
 20
191.652899999999990
 11
211.1931
 21
191.723500000000000
  0
LINE
  8
PT3-Grafika_wekt5
  6
CONTINUOUS
 62
     7
 10
211.1931
 20
191.723500000000000
 11
208.196
 21
191.723500000000000
  0
LINE
  8
PT3-Grafika_wekt5
  6
CONTINUOUS
 62
     7
 10
211.1431
 20
191.723500000000000
 11
211.1431
 21
192.371700000000000
  0
LINE
  8
PT3-Grafika_wekt5
  6
CONTINUOUS
 62
     7
 10
211.1681
 20
192.371700000000000
 11
211.1681
 21
192.971299999999990
  0
LINE
  8
PT3-Grafika_wekt5
  6
CONTINUOUS
 62
     7
 10
211.1681
 20
192.971299999999990
 11
211.2181
 21
192.971299999999990
  0
LINE
  8
PT3-Grafika_wekt5
  6
CONTINUOUS
 62
     7
 10
211.2181
 20
192.971299999999990
 11
211.2181
 21
192.547300000000010
  0
LINE
  8
PT3-Grafika_wekt5
  6
CONTINUOUS
 62
     7
 10
211.2181
 20
192.547300000000010
 11
211.1681
 21
192.547300000000010
  0
LINE
  8
PT3-Grafika_wekt5
  6
CONTINUOUS
 62
     7
 10
211.1931
 20
191.723500000000000
 11
211.1931
 21
192.371700000000000
  0
LINE
  8
PT3-Grafika_wekt5
  6
CONTINUOUS
 62
     7
 10
211.1931
 20
205.552300000000000
 11
211.2431
 21
205.552300000000000
  0
LINE
  8
PT3-Grafika_wekt5
  6
CONTINUOUS
 62
     7
 10
211.2431
 20
205.552300000000000
 11
211.2431
 21
192.571500000000010
  0
LINE
  8
PT3-Grafika_wekt5
  6
CONTINUOUS
 62
     7
 10
211.2431
 20
192.571500000000010
 11
211.2181
 21
192.571500000000010
  0
LINE
  8
PT3-Grafika_wekt5
  6
CONTINUOUS
 62
     7
 10
211.2181
 20
192.371700000000000
 11
211.1681
 21
192.371700000000000
  0
LINE
  8
PT3-Grafika_wekt5
  6
CONTINUOUS
 62
     7
 10
211.2181
 20
192.547300000000010
 11
211.2181
 21
192.371700000000000
  0
LINE
  8
PT3-Grafika_wekt5
  6
CONTINUOUS
 62
     7
 10
211.2431
 20
191.723500000000000
 11
211.1431
 21
191.723500000000000
  0
LINE
  8
PT3-Grafika_wekt5
  6
CONTINUOUS
 62
     7
 10
211.2431
 20
192.571500000000010
 11
211.2431
 21
191.723500000000000
  0
LINE
  8
PT3-Grafika_wekt5
  6
CONTINUOUS
 62
     7
 10
212.3435
 20
169.051199999999990
 11
277.5139
 21
169.051199999999990
  0
LINE
  8
PT3-Grafika_wekt5
  6
CONTINUOUS
 62
     7
 10
213.1912
 20
170.099100000000020
 11
213.1912
 21
170.398900000000000
  0
LINE
  8
PT3-Grafika_wekt5
  6
CONTINUOUS
 62
     7
 10
213.1912
 20
170.398900000000000
 11
189.7919
 21
185.600700000000020
  0
LINE
  8
PT3-Grafika_wekt5
  6
CONTINUOUS
 62
     7
 10
213.1912
 20
170.398900000000000
 11
277.479
 21
170.398900000000000
  0
LINE
  8
PT3-Grafika_wekt5
  6
CONTINUOUS
 62
     7
 10
213.8905
 20
169.399499999999990
 11
277.5049
 21
169.399499999999990
  0
LINE
  8
PT3-Grafika_wekt5
  6
CONTINUOUS
 62
     7
 10
277.4894
 20
169.999100000000000
 11
214.4899
 21
169.999100000000000
  0
LINE
  8
PT3-Grafika_wekt5
  6
CONTINUOUS
 62
     7
 10
277.4868
 20
170.099100000000020
 11
213.1912
 21
170.099100000000020
  0
LINE
  8
PT3-Grafika_wekt5
  6
CONTINUOUS
 62
     7
 10
118.9844
 20
219.356200000000000
 11
118.9846
 21
219.356200000000000
  0
LINE
  8
PT3-Grafika_wekt5
  6
CONTINUOUS
 62
     7
 10
118.9846
 20
219.356200000000000
 11
118.9846
 21
218.882900000000010
  0
LINE
  8
PT3-Grafika_wekt5
  6
CONTINUOUS
 62
     7
 10
111.8925
 20
191.853299999999990
 11
112.2535
 21
191.853299999999990
  0
LINE
  8
PT3-Grafika_wekt5
  6
CONTINUOUS
 62
     7
 10
112.2535
 20
191.853299999999990
 11
113.5876
 21
192.720100000000000
  0
LINE
  8
PT3-Grafika_wekt5
  6
CONTINUOUS
 62
     7
 10
143.9593
 20
192.720100000000000
 11
145.2935
 21
191.853299999999990
  0
LINE
  8
PT3-Grafika_wekt5
  6
CONTINUOUS
 62
     7
 10
145.2935
 20
191.853299999999990
 11
145.6544
 21
191.853299999999990
  0
LINE
  8
PT3-Grafika_wekt5
  6
CONTINUOUS
 62
     7
 10
93.3365
 20
193.900800000000000
 11
93.3365
 21
209.361899999999990
  0
LINE
  8
PT3-Grafika_wekt5
  6
CONTINUOUS
 62
     7
 10
93.3365
 20
209.361899999999990
 11
97.1329
 21
209.361899999999990
  0
LINE
  8
PT3-Grafika_wekt5
  6
CONTINUOUS
 62
     7
 10
97.1329
 20
209.361899999999990
 11
97.1329
 21
193.900800000000000
  0
LINE
  8
PT3-Grafika_wekt5
  6
CONTINUOUS
 62
     7
 10
120.4815
 20
108.619800000000000
 11
120.4815
 21
108.919700000000010
  0
LINE
  8
PT3-Grafika_wekt5
  6
CONTINUOUS
 62
     7
 10
120.4815
 20
108.919700000000010
 11
137.0654
 21
108.919700000000010
  0
LINE
  8
PT3-Grafika_wekt5
  6
CONTINUOUS
 62
     7
 10
137.0654
 20
108.919700000000010
 11
137.0654
 21
108.619800000000000
  0
LINE
  8
PT3-Grafika_wekt5
  6
CONTINUOUS
 62
     7
 10
137.0654
 20
108.619800000000000
 11
120.4815
 21
108.619800000000000
  0
LINE
  8
PT3-Grafika_wekt5
  6
CONTINUOUS
 62
     7
 10
120.4815
 20
109.419400000000000
 11
120.6814
 21
109.619300000000010
  0
LINE
  8
PT3-Grafika_wekt5
  6
CONTINUOUS
 62
     7
 10
120.6814
 20
109.619300000000010
 11
120.6814
 21
127.908800000000010
  0
LINE
  8
PT3-Grafika_wekt5
  6
CONTINUOUS
 62
     7
 10
120.6814
 20
127.908800000000010
 11
120.4815
 21
128.108700000000000
  0
LINE
  8
PT3-Grafika_wekt5
  6
CONTINUOUS
 62
     7
 10
120.6814
 20
109.619300000000010
 11
136.8656
 21
109.619300000000010
  0
LINE
  8
PT3-Grafika_wekt5
  6
CONTINUOUS
 62
     7
 10
136.8656
 20
109.619300000000010
 11
136.8656
 21
120.912800000000000
  0
LINE
  8
PT3-Grafika_wekt5
  6
CONTINUOUS
 62
     7
 10
136.8656
 20
120.912800000000000
 11
120.6814
 21
120.912800000000000
  0
LINE
  8
PT3-Grafika_wekt5
  6
CONTINUOUS
 62
     7
 10
120.6814
 20
121.612400000000010
 11
136.8656
 21
121.612400000000010
  0
LINE
  8
PT3-Grafika_wekt5
  6
CONTINUOUS
 62
     7
 10
136.8656
 20
121.612400000000010
 11
136.8656
 21
127.908800000000010
  0
LINE
  8
PT3-Grafika_wekt5
  6
CONTINUOUS
 62
     7
 10
136.8656
 20
127.908800000000010
 11
120.6814
 21
127.908800000000010
  0
LINE
  8
PT3-Grafika_wekt5
  6
CONTINUOUS
 62
     7
 10
128.3738
 20
109.619300000000010
 11
128.3738
 21
120.912800000000000
  0
LINE
  8
PT3-Grafika_wekt5
  6
CONTINUOUS
 62
     7
 10
129.1731
 20
109.619300000000010
 11
129.1731
 21
120.912800000000000
  0
LINE
  8
PT3-Grafika_wekt5
  6
CONTINUOUS
 62
     7
 10
136.8656
 20
109.619300000000010
 11
136.8656
 21
127.908800000000010
  0
LINE
  8
PT3-Grafika_wekt5
  6
CONTINUOUS
 62
     7
 10
136.8656
 20
127.908800000000010
 11
137.0654
 21
128.108700000000000
  0
LINE
  8
PT3-Grafika_wekt5
  6
CONTINUOUS
 62
     7
 10
137.0654
 20
109.419400000000000
 11
136.8656
 21
109.619300000000010
  0
LINE
  8
PT3-Grafika_wekt5
  6
CONTINUOUS
 62
     7
 10
208.196
 20
108.619800000000000
 11
208.6955
 21
108.619800000000000
  0
LINE
  8
PT3-Grafika_wekt5
  6
CONTINUOUS
 62
     7
 10
208.6955
 20
108.619800000000000
 11
208.6955
 21
108.919700000000010
  0
LINE
  8
PT3-Grafika_wekt5
  6
CONTINUOUS
 62
     7
 10
208.6955
 20
108.919700000000010
 11
208.196
 21
108.919700000000010
  0
LINE
  8
PT3-Grafika_wekt5
  6
CONTINUOUS
 62
     7
 10
42.8076
 20
107.845900000000000
 11
42.8076
 21
108.054800000000000
  0
LINE
  8
PT3-Grafika_wekt5
  6
CONTINUOUS
 62
     7
 10
42.8076
 20
108.054800000000000
 11
42.8201
 21
108.089599999999990
  0
LINE
  8
PT3-Grafika_wekt5
  6
CONTINUOUS
 62
     7
 10
42.8201
 20
108.089599999999990
 11
42.8201
 21
107.811000000000010
  0
LINE
  8
PT3-Grafika_wekt5
  6
CONTINUOUS
 62
     7
 10
42.8201
 20
107.811000000000010
 11
42.8076
 21
107.845900000000000
  0
LINE
  8
PT3-Grafika_wekt5
  6
CONTINUOUS
 62
     7
 10
42.8198
 20
107.846200000000010
 11
42.9156
 21
107.846200000000010
  0
LINE
  8
PT3-Grafika_wekt5
  6
CONTINUOUS
 62
     7
 10
42.9156
 20
107.846200000000010
 11
42.9075
 21
107.846200000000010
  0
LINE
  8
PT3-Grafika_wekt5
  6
CONTINUOUS
 62
     7
 10
42.8201
 20
107.811000000000010
 11
42.895
 21
107.811000000000010
  0
LINE
  8
PT3-Grafika_wekt5
  6
CONTINUOUS
 62
     7
 10
42.895
 20
107.811000000000010
 11
42.895
 21
107.845900000000000
  0
LINE
  8
PT3-Grafika_wekt5
  6
CONTINUOUS
 62
     7
 10
42.895
 20
107.845900000000000
 11
42.8201
 21
107.845900000000000
  0
LINE
  8
PT3-Grafika_wekt5
  6
CONTINUOUS
 62
     7
 10
42.8201
 20
108.054800000000000
 11
42.895
 21
108.054800000000000
  0
LINE
  8
PT3-Grafika_wekt5
  6
CONTINUOUS
 62
     7
 10
42.895
 20
108.054800000000000
 11
42.895
 21
107.845900000000000
  0
LINE
  8
PT3-Grafika_wekt5
  6
CONTINUOUS
 62
     7
 10
42.8201
 20
108.089599999999990
 11
42.895
 21
108.089599999999990
  0
LINE
  8
PT3-Grafika_wekt5
  6
CONTINUOUS
 62
     7
 10
42.895
 20
108.089599999999990
 11
42.895
 21
108.054800000000000
  0
LINE
  8
PT3-Grafika_wekt5
  6
CONTINUOUS
 62
     7
 10
42.895
 20
107.811000000000010
 11
42.9075
 21
107.845900000000000
  0
LINE
  8
PT3-Grafika_wekt5
  6
CONTINUOUS
 62
     7
 10
42.9075
 20
107.845900000000000
 11
42.9075
 21
108.054800000000000
  0
LINE
  8
PT3-Grafika_wekt5
  6
CONTINUOUS
 62
     7
 10
42.9075
 20
108.054800000000000
 11
42.895
 21
108.089599999999990
  0
LINE
  8
PT3-Grafika_wekt5
  6
CONTINUOUS
 62
     7
 10
42.9075
 20
108.054399999999990
 11
43.1073
 21
108.054399999999990
  0
LINE
  8
PT3-Grafika_wekt5
  6
CONTINUOUS
 62
     7
 10
43.1073
 20
108.054399999999990
 11
43.1073
 21
107.846200000000010
  0
LINE
  8
PT3-Grafika_wekt5
  6
CONTINUOUS
 62
     7
 10
43.1073
 20
107.846200000000010
 11
42.9156
 21
107.846200000000010
  0
LINE
  8
PT3-Grafika_wekt5
  6
CONTINUOUS
 62
     7
 10
43.1073
 20
107.764600000000000
 11
43.1073
 21
107.846200000000010
  0
LINE
  8
PT3-Grafika_wekt5
  6
CONTINUOUS
 62
     7
 10
43.1073
 20
108.054399999999990
 11
43.1073
 21
108.136100000000000
  0
LINE
  8
PT3-Grafika_wekt5
  6
CONTINUOUS
 62
     7
 10
43.1073
 20
108.136100000000000
 11
43.1273
 21
108.136100000000000
  0
LINE
  8
PT3-Grafika_wekt5
  6
CONTINUOUS
 62
     7
 10
43.1273
 20
108.136100000000000
 11
43.1273
 21
107.764600000000000
  0
LINE
  8
PT3-Grafika_wekt5
  6
CONTINUOUS
 62
     7
 10
43.1273
 20
107.764600000000000
 11
43.1073
 21
107.764600000000000
  0
LINE
  8
PT3-Grafika_wekt5
  6
CONTINUOUS
 62
     7
 10
43.1098
 20
106.632100000000010
 11
43.1098
 21
106.837500000000010
  0
LINE
  8
PT3-Grafika_wekt5
  6
CONTINUOUS
 62
     7
 10
43.1098
 20
106.837500000000010
 11
43.1098
 21
106.822599999999990
  0
LINE
  8
PT3-Grafika_wekt5
  6
CONTINUOUS
 62
     7
 10
43.1098
 20
106.822599999999990
 11
43.1273
 21
106.822599999999990
  0
LINE
  8
PT3-Grafika_wekt5
  6
CONTINUOUS
 62
     7
 10
43.1273
 20
106.822599999999990
 11
43.1273
 21
106.632100000000010
  0
LINE
  8
PT3-Grafika_wekt5
  6
CONTINUOUS
 62
     7
 10
43.1273
 20
106.632100000000010
 11
43.1098
 21
106.632100000000010
  0
LINE
  8
PT3-Grafika_wekt5
  6
CONTINUOUS
 62
     7
 10
43.1098
 20
106.837500000000010
 11
43.1098
 21
107.046400000000010
  0
LINE
  8
PT3-Grafika_wekt5
  6
CONTINUOUS
 62
     7
 10
43.1098
 20
107.046400000000010
 11
43.1273
 21
107.046400000000010
  0
LINE
  8
PT3-Grafika_wekt5
  6
CONTINUOUS
 62
     7
 10
43.1273
 20
107.046400000000010
 11
43.1273
 21
106.822599999999990
  0
LINE
  8
PT3-Grafika_wekt5
  6
CONTINUOUS
 62
     7
 10
43.1098
 20
106.865500000000000
 11
43.1273
 21
106.865500000000000
  0
LINE
  8
PT3-Grafika_wekt5
  6
CONTINUOUS
 62
     7
 10
43.1273
 20
106.865500000000000
 11
43.1273
 21
106.563099999999990
  0
LINE
  8
PT3-Grafika_wekt5
  6
CONTINUOUS
 62
     7
 10
43.1273
 20
106.563099999999990
 11
43.1573
 21
106.563099999999990
  0
LINE
  8
PT3-Grafika_wekt5
  6
CONTINUOUS
 62
     7
 10
43.1573
 20
106.563099999999990
 11
43.1573
 21
107.120200000000010
  0
LINE
  8
PT3-Grafika_wekt5
  6
CONTINUOUS
 62
     7
 10
43.1573
 20
107.120200000000010
 11
43.1273
 21
107.120200000000010
  0
LINE
  8
PT3-Grafika_wekt5
  6
CONTINUOUS
 62
     7
 10
43.1273
 20
107.120200000000010
 11
43.1273
 21
107.046400000000010
  0
LINE
  8
PT3-Grafika_wekt5
  6
CONTINUOUS
 62
     7
 10
43.1273
 20
106.837500000000010
 11
43.1273
 21
106.878600000000010
  0
LINE
  8
PT3-Grafika_wekt5
  6
CONTINUOUS
 62
     7
 10
43.1273
 20
107.671699999999990
 11
43.1273
 21
107.764600000000000
  0
LINE
  8
PT3-Grafika_wekt5
  6
CONTINUOUS
 62
     7
 10
43.1273
 20
108.136100000000000
 11
43.1273
 21
108.228900000000010
  0
LINE
  8
PT3-Grafika_wekt5
  6
CONTINUOUS
 62
     7
 10
43.1273
 20
108.228900000000010
 11
43.1573
 21
108.228900000000010
  0
LINE
  8
PT3-Grafika_wekt5
  6
CONTINUOUS
 62
     7
 10
43.1573
 20
108.228900000000010
 11
43.1573
 21
107.671699999999990
  0
LINE
  8
PT3-Grafika_wekt5
  6
CONTINUOUS
 62
     7
 10
43.1573
 20
107.671699999999990
 11
43.1273
 21
107.671699999999990
  0
LINE
  8
PT3-Grafika_wekt5
  6
CONTINUOUS
 62
     7
 10
43.1577
 20
98.625599999999991
 11
43.1577
 21
100.436500000000000
  0
LINE
  8
PT3-Grafika_wekt5
  6
CONTINUOUS
 62
     7
 10
43.1577
 20
98.625599999999991
 11
43.1577
 21
119.056299999999990
  0
LINE
  8
PT3-Grafika_wekt5
  6
CONTINUOUS
 62
     7
 10
43.1577
 20
119.056299999999990
 11
43.1577
 21
98.625599999999991
  0
LINE
  8
PT3-Grafika_wekt5
  6
CONTINUOUS
 62
     7
 10
43.1577
 20
100.482900000000000
 11
43.1577
 21
118.359800000000010
  0
LINE
  8
PT3-Grafika_wekt5
  6
CONTINUOUS
 62
     7
 10
43.1577
 20
118.359800000000010
 11
43.1577
 21
100.482900000000000
  0
LINE
  8
PT3-Grafika_wekt5
  6
CONTINUOUS
 62
     7
 10
43.1577
 20
119.056299999999990
 11
43.3565
 21
119.056299999999990
  0
LINE
  8
PT3-Grafika_wekt5
  6
CONTINUOUS
 62
     7
 10
43.1778
 20
101.016899999999990
 11
43.1778
 21
101.945600000000010
  0
LINE
  8
PT3-Grafika_wekt5
  6
CONTINUOUS
 62
     7
 10
43.1778
 20
101.945600000000010
 11
43.2012
 21
101.945600000000010
  0
LINE
  8
PT3-Grafika_wekt5
  6
CONTINUOUS
 62
     7
 10
43.2012
 20
101.945600000000010
 11
43.2012
 21
101.016899999999990
  0
LINE
  8
PT3-Grafika_wekt5
  6
CONTINUOUS
 62
     7
 10
43.2012
 20
101.016899999999990
 11
43.1778
 21
101.016899999999990
  0
LINE
  8
PT3-Grafika_wekt5
  6
CONTINUOUS
 62
     7
 10
43.1778
 20
108.283800000000010
 11
43.1778
 21
109.212400000000000
  0
LINE
  8
PT3-Grafika_wekt5
  6
CONTINUOUS
 62
     7
 10
43.1778
 20
109.212400000000000
 11
43.2012
 21
109.212400000000000
  0
LINE
  8
PT3-Grafika_wekt5
  6
CONTINUOUS
 62
     7
 10
43.2012
 20
109.212400000000000
 11
43.2012
 21
108.283800000000010
  0
LINE
  8
PT3-Grafika_wekt5
  6
CONTINUOUS
 62
     7
 10
43.2012
 20
108.283800000000010
 11
43.1778
 21
108.283800000000010
  0
LINE
  8
PT3-Grafika_wekt5
  6
CONTINUOUS
 62
     7
 10
43.1778
 20
115.550600000000000
 11
43.1778
 21
116.479299999999990
  0
LINE
  8
PT3-Grafika_wekt5
  6
CONTINUOUS
 62
     7
 10
43.1778
 20
116.479299999999990
 11
43.2012
 21
116.479299999999990
  0
LINE
  8
PT3-Grafika_wekt5
  6
CONTINUOUS
 62
     7
 10
43.2012
 20
116.479299999999990
 11
43.2012
 21
115.550600000000000
  0
LINE
  8
PT3-Grafika_wekt5
  6
CONTINUOUS
 62
     7
 10
43.2012
 20
115.550600000000000
 11
43.1778
 21
115.550600000000000
  0
LINE
  8
PT3-Grafika_wekt5
  6
CONTINUOUS
 62
     7
 10
43.2012
 20
101.016899999999990
 11
43.3142
 21
101.016899999999990
  0
LINE
  8
PT3-Grafika_wekt5
  6
CONTINUOUS
 62
     7
 10
43.3142
 20
101.016899999999990
 11
43.3142
 21
101.945600000000010
  0
LINE
  8
PT3-Grafika_wekt5
  6
CONTINUOUS
 62
     7
 10
43.3142
 20
101.945600000000010
 11
43.2012
 21
101.945600000000010
  0
LINE
  8
PT3-Grafika_wekt5
  6
CONTINUOUS
 62
     7
 10
43.2012
 20
108.283800000000010
 11
43.3142
 21
108.283800000000010
  0
LINE
  8
PT3-Grafika_wekt5
  6
CONTINUOUS
 62
     7
 10
43.3142
 20
108.283800000000010
 11
43.3142
 21
109.212400000000000
  0
LINE
  8
PT3-Grafika_wekt5
  6
CONTINUOUS
 62
     7
 10
43.3142
 20
109.212400000000000
 11
43.2012
 21
109.212400000000000
  0
LINE
  8
PT3-Grafika_wekt5
  6
CONTINUOUS
 62
     7
 10
43.2012
 20
115.550600000000000
 11
43.3142
 21
115.550600000000000
  0
LINE
  8
PT3-Grafika_wekt5
  6
CONTINUOUS
 62
     7
 10
43.3142
 20
115.550600000000000
 11
43.3142
 21
116.479299999999990
  0
LINE
  8
PT3-Grafika_wekt5
  6
CONTINUOUS
 62
     7
 10
43.3142
 20
116.479299999999990
 11
43.2012
 21
116.479299999999990
  0
LINE
  8
PT3-Grafika_wekt5
  6
CONTINUOUS
 62
     7
 10
43.2293
 20
101.016500000000010
 11
43.2293
 21
101.016899999999990
  0
LINE
  8
PT3-Grafika_wekt5
  6
CONTINUOUS
 62
     7
 10
43.2293
 20
108.283400000000000
 11
43.2293
 21
108.283800000000010
  0
LINE
  8
PT3-Grafika_wekt5
  6
CONTINUOUS
 62
     7
 10
43.2293
 20
115.550099999999990
 11
43.2293
 21
115.550600000000000
  0
LINE
  8
PT3-Grafika_wekt5
  6
CONTINUOUS
 62
     7
 10
43.2893
 20
101.016500000000010
 11
43.2293
 21
101.016500000000010
  0
LINE
  8
PT3-Grafika_wekt5
  6
CONTINUOUS
 62
     7
 10
43.2893
 20
101.016899999999990
 11
43.2893
 21
101.016500000000010
  0
LINE
  8
PT3-Grafika_wekt5
  6
CONTINUOUS
 62
     7
 10
43.2893
 20
108.283400000000000
 11
43.2293
 21
108.283400000000000
  0
LINE
  8
PT3-Grafika_wekt5
  6
CONTINUOUS
 62
     7
 10
43.2893
 20
108.283800000000010
 11
43.2893
 21
108.283400000000000
  0
LINE
  8
PT3-Grafika_wekt5
  6
CONTINUOUS
 62
     7
 10
43.2893
 20
115.550099999999990
 11
43.2293
 21
115.550099999999990
  0
LINE
  8
PT3-Grafika_wekt5
  6
CONTINUOUS
 62
     7
 10
43.2893
 20
115.550600000000000
 11
43.2893
 21
115.550099999999990
  0
LINE
  8
PT3-Grafika_wekt5
  6
CONTINUOUS
 62
     7
 10
43.3142
 20
101.016899999999990
 11
43.3377
 21
101.016899999999990
  0
LINE
  8
PT3-Grafika_wekt5
  6
CONTINUOUS
 62
     7
 10
43.3377
 20
101.016899999999990
 11
43.3377
 21
101.945600000000010
  0
LINE
  8
PT3-Grafika_wekt5
  6
CONTINUOUS
 62
     7
 10
43.3377
 20
101.945600000000010
 11
43.3142
 21
101.945600000000010
  0
LINE
  8
PT3-Grafika_wekt5
  6
CONTINUOUS
 62
     7
 10
43.3142
 20
108.283800000000010
 11
43.3377
 21
108.283800000000010
  0
LINE
  8
PT3-Grafika_wekt5
  6
CONTINUOUS
 62
     7
 10
43.3377
 20
108.283800000000010
 11
43.3377
 21
109.212400000000000
  0
LINE
  8
PT3-Grafika_wekt5
  6
CONTINUOUS
 62
     7
 10
43.3377
 20
109.212400000000000
 11
43.3142
 21
109.212400000000000
  0
LINE
  8
PT3-Grafika_wekt5
  6
CONTINUOUS
 62
     7
 10
43.3142
 20
115.550600000000000
 11
43.3377
 21
115.550600000000000
  0
LINE
  8
PT3-Grafika_wekt5
  6
CONTINUOUS
 62
     7
 10
43.3377
 20
115.550600000000000
 11
43.3377
 21
116.479299999999990
  0
LINE
  8
PT3-Grafika_wekt5
  6
CONTINUOUS
 62
     7
 10
43.3377
 20
116.479299999999990
 11
43.3142
 21
116.479299999999990
  0
LINE
  8
PT3-Grafika_wekt5
  6
CONTINUOUS
 62
     7
 10
48.8583
 20
108.619800000000000
 11
48.8583
 21
108.919700000000010
  0
LINE
  8
PT3-Grafika_wekt5
  6
CONTINUOUS
 62
     7
 10
48.8583
 20
108.919700000000010
 11
48.8604
 21
108.919700000000010
  0
LINE
  8
PT3-Grafika_wekt5
  6
CONTINUOUS
 62
     7
 10
48.8604
 20
108.919700000000010
 11
48.8604
 21
108.619800000000000
  0
LINE
  8
PT3-Grafika_wekt5
  6
CONTINUOUS
 62
     7
 10
48.8604
 20
108.619800000000000
 11
48.8583
 21
108.619800000000000
  0
LINE
  8
PT3-Grafika_wekt5
  6
CONTINUOUS
 62
     7
 10
48.8604
 20
108.619800000000000
 11
48.8612
 21
108.619800000000000
  0
LINE
  8
PT3-Grafika_wekt5
  6
CONTINUOUS
 62
     7
 10
48.8604
 20
108.919700000000010
 11
48.8612
 21
108.919700000000010
  0
LINE
  8
PT3-Grafika_wekt5
  6
CONTINUOUS
 62
     7
 10
48.8633
 20
108.619800000000000
 11
48.8641
 21
108.619800000000000
  0
LINE
  8
PT3-Grafika_wekt5
  6
CONTINUOUS
 62
     7
 10
48.8662
 20
108.619800000000000
 11
48.8699
 21
108.619800000000000
  0
LINE
  8
PT3-Grafika_wekt5
  6
CONTINUOUS
 62
     7
 10
48.872
 20
108.619800000000000
 11
49.3507
 21
108.619800000000000
  0
LINE
  8
PT3-Grafika_wekt5
  6
CONTINUOUS
 62
     7
 10
48.8554
 20
108.619800000000000
 11
48.8554
 21
108.919700000000010
  0
LINE
  8
PT3-Grafika_wekt5
  6
CONTINUOUS
 62
     7
 10
48.8554
 20
108.919700000000010
 11
48.8575
 21
108.919700000000010
  0
LINE
  8
PT3-Grafika_wekt5
  6
CONTINUOUS
 62
     7
 10
48.8575
 20
108.919700000000010
 11
48.8575
 21
108.619800000000000
  0
LINE
  8
PT3-Grafika_wekt5
  6
CONTINUOUS
 62
     7
 10
48.8575
 20
108.619800000000000
 11
48.8554
 21
108.619800000000000
  0
LINE
  8
PT3-Grafika_wekt5
  6
CONTINUOUS
 62
     7
 10
48.8575
 20
108.619800000000000
 11
48.8583
 21
108.619800000000000
  0
LINE
  8
PT3-Grafika_wekt5
  6
CONTINUOUS
 62
     7
 10
48.8575
 20
108.919700000000010
 11
48.8583
 21
108.919700000000010
  0
LINE
  8
PT3-Grafika_wekt5
  6
CONTINUOUS
 62
     7
 10
48.8604
 20
108.619800000000000
 11
48.8612
 21
108.619800000000000
  0
LINE
  8
PT3-Grafika_wekt5
  6
CONTINUOUS
 62
     7
 10
48.8633
 20
108.619800000000000
 11
48.8641
 21
108.619800000000000
  0
LINE
  8
PT3-Grafika_wekt5
  6
CONTINUOUS
 62
     7
 10
48.8662
 20
108.619800000000000
 11
48.8699
 21
108.619800000000000
  0
LINE
  8
PT3-Grafika_wekt5
  6
CONTINUOUS
 62
     7
 10
48.872
 20
108.619800000000000
 11
49.3507
 21
108.619800000000000
  0
LINE
  8
PT3-Grafika_wekt5
  6
CONTINUOUS
 62
     7
 10
48.8525
 20
108.619800000000000
 11
48.8525
 21
108.919700000000010
  0
LINE
  8
PT3-Grafika_wekt5
  6
CONTINUOUS
 62
     7
 10
48.8525
 20
108.919700000000010
 11
48.8546
 21
108.919700000000010
  0
LINE
  8
PT3-Grafika_wekt5
  6
CONTINUOUS
 62
     7
 10
48.8546
 20
108.919700000000010
 11
48.8546
 21
108.619800000000000
  0
LINE
  8
PT3-Grafika_wekt5
  6
CONTINUOUS
 62
     7
 10
48.8546
 20
108.619800000000000
 11
48.8525
 21
108.619800000000000
  0
LINE
  8
PT3-Grafika_wekt5
  6
CONTINUOUS
 62
     7
 10
48.8546
 20
108.619800000000000
 11
48.8554
 21
108.619800000000000
  0
LINE
  8
PT3-Grafika_wekt5
  6
CONTINUOUS
 62
     7
 10
48.8546
 20
108.919700000000010
 11
48.8554
 21
108.919700000000010
  0
LINE
  8
PT3-Grafika_wekt5
  6
CONTINUOUS
 62
     7
 10
48.8575
 20
108.619800000000000
 11
48.8583
 21
108.619800000000000
  0
LINE
  8
PT3-Grafika_wekt5
  6
CONTINUOUS
 62
     7
 10
48.8604
 20
108.619800000000000
 11
48.8612
 21
108.619800000000000
  0
LINE
  8
PT3-Grafika_wekt5
  6
CONTINUOUS
 62
     7
 10
48.8633
 20
108.619800000000000
 11
48.8641
 21
108.619800000000000
  0
LINE
  8
PT3-Grafika_wekt5
  6
CONTINUOUS
 62
     7
 10
48.8662
 20
108.619800000000000
 11
48.8699
 21
108.619800000000000
  0
LINE
  8
PT3-Grafika_wekt5
  6
CONTINUOUS
 62
     7
 10
48.872
 20
108.619800000000000
 11
49.3507
 21
108.619800000000000
  0
LINE
  8
PT3-Grafika_wekt5
  6
CONTINUOUS
 62
     7
 10
48.8641
 20
108.619800000000000
 11
48.8641
 21
108.919700000000010
  0
LINE
  8
PT3-Grafika_wekt5
  6
CONTINUOUS
 62
     7
 10
48.8641
 20
108.919700000000010
 11
48.8662
 21
108.919700000000010
  0
LINE
  8
PT3-Grafika_wekt5
  6
CONTINUOUS
 62
     7
 10
48.8662
 20
108.919700000000010
 11
48.8662
 21
108.619800000000000
  0
LINE
  8
PT3-Grafika_wekt5
  6
CONTINUOUS
 62
     7
 10
48.8662
 20
108.619800000000000
 11
48.8641
 21
108.619800000000000
  0
LINE
  8
PT3-Grafika_wekt5
  6
CONTINUOUS
 62
     7
 10
48.8662
 20
108.619800000000000
 11
48.8699
 21
108.619800000000000
  0
LINE
  8
PT3-Grafika_wekt5
  6
CONTINUOUS
 62
     7
 10
48.8662
 20
108.919700000000010
 11
48.8699
 21
108.919700000000010
  0
LINE
  8
PT3-Grafika_wekt5
  6
CONTINUOUS
 62
     7
 10
48.872
 20
108.619800000000000
 11
49.3507
 21
108.619800000000000
  0
LINE
  8
PT3-Grafika_wekt5
  6
CONTINUOUS
 62
     7
 10
48.8612
 20
108.619800000000000
 11
48.8612
 21
108.919700000000010
  0
LINE
  8
PT3-Grafika_wekt5
  6
CONTINUOUS
 62
     7
 10
48.8612
 20
108.919700000000010
 11
48.8633
 21
108.919700000000010
  0
LINE
  8
PT3-Grafika_wekt5
  6
CONTINUOUS
 62
     7
 10
48.8633
 20
108.919700000000010
 11
48.8633
 21
108.619800000000000
  0
LINE
  8
PT3-Grafika_wekt5
  6
CONTINUOUS
 62
     7
 10
48.8633
 20
108.619800000000000
 11
48.8612
 21
108.619800000000000
  0
LINE
  8
PT3-Grafika_wekt5
  6
CONTINUOUS
 62
     7
 10
48.8633
 20
108.619800000000000
 11
48.8641
 21
108.619800000000000
  0
LINE
  8
PT3-Grafika_wekt5
  6
CONTINUOUS
 62
     7
 10
48.8633
 20
108.919700000000010
 11
48.8641
 21
108.919700000000010
  0
LINE
  8
PT3-Grafika_wekt5
  6
CONTINUOUS
 62
     7
 10
48.8662
 20
108.619800000000000
 11
48.8699
 21
108.619800000000000
  0
LINE
  8
PT3-Grafika_wekt5
  6
CONTINUOUS
 62
     7
 10
48.872
 20
108.619800000000000
 11
49.3507
 21
108.619800000000000
  0
LINE
  8
PT3-Grafika_wekt5
  6
CONTINUOUS
 62
     7
 10
48.8699
 20
108.619800000000000
 11
48.8699
 21
108.919700000000010
  0
LINE
  8
PT3-Grafika_wekt5
  6
CONTINUOUS
 62
     7
 10
48.8699
 20
108.919700000000010
 11
48.872
 21
108.919700000000010
  0
LINE
  8
PT3-Grafika_wekt5
  6
CONTINUOUS
 62
     7
 10
48.872
 20
108.919700000000010
 11
48.872
 21
108.619800000000000
  0
LINE
  8
PT3-Grafika_wekt5
  6
CONTINUOUS
 62
     7
 10
48.872
 20
108.619800000000000
 11
48.8699
 21
108.619800000000000
  0
LINE
  8
PT3-Grafika_wekt5
  6
CONTINUOUS
 62
     7
 10
48.872
 20
108.619800000000000
 11
49.3507
 21
108.619800000000000
  0
LINE
  8
PT3-Grafika_wekt5
  6
CONTINUOUS
 62
     7
 10
48.872
 20
108.919700000000010
 11
49.3507
 21
108.919700000000010
  0
LINE
  8
PT3-Grafika_wekt5
  6
CONTINUOUS
 62
     7
 10
247.1581
 20
107.816599999999990
 11
247.1581
 21
108.081600000000010
  0
LINE
  8
PT3-Grafika_wekt5
  6
CONTINUOUS
 62
     7
 10
247.1581
 20
108.079900000000010
 11
247.2019
 21
108.129700000000010
  0
LINE
  8
PT3-Grafika_wekt5
  6
CONTINUOUS
 62
     7
 10
247.2019
 20
108.129700000000010
 11
247.2019
 21
108.140099999999990
  0
LINE
  8
PT3-Grafika_wekt5
  6
CONTINUOUS
 62
     7
 10
247.2019
 20
108.140099999999990
 11
247.1811
 21
108.116300000000000
  0
LINE
  8
PT3-Grafika_wekt5
  6
CONTINUOUS
 62
     7
 10
247.2019
 20
107.766500000000010
 11
247.1581
 21
107.816599999999990
  0
LINE
  8
PT3-Grafika_wekt5
  6
CONTINUOUS
 62
     7
 10
247.2019
 20
107.766500000000010
 11
262.0997
 21
107.766500000000010
  0
LINE
  8
PT3-Grafika_wekt5
  6
CONTINUOUS
 62
     7
 10
262.0997
 20
107.766500000000010
 11
262.0559
 21
107.816300000000010
  0
LINE
  8
PT3-Grafika_wekt5
  6
CONTINUOUS
 62
     7
 10
262.0559
 20
107.816300000000010
 11
247.2457
 21
107.816300000000010
  0
LINE
  8
PT3-Grafika_wekt5
  6
CONTINUOUS
 62
     7
 10
247.2457
 20
107.816300000000010
 11
247.2019
 21
107.766500000000010
  0
LINE
  8
PT3-Grafika_wekt5
  6
CONTINUOUS
 62
     7
 10
247.2019
 20
108.129700000000010
 11
247.2457
 21
108.079500000000000
  0
LINE
  8
PT3-Grafika_wekt5
  6
CONTINUOUS
 62
     7
 10
247.2457
 20
108.079500000000000
 11
247.2457
 21
107.816300000000010
  0
LINE
  8
PT3-Grafika_wekt5
  6
CONTINUOUS
 62
     7
 10
247.2019
 20
108.140099999999990
 11
262.0997
 21
108.140099999999990
  0
LINE
  8
PT3-Grafika_wekt5
  6
CONTINUOUS
 62
     7
 10
262.0997
 20
108.140099999999990
 11
262.0997
 21
108.129700000000010
  0
LINE
  8
PT3-Grafika_wekt5
  6
CONTINUOUS
 62
     7
 10
262.0997
 20
108.129700000000010
 11
247.2019
 21
108.129700000000010
  0
LINE
  8
PT3-Grafika_wekt5
  6
CONTINUOUS
 62
     7
 10
247.2457
 20
108.079500000000000
 11
262.0559
 21
108.079500000000000
  0
LINE
  8
PT3-Grafika_wekt5
  6
CONTINUOUS
 62
     7
 10
262.0559
 20
108.079500000000000
 11
262.0559
 21
107.816300000000010
  0
LINE
  8
PT3-Grafika_wekt5
  6
CONTINUOUS
 62
     7
 10
248.0783
 20
108.130599999999990
 11
248.0783
 21
108.131599999999990
  0
LINE
  8
PT3-Grafika_wekt5
  6
CONTINUOUS
 62
     7
 10
248.0783
 20
108.131599999999990
 11
261.2233
 21
108.131599999999990
  0
LINE
  8
PT3-Grafika_wekt5
  6
CONTINUOUS
 62
     7
 10
261.2233
 20
108.131599999999990
 11
261.2233
 21
108.130599999999990
  0
LINE
  8
PT3-Grafika_wekt5
  6
CONTINUOUS
 62
     7
 10
261.2233
 20
108.130599999999990
 11
248.0783
 21
108.130599999999990
  0
LINE
  8
PT3-Grafika_wekt5
  6
CONTINUOUS
 62
     7
 10
262.0559
 20
108.079500000000000
 11
262.0997
 21
108.129700000000010
  0
LINE
  8
PT3-Grafika_wekt5
  6
CONTINUOUS
 62
     7
 10
262.0997
 20
108.129700000000010
 11
262.1435
 21
108.079800000000010
  0
LINE
  8
PT3-Grafika_wekt5
  6
CONTINUOUS
 62
     7
 10
262.1435
 20
108.079800000000010
 11
262.1435
 21
107.816599999999990
  0
LINE
  8
PT3-Grafika_wekt5
  6
CONTINUOUS
 62
     7
 10
262.1435
 20
107.816599999999990
 11
262.0997
 21
107.766500000000010
  0
LINE
  8
PT3-Grafika_wekt5
  6
CONTINUOUS
 62
     7
 10
262.0997
 20
108.140099999999990
 11
262.1435
 21
108.090000000000000
  0
LINE
  8
PT3-Grafika_wekt5
  6
CONTINUOUS
 62
     7
 10
262.1435
 20
108.090000000000000
 11
262.1435
 21
108.079800000000010
  0
LINE
  8
PT3-Grafika_wekt5
  6
CONTINUOUS
 62
     7
 10
262.1422
 20
108.091600000000000
 11
262.1435
 21
108.090200000000010
  0
LINE
  8
PT3-Grafika_wekt5
  6
CONTINUOUS
 62
     7
 10
262.1435
 20
108.090200000000010
 11
262.1433
 21
108.090200000000010
  0
LINE
  8
PT3-Grafika_wekt5
  6
CONTINUOUS
 62
     7
 10
262.1435
 20
108.090000000000000
 11
262.1435
 21
108.090200000000010
  0
LINE
  8
PT3-Grafika_wekt5
  6
CONTINUOUS
 62
     7
 10
247.1811
 20
108.120100000000010
 11
247.1845
 21
108.120100000000010
  0
LINE
  8
PT3-Grafika_wekt5
  6
CONTINUOUS
 62
     7
 10
247.1811
 20
108.150499999999990
 11
247.5156
 21
108.744699999999990
  0
LINE
  8
PT3-Grafika_wekt5
  6
CONTINUOUS
 62
     7
 10
247.1811
 20
108.165799999999990
 11
247.5156
 21
108.769700000000000
  0
LINE
  8
PT3-Grafika_wekt5
  6
CONTINUOUS
 62
     7
 10
247.1811
 20
108.166200000000000
 11
247.7812
 21
109.259500000000000
  0
LINE
  8
PT3-Grafika_wekt5
  6
CONTINUOUS
 62
     7
 10
247.7812
 20
109.259500000000000
 11
247.7812
 21
123.977900000000010
  0
LINE
  8
PT3-Grafika_wekt5
  6
CONTINUOUS
 62
     7
 10
247.7812
 20
123.977900000000010
 11
247.1849
 21
125.061600000000000
  0
LINE
  8
PT3-Grafika_wekt5
  6
CONTINUOUS
 62
     7
 10
247.1901
 20
125.061600000000000
 11
247.401
 21
124.668800000000000
  0
LINE
  8
PT3-Grafika_wekt5
  6
CONTINUOUS
 62
     7
 10
247.1903
 20
125.061600000000000
 11
247.7701
 21
123.986600000000010
  0
LINE
  8
PT3-Grafika_wekt5
  6
CONTINUOUS
 62
     7
 10
247.7701
 20
123.986600000000010
 11
261.5266
 21
123.986600000000010
  0
LINE
  8
PT3-Grafika_wekt5
  6
CONTINUOUS
 62
     7
 10
261.5266
 20
123.986600000000010
 11
262.1166
 21
125.061600000000000
  0
LINE
  8
PT3-Grafika_wekt5
  6
CONTINUOUS
 62
     7
 10
247.5156
 20
108.744300000000010
 11
247.5156
 21
108.775600000000000
  0
LINE
  8
PT3-Grafika_wekt5
  6
CONTINUOUS
 62
     7
 10
247.7975
 20
109.243799999999990
 11
247.798
 21
109.243799999999990
  0
LINE
  8
PT3-Grafika_wekt5
  6
CONTINUOUS
 62
     7
 10
247.798
 20
109.243799999999990
 11
247.1811
 21
108.150499999999990
  0
LINE
  8
PT3-Grafika_wekt5
  6
CONTINUOUS
 62
     7
 10
247.798
 20
109.243799999999990
 11
261.5265
 21
109.243799999999990
  0
LINE
  8
PT3-Grafika_wekt5
  6
CONTINUOUS
 62
     7
 10
247.8319
 20
123.986600000000010
 11
248.1169
 21
123.478299999999990
  0
LINE
  8
PT3-Grafika_wekt5
  6
CONTINUOUS
 62
     7
 10
248.1169
 20
123.478299999999990
 11
248.1169
 21
123.481400000000010
  0
LINE
  8
PT3-Grafika_wekt5
  6
CONTINUOUS
 62
     7
 10
248.1169
 20
123.481400000000010
 11
247.8319
 21
123.986600000000010
  0
LINE
  8
PT3-Grafika_wekt5
  6
CONTINUOUS
 62
     7
 10
247.8319
 20
123.986600000000010
 11
248.1524
 21
123.418499999999990
  0
LINE
  8
PT3-Grafika_wekt5
  6
CONTINUOUS
 62
     7
 10
248.1524
 20
123.418499999999990
 11
253.9398
 21
123.418499999999990
  0
LINE
  8
PT3-Grafika_wekt5
  6
CONTINUOUS
 62
     7
 10
247.8357
 20
109.243799999999990
 11
248.1533
 21
109.803699999999990
  0
LINE
  8
PT3-Grafika_wekt5
  6
CONTINUOUS
 62
     7
 10
248.1533
 20
109.803699999999990
 11
248.1533
 21
123.413299999999990
  0
LINE
  8
PT3-Grafika_wekt5
  6
CONTINUOUS
 62
     7
 10
248.1533
 20
123.413299999999990
 11
247.8319
 21
123.986600000000010
  0
LINE
  8
PT3-Grafika_wekt5
  6
CONTINUOUS
 62
     7
 10
247.8371
 20
109.243799999999990
 11
248.0815
 21
109.677100000000000
  0
LINE
  8
PT3-Grafika_wekt5
  6
CONTINUOUS
 62
     7
 10
248.1528
 20
109.802699999999990
 11
253.9398
 21
109.802699999999990
  0
LINE
  8
PT3-Grafika_wekt5
  6
CONTINUOUS
 62
     7
 10
253.9391
 20
109.802699999999990
 11
254.2559
 21
109.243799999999990
  0
LINE
  8
PT3-Grafika_wekt5
  6
CONTINUOUS
 62
     7
 10
253.9391
 20
123.418499999999990
 11
254.2328
 21
123.936700000000000
  0
LINE
  8
PT3-Grafika_wekt5
  6
CONTINUOUS
 62
     7
 10
253.9393
 20
109.803699999999990
 11
253.9393
 21
123.413299999999990
  0
LINE
  8
PT3-Grafika_wekt5
  6
CONTINUOUS
 62
     7
 10
253.9393
 20
123.413299999999990
 11
254.2608
 21
123.986600000000010
  0
LINE
  8
PT3-Grafika_wekt5
  6
CONTINUOUS
 62
     7
 10
253.9836
 20
109.724999999999990
 11
253.9836
 21
109.725699999999990
  0
LINE
  8
PT3-Grafika_wekt5
  6
CONTINUOUS
 62
     7
 10
253.9836
 20
123.492200000000000
 11
253.9836
 21
123.496299999999990
  0
LINE
  8
PT3-Grafika_wekt5
  6
CONTINUOUS
 62
     7
 10
254.257
 20
109.243799999999990
 11
253.9393
 21
109.803699999999990
  0
LINE
  8
PT3-Grafika_wekt5
  6
CONTINUOUS
 62
     7
 10
254.3093
 20
109.243599999999990
 11
254.3093
 21
123.986899999999990
  0
LINE
  8
PT3-Grafika_wekt5
  6
CONTINUOUS
 62
     7
 10
254.3093
 20
123.986899999999990
 11
255.0615
 21
123.986899999999990
  0
LINE
  8
PT3-Grafika_wekt5
  6
CONTINUOUS
 62
     7
 10
255.0615
 20
123.986899999999990
 11
255.0615
 21
109.243599999999990
  0
LINE
  8
PT3-Grafika_wekt5
  6
CONTINUOUS
 62
     7
 10
255.0615
 20
109.243599999999990
 11
254.3093
 21
109.243599999999990
  0
LINE
  8
PT3-Grafika_wekt5
  6
CONTINUOUS
 62
     7
 10
255.0948
 20
123.986600000000010
 11
255.3686
 21
123.498400000000000
  0
LINE
  8
PT3-Grafika_wekt5
  6
CONTINUOUS
 62
     7
 10
255.3686
 20
123.498400000000000
 11
255.3686
 21
123.501499999999990
  0
LINE
  8
PT3-Grafika_wekt5
  6
CONTINUOUS
 62
     7
 10
255.0948
 20
123.986600000000010
 11
255.4163
 21
123.413299999999990
  0
LINE
  8
PT3-Grafika_wekt5
  6
CONTINUOUS
 62
     7
 10
255.4163
 20
123.413299999999990
 11
255.4163
 21
109.803699999999990
  0
LINE
  8
PT3-Grafika_wekt5
  6
CONTINUOUS
 62
     7
 10
255.4163
 20
109.803699999999990
 11
255.0986
 21
109.243799999999990
  0
LINE
  8
PT3-Grafika_wekt5
  6
CONTINUOUS
 62
     7
 10
255.1
 20
109.243799999999990
 11
255.3444
 21
109.677100000000000
  0
LINE
  8
PT3-Grafika_wekt5
  6
CONTINUOUS
 62
     7
 10
255.4154
 20
123.418499999999990
 11
255.0948
 21
123.986600000000010
  0
LINE
  8
PT3-Grafika_wekt5
  6
CONTINUOUS
 62
     7
 10
255.4157
 20
109.802699999999990
 11
261.2027
 21
109.802699999999990
  0
LINE
  8
PT3-Grafika_wekt5
  6
CONTINUOUS
 62
     7
 10
261.2019
 20
109.802699999999990
 11
261.5188
 21
109.243799999999990
  0
LINE
  8
PT3-Grafika_wekt5
  6
CONTINUOUS
 62
     7
 10
261.2019
 20
123.418499999999990
 11
255.4154
 21
123.418499999999990
  0
LINE
  8
PT3-Grafika_wekt5
  6
CONTINUOUS
 62
     7
 10
261.2023
 20
109.803699999999990
 11
261.2023
 21
123.413299999999990
  0
LINE
  8
PT3-Grafika_wekt5
  6
CONTINUOUS
 62
     7
 10
261.2023
 20
123.413299999999990
 11
261.5237
 21
123.986600000000010
  0
LINE
  8
PT3-Grafika_wekt5
  6
CONTINUOUS
 62
     7
 10
261.2352
 20
109.745100000000010
 11
261.2352
 21
109.745700000000000
  0
LINE
  8
PT3-Grafika_wekt5
  6
CONTINUOUS
 62
     7
 10
261.2352
 20
123.472000000000010
 11
261.2352
 21
123.477200000000010
  0
LINE
  8
PT3-Grafika_wekt5
  6
CONTINUOUS
 62
     7
 10
261.4969
 20
123.938799999999990
 11
261.2019
 21
123.418499999999990
  0
LINE
  8
PT3-Grafika_wekt5
  6
CONTINUOUS
 62
     7
 10
261.52
 20
109.243799999999990
 11
261.2023
 21
109.803699999999990
  0
LINE
  8
PT3-Grafika_wekt5
  6
CONTINUOUS
 62
     7
 10
261.5204
 20
109.255500000000010
 11
261.5204
 21
123.977900000000010
  0
LINE
  8
PT3-Grafika_wekt5
  6
CONTINUOUS
 62
     7
 10
261.5204
 20
123.977900000000010
 11
262.1167
 21
125.061600000000000
  0
LINE
  8
PT3-Grafika_wekt5
  6
CONTINUOUS
 62
     7
 10
261.5204
 20
109.259500000000000
 11
261.7636
 21
108.816399999999990
  0
LINE
  8
PT3-Grafika_wekt5
  6
CONTINUOUS
 62
     7
 10
261.5245
 20
109.243799999999990
 11
262.1434
 21
108.120100000000010
  0
LINE
  8
PT3-Grafika_wekt5
  6
CONTINUOUS
 62
     7
 10
262.1434
 20
108.120100000000010
 11
261.973
 21
108.431999999999990
  0
LINE
  8
PT3-Grafika_wekt5
  6
CONTINUOUS
 62
     7
 10
261.6962
 20
108.933100000000000
 11
261.7979
 21
108.753899999999990
  0
LINE
  8
PT3-Grafika_wekt5
  6
CONTINUOUS
 62
     7
 10
261.7979
 20
108.753899999999990
 11
261.8392
 21
108.678500000000010
  0
LINE
  8
PT3-Grafika_wekt5
  6
CONTINUOUS
 62
     7
 10
261.8392
 20
108.678500000000010
 11
261.7306
 21
108.870200000000010
  0
LINE
  8
PT3-Grafika_wekt5
  6
CONTINUOUS
 62
     7
 10
261.8403
 20
108.670300000000000
 11
261.8437
 21
108.670300000000000
  0
LINE
  8
PT3-Grafika_wekt5
  6
CONTINUOUS
 62
     7
 10
261.8437
 20
108.670300000000000
 11
262.1435
 21
108.124300000000010
  0
LINE
  8
PT3-Grafika_wekt5
  6
CONTINUOUS
 62
     7
 10
262.1435
 20
108.124300000000010
 11
261.5204
 21
109.259500000000000
  0
LINE
  8
PT3-Grafika_wekt5
  6
CONTINUOUS
 62
     7
 10
261.9724
 20
108.433300000000000
 11
262.1435
 21
108.124300000000010
  0
LINE
  8
PT3-Grafika_wekt5
  6
CONTINUOUS
 62
     7
 10
262.1435
 20
108.124300000000010
 11
262.1435
 21
125.061600000000000
  0
LINE
  8
PT3-Grafika_wekt5
  6
CONTINUOUS
 62
     7
 10
262.1171
 20
108.120100000000010
 11
262.1434
 21
108.120100000000010
  0
LINE
  8
PT3-Grafika_wekt5
  6
CONTINUOUS
 62
     7
 10
214.5898
 20
107.816599999999990
 11
214.5898
 21
108.081600000000010
  0
LINE
  8
PT3-Grafika_wekt5
  6
CONTINUOUS
 62
     7
 10
214.5898
 20
108.079900000000010
 11
214.6336
 21
108.129700000000010
  0
LINE
  8
PT3-Grafika_wekt5
  6
CONTINUOUS
 62
     7
 10
214.6336
 20
108.129700000000010
 11
214.6336
 21
108.140099999999990
  0
LINE
  8
PT3-Grafika_wekt5
  6
CONTINUOUS
 62
     7
 10
214.6336
 20
108.140099999999990
 11
214.6128
 21
108.116300000000000
  0
LINE
  8
PT3-Grafika_wekt5
  6
CONTINUOUS
 62
     7
 10
214.6336
 20
107.766500000000010
 11
214.5898
 21
107.816599999999990
  0
LINE
  8
PT3-Grafika_wekt5
  6
CONTINUOUS
 62
     7
 10
214.6336
 20
107.766500000000010
 11
229.5313
 21
107.766500000000010
  0
LINE
  8
PT3-Grafika_wekt5
  6
CONTINUOUS
 62
     7
 10
229.5313
 20
107.766500000000010
 11
229.4876
 21
107.816300000000010
  0
LINE
  8
PT3-Grafika_wekt5
  6
CONTINUOUS
 62
     7
 10
229.4876
 20
107.816300000000010
 11
214.6774
 21
107.816300000000010
  0
LINE
  8
PT3-Grafika_wekt5
  6
CONTINUOUS
 62
     7
 10
214.6774
 20
107.816300000000010
 11
214.6336
 21
107.766500000000010
  0
LINE
  8
PT3-Grafika_wekt5
  6
CONTINUOUS
 62
     7
 10
214.6336
 20
108.129700000000010
 11
214.6774
 21
108.079500000000000
  0
LINE
  8
PT3-Grafika_wekt5
  6
CONTINUOUS
 62
     7
 10
214.6774
 20
108.079500000000000
 11
214.6774
 21
107.816300000000010
  0
LINE
  8
PT3-Grafika_wekt5
  6
CONTINUOUS
 62
     7
 10
214.6336
 20
108.140099999999990
 11
229.5313
 21
108.140099999999990
  0
LINE
  8
PT3-Grafika_wekt5
  6
CONTINUOUS
 62
     7
 10
229.5313
 20
108.140099999999990
 11
229.5313
 21
108.129700000000010
  0
LINE
  8
PT3-Grafika_wekt5
  6
CONTINUOUS
 62
     7
 10
229.5313
 20
108.129700000000010
 11
214.6336
 21
108.129700000000010
  0
LINE
  8
PT3-Grafika_wekt5
  6
CONTINUOUS
 62
     7
 10
214.6774
 20
108.079500000000000
 11
229.4876
 21
108.079500000000000
  0
LINE
  8
PT3-Grafika_wekt5
  6
CONTINUOUS
 62
     7
 10
229.4876
 20
108.079500000000000
 11
229.4876
 21
107.816300000000010
  0
LINE
  8
PT3-Grafika_wekt5
  6
CONTINUOUS
 62
     7
 10
215.51
 20
108.130599999999990
 11
215.51
 21
108.131599999999990
  0
LINE
  8
PT3-Grafika_wekt5
  6
CONTINUOUS
 62
     7
 10
215.51
 20
108.131599999999990
 11
228.655
 21
108.131599999999990
  0
LINE
  8
PT3-Grafika_wekt5
  6
CONTINUOUS
 62
     7
 10
228.655
 20
108.131599999999990
 11
228.655
 21
108.130599999999990
  0
LINE
  8
PT3-Grafika_wekt5
  6
CONTINUOUS
 62
     7
 10
228.655
 20
108.130599999999990
 11
215.51
 21
108.130599999999990
  0
LINE
  8
PT3-Grafika_wekt5
  6
CONTINUOUS
 62
     7
 10
229.4876
 20
108.079500000000000
 11
229.5313
 21
108.129700000000010
  0
LINE
  8
PT3-Grafika_wekt5
  6
CONTINUOUS
 62
     7
 10
229.5313
 20
108.129700000000010
 11
229.5752
 21
108.079800000000010
  0
LINE
  8
PT3-Grafika_wekt5
  6
CONTINUOUS
 62
     7
 10
229.5752
 20
108.079800000000010
 11
229.5752
 21
107.816599999999990
  0
LINE
  8
PT3-Grafika_wekt5
  6
CONTINUOUS
 62
     7
 10
229.5752
 20
107.816599999999990
 11
229.5313
 21
107.766500000000010
  0
LINE
  8
PT3-Grafika_wekt5
  6
CONTINUOUS
 62
     7
 10
229.5313
 20
108.140099999999990
 11
229.5752
 21
108.090000000000000
  0
LINE
  8
PT3-Grafika_wekt5
  6
CONTINUOUS
 62
     7
 10
229.5752
 20
108.090000000000000
 11
229.5752
 21
108.079800000000010
  0
LINE
  8
PT3-Grafika_wekt5
  6
CONTINUOUS
 62
     7
 10
229.5739
 20
108.091600000000000
 11
229.5752
 21
108.090200000000010
  0
LINE
  8
PT3-Grafika_wekt5
  6
CONTINUOUS
 62
     7
 10
229.5752
 20
108.090200000000010
 11
229.575
 21
108.090200000000010
  0
LINE
  8
PT3-Grafika_wekt5
  6
CONTINUOUS
 62
     7
 10
229.5752
 20
108.090000000000000
 11
229.5752
 21
108.090200000000010
  0
LINE
  8
PT3-Grafika_wekt5
  6
CONTINUOUS
 62
     7
 10
214.6128
 20
108.120100000000010
 11
214.6161
 21
108.120100000000010
  0
LINE
  8
PT3-Grafika_wekt5
  6
CONTINUOUS
 62
     7
 10
214.6128
 20
108.150499999999990
 11
214.9474
 21
108.744699999999990
  0
LINE
  8
PT3-Grafika_wekt5
  6
CONTINUOUS
 62
     7
 10
214.6128
 20
108.165799999999990
 11
214.9474
 21
108.769700000000000
  0
LINE
  8
PT3-Grafika_wekt5
  6
CONTINUOUS
 62
     7
 10
214.6128
 20
108.166200000000000
 11
215.2129
 21
109.259500000000000
  0
LINE
  8
PT3-Grafika_wekt5
  6
CONTINUOUS
 62
     7
 10
215.2129
 20
109.259500000000000
 11
215.2129
 21
123.977900000000010
  0
LINE
  8
PT3-Grafika_wekt5
  6
CONTINUOUS
 62
     7
 10
215.2129
 20
123.977900000000010
 11
214.6166
 21
125.061600000000000
  0
LINE
  8
PT3-Grafika_wekt5
  6
CONTINUOUS
 62
     7
 10
214.6219
 20
125.061600000000000
 11
214.8328
 21
124.668800000000000
  0
LINE
  8
PT3-Grafika_wekt5
  6
CONTINUOUS
 62
     7
 10
214.622
 20
125.061600000000000
 11
215.2019
 21
123.986600000000010
  0
LINE
  8
PT3-Grafika_wekt5
  6
CONTINUOUS
 62
     7
 10
215.2019
 20
123.986600000000010
 11
228.9583
 21
123.986600000000010
  0
LINE
  8
PT3-Grafika_wekt5
  6
CONTINUOUS
 62
     7
 10
228.9583
 20
123.986600000000010
 11
229.5483
 21
125.061600000000000
  0
LINE
  8
PT3-Grafika_wekt5
  6
CONTINUOUS
 62
     7
 10
214.9474
 20
108.744300000000010
 11
214.9474
 21
108.775600000000000
  0
LINE
  8
PT3-Grafika_wekt5
  6
CONTINUOUS
 62
     7
 10
215.2292
 20
109.243799999999990
 11
215.2297
 21
109.243799999999990
  0
LINE
  8
PT3-Grafika_wekt5
  6
CONTINUOUS
 62
     7
 10
215.2297
 20
109.243799999999990
 11
214.6128
 21
108.150499999999990
  0
LINE
  8
PT3-Grafika_wekt5
  6
CONTINUOUS
 62
     7
 10
215.2297
 20
109.243799999999990
 11
228.9582
 21
109.243799999999990
  0
LINE
  8
PT3-Grafika_wekt5
  6
CONTINUOUS
 62
     7
 10
215.2636
 20
123.986600000000010
 11
215.5486
 21
123.478299999999990
  0
LINE
  8
PT3-Grafika_wekt5
  6
CONTINUOUS
 62
     7
 10
215.5486
 20
123.478299999999990
 11
215.5486
 21
123.481400000000010
  0
LINE
  8
PT3-Grafika_wekt5
  6
CONTINUOUS
 62
     7
 10
215.5486
 20
123.481400000000010
 11
215.2636
 21
123.986600000000010
  0
LINE
  8
PT3-Grafika_wekt5
  6
CONTINUOUS
 62
     7
 10
215.2636
 20
123.986600000000010
 11
215.5841
 21
123.418499999999990
  0
LINE
  8
PT3-Grafika_wekt5
  6
CONTINUOUS
 62
     7
 10
215.5841
 20
123.418499999999990
 11
221.3715
 21
123.418499999999990
  0
LINE
  8
PT3-Grafika_wekt5
  6
CONTINUOUS
 62
     7
 10
215.2673
 20
109.243799999999990
 11
215.585
 21
109.803699999999990
  0
LINE
  8
PT3-Grafika_wekt5
  6
CONTINUOUS
 62
     7
 10
215.585
 20
109.803699999999990
 11
215.585
 21
123.413299999999990
  0
LINE
  8
PT3-Grafika_wekt5
  6
CONTINUOUS
 62
     7
 10
215.585
 20
123.413299999999990
 11
215.2636
 21
123.986600000000010
  0
LINE
  8
PT3-Grafika_wekt5
  6
CONTINUOUS
 62
     7
 10
215.2688
 20
109.243799999999990
 11
215.5132
 21
109.677100000000000
  0
LINE
  8
PT3-Grafika_wekt5
  6
CONTINUOUS
 62
     7
 10
215.5845
 20
109.802699999999990
 11
221.3715
 21
109.802699999999990
  0
LINE
  8
PT3-Grafika_wekt5
  6
CONTINUOUS
 62
     7
 10
221.3707
 20
109.802699999999990
 11
221.6876
 21
109.243799999999990
  0
LINE
  8
PT3-Grafika_wekt5
  6
CONTINUOUS
 62
     7
 10
221.3707
 20
123.418499999999990
 11
221.6644
 21
123.936700000000000
  0
LINE
  8
PT3-Grafika_wekt5
  6
CONTINUOUS
 62
     7
 10
221.3711
 20
109.803699999999990
 11
221.3711
 21
123.413299999999990
  0
LINE
  8
PT3-Grafika_wekt5
  6
CONTINUOUS
 62
     7
 10
221.3711
 20
123.413299999999990
 11
221.6925
 21
123.986600000000010
  0
LINE
  8
PT3-Grafika_wekt5
  6
CONTINUOUS
 62
     7
 10
221.4153
 20
109.724999999999990
 11
221.4153
 21
109.725699999999990
  0
LINE
  8
PT3-Grafika_wekt5
  6
CONTINUOUS
 62
     7
 10
221.4153
 20
123.492200000000000
 11
221.4153
 21
123.496299999999990
  0
LINE
  8
PT3-Grafika_wekt5
  6
CONTINUOUS
 62
     7
 10
221.6887
 20
109.243799999999990
 11
221.3711
 21
109.803699999999990
  0
LINE
  8
PT3-Grafika_wekt5
  6
CONTINUOUS
 62
     7
 10
221.7409
 20
109.243599999999990
 11
221.7409
 21
123.986899999999990
  0
LINE
  8
PT3-Grafika_wekt5
  6
CONTINUOUS
 62
     7
 10
221.7409
 20
123.986899999999990
 11
222.4932
 21
123.986899999999990
  0
LINE
  8
PT3-Grafika_wekt5
  6
CONTINUOUS
 62
     7
 10
222.4932
 20
123.986899999999990
 11
222.4932
 21
109.243599999999990
  0
LINE
  8
PT3-Grafika_wekt5
  6
CONTINUOUS
 62
     7
 10
222.4932
 20
109.243599999999990
 11
221.7409
 21
109.243599999999990
  0
LINE
  8
PT3-Grafika_wekt5
  6
CONTINUOUS
 62
     7
 10
222.5265
 20
123.986600000000010
 11
222.8002
 21
123.498400000000000
  0
LINE
  8
PT3-Grafika_wekt5
  6
CONTINUOUS
 62
     7
 10
222.8002
 20
123.498400000000000
 11
222.8002
 21
123.501499999999990
  0
LINE
  8
PT3-Grafika_wekt5
  6
CONTINUOUS
 62
     7
 10
222.5265
 20
123.986600000000010
 11
222.848
 21
123.413299999999990
  0
LINE
  8
PT3-Grafika_wekt5
  6
CONTINUOUS
 62
     7
 10
222.848
 20
123.413299999999990
 11
222.848
 21
109.803699999999990
  0
LINE
  8
PT3-Grafika_wekt5
  6
CONTINUOUS
 62
     7
 10
222.848
 20
109.803699999999990
 11
222.5303
 21
109.243799999999990
  0
LINE
  8
PT3-Grafika_wekt5
  6
CONTINUOUS
 62
     7
 10
222.5317
 20
109.243799999999990
 11
222.7761
 21
109.677100000000000
  0
LINE
  8
PT3-Grafika_wekt5
  6
CONTINUOUS
 62
     7
 10
222.847
 20
123.418499999999990
 11
222.5265
 21
123.986600000000010
  0
LINE
  8
PT3-Grafika_wekt5
  6
CONTINUOUS
 62
     7
 10
222.8475
 20
109.802699999999990
 11
228.6344
 21
109.802699999999990
  0
LINE
  8
PT3-Grafika_wekt5
  6
CONTINUOUS
 62
     7
 10
228.6337
 20
109.802699999999990
 11
228.9505
 21
109.243799999999990
  0
LINE
  8
PT3-Grafika_wekt5
  6
CONTINUOUS
 62
     7
 10
228.6337
 20
123.418499999999990
 11
222.847
 21
123.418499999999990
  0
LINE
  8
PT3-Grafika_wekt5
  6
CONTINUOUS
 62
     7
 10
228.634
 20
109.803699999999990
 11
228.634
 21
123.413299999999990
  0
LINE
  8
PT3-Grafika_wekt5
  6
CONTINUOUS
 62
     7
 10
228.634
 20
123.413299999999990
 11
228.9555
 21
123.986600000000010
  0
LINE
  8
PT3-Grafika_wekt5
  6
CONTINUOUS
 62
     7
 10
228.6669
 20
109.745100000000010
 11
228.6669
 21
109.745700000000000
  0
LINE
  8
PT3-Grafika_wekt5
  6
CONTINUOUS
 62
     7
 10
228.6669
 20
123.472000000000010
 11
228.6669
 21
123.477200000000010
  0
LINE
  8
PT3-Grafika_wekt5
  6
CONTINUOUS
 62
     7
 10
228.9286
 20
123.938799999999990
 11
228.6337
 21
123.418499999999990
  0
LINE
  8
PT3-Grafika_wekt5
  6
CONTINUOUS
 62
     7
 10
228.9516
 20
109.243799999999990
 11
228.634
 21
109.803699999999990
  0
LINE
  8
PT3-Grafika_wekt5
  6
CONTINUOUS
 62
     7
 10
228.9521
 20
109.255500000000010
 11
228.9521
 21
123.977900000000010
  0
LINE
  8
PT3-Grafika_wekt5
  6
CONTINUOUS
 62
     7
 10
228.9521
 20
123.977900000000010
 11
229.5484
 21
125.061600000000000
  0
LINE
  8
PT3-Grafika_wekt5
  6
CONTINUOUS
 62
     7
 10
228.9521
 20
109.259500000000000
 11
229.1953
 21
108.816399999999990
  0
LINE
  8
PT3-Grafika_wekt5
  6
CONTINUOUS
 62
     7
 10
228.9563
 20
109.243799999999990
 11
229.575
 21
108.120100000000010
  0
LINE
  8
PT3-Grafika_wekt5
  6
CONTINUOUS
 62
     7
 10
229.575
 20
108.120100000000010
 11
229.4047
 21
108.431999999999990
  0
LINE
  8
PT3-Grafika_wekt5
  6
CONTINUOUS
 62
     7
 10
229.1279
 20
108.933100000000000
 11
229.2296
 21
108.753899999999990
  0
LINE
  8
PT3-Grafika_wekt5
  6
CONTINUOUS
 62
     7
 10
229.2296
 20
108.753899999999990
 11
229.271
 21
108.678500000000010
  0
LINE
  8
PT3-Grafika_wekt5
  6
CONTINUOUS
 62
     7
 10
229.271
 20
108.678500000000010
 11
229.1624
 21
108.870200000000010
  0
LINE
  8
PT3-Grafika_wekt5
  6
CONTINUOUS
 62
     7
 10
229.2721
 20
108.670300000000000
 11
229.2755
 21
108.670300000000000
  0
LINE
  8
PT3-Grafika_wekt5
  6
CONTINUOUS
 62
     7
 10
229.2755
 20
108.670300000000000
 11
229.5752
 21
108.124300000000010
  0
LINE
  8
PT3-Grafika_wekt5
  6
CONTINUOUS
 62
     7
 10
229.5752
 20
108.124300000000010
 11
228.9521
 21
109.259500000000000
  0
LINE
  8
PT3-Grafika_wekt5
  6
CONTINUOUS
 62
     7
 10
229.404
 20
108.433300000000000
 11
229.5752
 21
108.124300000000010
  0
LINE
  8
PT3-Grafika_wekt5
  6
CONTINUOUS
 62
     7
 10
229.5752
 20
108.124300000000010
 11
229.5752
 21
125.061600000000000
  0
LINE
  8
PT3-Grafika_wekt5
  6
CONTINUOUS
 62
     7
 10
229.5489
 20
108.120100000000010
 11
229.575
 21
108.120100000000010
  0
LINE
  8
PT3-Grafika_wekt5
  6
CONTINUOUS
 62
     7
 10
208.196
 20
145.598600000000000
 11
208.6955
 21
145.598600000000000
  0
LINE
  8
PT3-Grafika_wekt5
  6
CONTINUOUS
 62
     7
 10
208.6955
 20
145.598600000000000
 11
208.6955
 21
145.898399999999980
  0
LINE
  8
PT3-Grafika_wekt5
  6
CONTINUOUS
 62
     7
 10
208.6955
 20
145.898399999999980
 11
208.196
 21
145.898399999999980
  0
LINE
  8
PT3-Grafika_wekt5
  6
CONTINUOUS
 62
     7
 10
42.857
 20
145.598600000000000
 11
42.857
 21
145.898399999999980
  0
LINE
  8
PT3-Grafika_wekt5
  6
CONTINUOUS
 62
     7
 10
42.857
 20
145.898399999999980
 11
43.3565
 21
145.898399999999980
  0
LINE
  8
PT3-Grafika_wekt5
  6
CONTINUOUS
 62
     7
 10
43.3565
 20
145.598600000000000
 11
42.857
 21
145.598600000000000
  0
LINE
  8
PT3-Grafika_wekt5
  6
CONTINUOUS
 62
     7
 10
122.7793
 20
145.598600000000000
 11
122.7793
 21
145.898399999999980
  0
LINE
  8
PT3-Grafika_wekt5
  6
CONTINUOUS
 62
     7
 10
122.7793
 20
145.898399999999980
 11
123.4786
 21
146.598000000000010
  0
LINE
  8
PT3-Grafika_wekt5
  6
CONTINUOUS
 62
     7
 10
123.4786
 20
146.598000000000010
 11
123.4786
 21
160.689899999999990
  0
LINE
  8
PT3-Grafika_wekt5
  6
CONTINUOUS
 62
     7
 10
123.4786
 20
160.689899999999990
 11
122.7793
 21
161.389500000000000
  0
LINE
  8
PT3-Grafika_wekt5
  6
CONTINUOUS
 62
     7
 10
122.7793
 20
145.898399999999980
 11
134.7676
 21
145.898399999999980
  0
LINE
  8
PT3-Grafika_wekt5
  6
CONTINUOUS
 62
     7
 10
134.7676
 20
145.898399999999980
 11
134.0683
 21
146.598000000000010
  0
LINE
  8
PT3-Grafika_wekt5
  6
CONTINUOUS
 62
     7
 10
134.0683
 20
146.598000000000010
 11
123.4786
 21
146.598000000000010
  0
LINE
  8
PT3-Grafika_wekt5
  6
CONTINUOUS
 62
     7
 10
123.4786
 20
160.689899999999990
 11
134.0683
 21
160.689899999999990
  0
LINE
  8
PT3-Grafika_wekt5
  6
CONTINUOUS
 62
     7
 10
134.0683
 20
160.689899999999990
 11
134.0683
 21
146.598000000000010
  0
LINE
  8
PT3-Grafika_wekt5
  6
CONTINUOUS
 62
     7
 10
134.0683
 20
160.689899999999990
 11
134.7676
 21
161.389500000000000
  0
LINE
  8
PT3-Grafika_wekt5
  6
CONTINUOUS
 62
     7
 10
134.7676
 20
145.598600000000000
 11
122.7793
 21
145.598600000000000
  0
LINE
  8
PT3-Grafika_wekt5
  6
CONTINUOUS
 62
     7
 10
134.7676
 20
145.898399999999980
 11
134.7676
 21
145.598600000000000
  0
LINE
  8
PT3-Grafika_wekt5
  6
CONTINUOUS
 62
     7
 10
48.8586
 20
145.598600000000000
 11
48.8586
 21
145.898399999999980
  0
LINE
  8
PT3-Grafika_wekt5
  6
CONTINUOUS
 62
     7
 10
48.8586
 20
145.898399999999980
 11
48.8601
 21
145.898399999999980
  0
LINE
  8
PT3-Grafika_wekt5
  6
CONTINUOUS
 62
     7
 10
48.8601
 20
145.898399999999980
 11
48.8601
 21
145.598600000000000
  0
LINE
  8
PT3-Grafika_wekt5
  6
CONTINUOUS
 62
     7
 10
48.8601
 20
145.598600000000000
 11
48.8586
 21
145.598600000000000
  0
LINE
  8
PT3-Grafika_wekt5
  6
CONTINUOUS
 62
     7
 10
48.8601
 20
145.598600000000000
 11
48.8615
 21
145.598600000000000
  0
LINE
  8
PT3-Grafika_wekt5
  6
CONTINUOUS
 62
     7
 10
48.8601
 20
145.898399999999980
 11
48.8615
 21
145.898399999999980
  0
LINE
  8
PT3-Grafika_wekt5
  6
CONTINUOUS
 62
     7
 10
48.863
 20
145.598600000000000
 11
48.8644
 21
145.598600000000000
  0
LINE
  8
PT3-Grafika_wekt5
  6
CONTINUOUS
 62
     7
 10
48.8659
 20
145.598600000000000
 11
48.8702
 21
145.598600000000000
  0
LINE
  8
PT3-Grafika_wekt5
  6
CONTINUOUS
 62
     7
 10
48.8717
 20
145.598600000000000
 11
49.3507
 21
145.598600000000000
  0
LINE
  8
PT3-Grafika_wekt5
  6
CONTINUOUS
 62
     7
 10
48.8556
 20
145.598600000000000
 11
48.8556
 21
145.898399999999980
  0
LINE
  8
PT3-Grafika_wekt5
  6
CONTINUOUS
 62
     7
 10
48.8556
 20
145.898399999999980
 11
48.8572
 21
145.898399999999980
  0
LINE
  8
PT3-Grafika_wekt5
  6
CONTINUOUS
 62
     7
 10
48.8572
 20
145.898399999999980
 11
48.8572
 21
145.598600000000000
  0
LINE
  8
PT3-Grafika_wekt5
  6
CONTINUOUS
 62
     7
 10
48.8572
 20
145.598600000000000
 11
48.8556
 21
145.598600000000000
  0
LINE
  8
PT3-Grafika_wekt5
  6
CONTINUOUS
 62
     7
 10
48.8572
 20
145.598600000000000
 11
48.8586
 21
145.598600000000000
  0
LINE
  8
PT3-Grafika_wekt5
  6
CONTINUOUS
 62
     7
 10
48.8572
 20
145.898399999999980
 11
48.8586
 21
145.898399999999980
  0
LINE
  8
PT3-Grafika_wekt5
  6
CONTINUOUS
 62
     7
 10
48.8601
 20
145.598600000000000
 11
48.8615
 21
145.598600000000000
  0
LINE
  8
PT3-Grafika_wekt5
  6
CONTINUOUS
 62
     7
 10
48.863
 20
145.598600000000000
 11
48.8644
 21
145.598600000000000
  0
LINE
  8
PT3-Grafika_wekt5
  6
CONTINUOUS
 62
     7
 10
48.8659
 20
145.598600000000000
 11
48.8702
 21
145.598600000000000
  0
LINE
  8
PT3-Grafika_wekt5
  6
CONTINUOUS
 62
     7
 10
48.8717
 20
145.598600000000000
 11
49.3507
 21
145.598600000000000
  0
LINE
  8
PT3-Grafika_wekt5
  6
CONTINUOUS
 62
     7
 10
48.8528
 20
145.598600000000000
 11
48.8528
 21
145.898399999999980
  0
LINE
  8
PT3-Grafika_wekt5
  6
CONTINUOUS
 62
     7
 10
48.8528
 20
145.898399999999980
 11
48.8543
 21
145.898399999999980
  0
LINE
  8
PT3-Grafika_wekt5
  6
CONTINUOUS
 62
     7
 10
48.8543
 20
145.898399999999980
 11
48.8543
 21
145.598600000000000
  0
LINE
  8
PT3-Grafika_wekt5
  6
CONTINUOUS
 62
     7
 10
48.8543
 20
145.598600000000000
 11
48.8528
 21
145.598600000000000
  0
LINE
  8
PT3-Grafika_wekt5
  6
CONTINUOUS
 62
     7
 10
48.8543
 20
145.598600000000000
 11
48.8556
 21
145.598600000000000
  0
LINE
  8
PT3-Grafika_wekt5
  6
CONTINUOUS
 62
     7
 10
48.8543
 20
145.898399999999980
 11
48.8556
 21
145.898399999999980
  0
LINE
  8
PT3-Grafika_wekt5
  6
CONTINUOUS
 62
     7
 10
48.8572
 20
145.598600000000000
 11
48.8586
 21
145.598600000000000
  0
LINE
  8
PT3-Grafika_wekt5
  6
CONTINUOUS
 62
     7
 10
48.8601
 20
145.598600000000000
 11
48.8615
 21
145.598600000000000
  0
LINE
  8
PT3-Grafika_wekt5
  6
CONTINUOUS
 62
     7
 10
48.863
 20
145.598600000000000
 11
48.8644
 21
145.598600000000000
  0
LINE
  8
PT3-Grafika_wekt5
  6
CONTINUOUS
 62
     7
 10
48.8659
 20
145.598600000000000
 11
48.8702
 21
145.598600000000000
  0
LINE
  8
PT3-Grafika_wekt5
  6
CONTINUOUS
 62
     7
 10
48.8717
 20
145.598600000000000
 11
49.3507
 21
145.598600000000000
  0
LINE
  8
PT3-Grafika_wekt5
  6
CONTINUOUS
 62
     7
 10
48.8644
 20
145.598600000000000
 11
48.8644
 21
145.898399999999980
  0
LINE
  8
PT3-Grafika_wekt5
  6
CONTINUOUS
 62
     7
 10
48.8644
 20
145.898399999999980
 11
48.8659
 21
145.898399999999980
  0
LINE
  8
PT3-Grafika_wekt5
  6
CONTINUOUS
 62
     7
 10
48.8659
 20
145.898399999999980
 11
48.8659
 21
145.598600000000000
  0
LINE
  8
PT3-Grafika_wekt5
  6
CONTINUOUS
 62
     7
 10
48.8659
 20
145.598600000000000
 11
48.8644
 21
145.598600000000000
  0
LINE
  8
PT3-Grafika_wekt5
  6
CONTINUOUS
 62
     7
 10
48.8659
 20
145.598600000000000
 11
48.8702
 21
145.598600000000000
  0
LINE
  8
PT3-Grafika_wekt5
  6
CONTINUOUS
 62
     7
 10
48.8659
 20
145.898399999999980
 11
48.8702
 21
145.898399999999980
  0
LINE
  8
PT3-Grafika_wekt5
  6
CONTINUOUS
 62
     7
 10
48.8717
 20
145.598600000000000
 11
49.3507
 21
145.598600000000000
  0
LINE
  8
PT3-Grafika_wekt5
  6
CONTINUOUS
 62
     7
 10
48.8615
 20
145.598600000000000
 11
48.8615
 21
145.898399999999980
  0
LINE
  8
PT3-Grafika_wekt5
  6
CONTINUOUS
 62
     7
 10
48.8615
 20
145.898399999999980
 11
48.863
 21
145.898399999999980
  0
LINE
  8
PT3-Grafika_wekt5
  6
CONTINUOUS
 62
     7
 10
48.863
 20
145.898399999999980
 11
48.863
 21
145.598600000000000
  0
LINE
  8
PT3-Grafika_wekt5
  6
CONTINUOUS
 62
     7
 10
48.863
 20
145.598600000000000
 11
48.8615
 21
145.598600000000000
  0
LINE
  8
PT3-Grafika_wekt5
  6
CONTINUOUS
 62
     7
 10
48.863
 20
145.598600000000000
 11
48.8644
 21
145.598600000000000
  0
LINE
  8
PT3-Grafika_wekt5
  6
CONTINUOUS
 62
     7
 10
48.863
 20
145.898399999999980
 11
48.8644
 21
145.898399999999980
  0
LINE
  8
PT3-Grafika_wekt5
  6
CONTINUOUS
 62
     7
 10
48.8659
 20
145.598600000000000
 11
48.8702
 21
145.598600000000000
  0
LINE
  8
PT3-Grafika_wekt5
  6
CONTINUOUS
 62
     7
 10
48.8717
 20
145.598600000000000
 11
49.3507
 21
145.598600000000000
  0
LINE
  8
PT3-Grafika_wekt5
  6
CONTINUOUS
 62
     7
 10
48.8702
 20
145.598600000000000
 11
48.8702
 21
145.898399999999980
  0
LINE
  8
PT3-Grafika_wekt5
  6
CONTINUOUS
 62
     7
 10
48.8702
 20
145.898399999999980
 11
48.8717
 21
145.898399999999980
  0
LINE
  8
PT3-Grafika_wekt5
  6
CONTINUOUS
 62
     7
 10
48.8717
 20
145.898399999999980
 11
48.8717
 21
145.598600000000000
  0
LINE
  8
PT3-Grafika_wekt5
  6
CONTINUOUS
 62
     7
 10
48.8717
 20
145.598600000000000
 11
48.8702
 21
145.598600000000000
  0
LINE
  8
PT3-Grafika_wekt5
  6
CONTINUOUS
 62
     7
 10
48.8717
 20
145.598600000000000
 11
49.3507
 21
145.598600000000000
  0
LINE
  8
PT3-Grafika_wekt5
  6
CONTINUOUS
 62
     7
 10
48.8717
 20
145.898399999999980
 11
49.3507
 21
145.898399999999980
  0
LINE
  8
PT3-Grafika_wekt5
  6
CONTINUOUS
 62
     7
 10
214.6117
 20
144.599200000000000
 11
214.6148
 21
144.599200000000000
  0
LINE
  8
PT3-Grafika_wekt5
  6
CONTINUOUS
 62
     7
 10
214.6117
 20
144.625200000000010
 11
215.1998
 21
145.557700000000010
  0
LINE
  8
PT3-Grafika_wekt5
  6
CONTINUOUS
 62
     7
 10
215.1998
 20
145.557700000000010
 11
215.1993
 21
145.557700000000010
  0
LINE
  8
PT3-Grafika_wekt5
  6
CONTINUOUS
 62
     7
 10
214.6117
 20
144.625299999999980
 11
214.9306
 21
145.131800000000000
  0
LINE
  8
PT3-Grafika_wekt5
  6
CONTINUOUS
 62
     7
 10
214.9306
 20
145.131800000000000
 11
214.9306
 21
145.153200000000000
  0
LINE
  8
PT3-Grafika_wekt5
  6
CONTINUOUS
 62
     7
 10
214.9306
 20
145.153200000000000
 11
214.6117
 21
144.638300000000020
  0
LINE
  8
PT3-Grafika_wekt5
  6
CONTINUOUS
 62
     7
 10
214.6117
 20
144.638499999999990
 11
215.1838
 21
145.571000000000000
  0
LINE
  8
PT3-Grafika_wekt5
  6
CONTINUOUS
 62
     7
 10
215.1838
 20
145.571000000000000
 11
215.1838
 21
145.567500000000000
  0
LINE
  8
PT3-Grafika_wekt5
  6
CONTINUOUS
 62
     7
 10
214.6153
 20
159.049300000000020
 11
215.1838
 21
158.124900000000000
  0
LINE
  8
PT3-Grafika_wekt5
  6
CONTINUOUS
 62
     7
 10
215.1838
 20
158.124900000000000
 11
215.1838
 21
145.571000000000000
  0
LINE
  8
PT3-Grafika_wekt5
  6
CONTINUOUS
 62
     7
 10
214.6203
 20
159.049300000000020
 11
214.8197
 21
158.716999999999980
  0
LINE
  8
PT3-Grafika_wekt5
  6
CONTINUOUS
 62
     7
 10
214.6204
 20
159.049300000000020
 11
215.1731
 21
158.132400000000020
  0
LINE
  8
PT3-Grafika_wekt5
  6
CONTINUOUS
 62
     7
 10
215.1731
 20
158.132400000000020
 11
228.2878
 21
158.132400000000020
  0
LINE
  8
PT3-Grafika_wekt5
  6
CONTINUOUS
 62
     7
 10
228.2878
 20
158.132400000000020
 11
228.8502
 21
159.049300000000020
  0
LINE
  8
PT3-Grafika_wekt5
  6
CONTINUOUS
 62
     7
 10
228.8502
 20
159.049300000000020
 11
228.2818
 21
158.124900000000000
  0
LINE
  8
PT3-Grafika_wekt5
  6
CONTINUOUS
 62
     7
 10
228.2818
 20
158.124900000000000
 11
228.2818
 21
145.571000000000000
  0
LINE
  8
PT3-Grafika_wekt5
  6
CONTINUOUS
 62
     7
 10
228.2818
 20
145.571000000000000
 11
228.8758
 21
144.602700000000000
  0
LINE
  8
PT3-Grafika_wekt5
  6
CONTINUOUS
 62
     7
 10
228.8758
 20
144.602700000000000
 11
228.7144
 21
144.863299999999980
  0
LINE
  8
PT3-Grafika_wekt5
  6
CONTINUOUS
 62
     7
 10
214.721
 20
144.803100000000000
 11
214.721
 21
144.814700000000020
  0
LINE
  8
PT3-Grafika_wekt5
  6
CONTINUOUS
 62
     7
 10
214.9306
 20
145.131500000000020
 11
214.9306
 21
145.158199999999990
  0
LINE
  8
PT3-Grafika_wekt5
  6
CONTINUOUS
 62
     7
 10
215.1998
 20
145.557700000000010
 11
228.2876
 21
145.557700000000010
  0
LINE
  8
PT3-Grafika_wekt5
  6
CONTINUOUS
 62
     7
 10
215.232
 20
158.132400000000020
 11
215.5376
 21
157.647800000000020
  0
LINE
  8
PT3-Grafika_wekt5
  6
CONTINUOUS
 62
     7
 10
215.5376
 20
157.647800000000020
 11
221.0549
 21
157.647800000000020
  0
LINE
  8
PT3-Grafika_wekt5
  6
CONTINUOUS
 62
     7
 10
215.2336
 20
158.129900000000020
 11
215.5037
 21
157.701500000000010
  0
LINE
  8
PT3-Grafika_wekt5
  6
CONTINUOUS
 62
     7
 10
215.5037
 20
157.701500000000010
 11
215.2359
 21
158.126300000000010
  0
LINE
  8
PT3-Grafika_wekt5
  6
CONTINUOUS
 62
     7
 10
215.2357
 20
145.557700000000010
 11
215.5385
 21
146.035200000000000
  0
LINE
  8
PT3-Grafika_wekt5
  6
CONTINUOUS
 62
     7
 10
215.5385
 20
146.035200000000000
 11
215.5385
 21
157.643300000000010
  0
LINE
  8
PT3-Grafika_wekt5
  6
CONTINUOUS
 62
     7
 10
215.5385
 20
157.643300000000010
 11
215.232
 21
158.132400000000020
  0
LINE
  8
PT3-Grafika_wekt5
  6
CONTINUOUS
 62
     7
 10
215.237
 20
145.557700000000010
 11
215.4625
 21
145.915300000000000
  0
LINE
  8
PT3-Grafika_wekt5
  6
CONTINUOUS
 62
     7
 10
215.4675
 20
145.923200000000010
 11
215.237
 21
145.557700000000010
  0
LINE
  8
PT3-Grafika_wekt5
  6
CONTINUOUS
 62
     7
 10
215.5037
 20
157.698700000000000
 11
215.5037
 21
157.701500000000010
  0
LINE
  8
PT3-Grafika_wekt5
  6
CONTINUOUS
 62
     7
 10
215.538
 20
146.034400000000010
 11
221.0549
 21
146.034400000000010
  0
LINE
  8
PT3-Grafika_wekt5
  6
CONTINUOUS
 62
     7
 10
221.0542
 20
146.034400000000010
 11
221.3562
 21
145.557700000000010
  0
LINE
  8
PT3-Grafika_wekt5
  6
CONTINUOUS
 62
     7
 10
221.0542
 20
157.647800000000020
 11
221.3343
 21
158.089900000000000
  0
LINE
  8
PT3-Grafika_wekt5
  6
CONTINUOUS
 62
     7
 10
221.0545
 20
146.035200000000000
 11
221.0545
 21
146.036900000000000
  0
LINE
  8
PT3-Grafika_wekt5
  6
CONTINUOUS
 62
     7
 10
221.0545
 20
146.035200000000000
 11
221.3572
 21
145.557700000000010
  0
LINE
  8
PT3-Grafika_wekt5
  6
CONTINUOUS
 62
     7
 10
221.0545
 20
157.643300000000010
 11
221.0545
 21
146.035200000000000
  0
LINE
  8
PT3-Grafika_wekt5
  6
CONTINUOUS
 62
     7
 10
221.0966
 20
145.968200000000000
 11
221.0966
 21
145.968700000000010
  0
LINE
  8
PT3-Grafika_wekt5
  6
CONTINUOUS
 62
     7
 10
221.0966
 20
157.710600000000000
 11
221.0966
 21
157.714100000000000
  0
LINE
  8
PT3-Grafika_wekt5
  6
CONTINUOUS
 62
     7
 10
221.3609
 20
158.132400000000020
 11
221.0545
 21
157.643300000000010
  0
LINE
  8
PT3-Grafika_wekt5
  6
CONTINUOUS
 62
     7
 10
221.4072
 20
145.557400000000000
 11
221.4072
 21
158.132600000000000
  0
LINE
  8
PT3-Grafika_wekt5
  6
CONTINUOUS
 62
     7
 10
221.4072
 20
158.132600000000000
 11
222.1243
 21
158.132600000000000
  0
LINE
  8
PT3-Grafika_wekt5
  6
CONTINUOUS
 62
     7
 10
222.1243
 20
158.132600000000000
 11
222.1243
 21
145.557400000000000
  0
LINE
  8
PT3-Grafika_wekt5
  6
CONTINUOUS
 62
     7
 10
222.1243
 20
145.557400000000000
 11
221.4072
 21
145.557400000000000
  0
LINE
  8
PT3-Grafika_wekt5
  6
CONTINUOUS
 62
     7
 10
222.156
 20
158.132400000000020
 11
222.4625
 21
157.643300000000010
  0
LINE
  8
PT3-Grafika_wekt5
  6
CONTINUOUS
 62
     7
 10
222.4625
 20
157.643300000000010
 11
222.4625
 21
146.035200000000000
  0
LINE
  8
PT3-Grafika_wekt5
  6
CONTINUOUS
 62
     7
 10
222.4625
 20
146.035200000000000
 11
222.1597
 21
145.557700000000010
  0
LINE
  8
PT3-Grafika_wekt5
  6
CONTINUOUS
 62
     7
 10
222.1576
 20
158.129900000000020
 11
222.4616
 21
157.647800000000020
  0
LINE
  8
PT3-Grafika_wekt5
  6
CONTINUOUS
 62
     7
 10
222.4616
 20
157.647800000000020
 11
227.9782
 21
157.647800000000020
  0
LINE
  8
PT3-Grafika_wekt5
  6
CONTINUOUS
 62
     7
 10
227.9782
 20
157.647800000000020
 11
228.2608
 21
158.093900000000020
  0
LINE
  8
PT3-Grafika_wekt5
  6
CONTINUOUS
 62
     7
 10
222.1599
 20
158.126300000000010
 11
222.417
 21
157.718599999999980
  0
LINE
  8
PT3-Grafika_wekt5
  6
CONTINUOUS
 62
     7
 10
222.417
 20
157.718599999999980
 11
222.162
 21
158.122799999999980
  0
LINE
  8
PT3-Grafika_wekt5
  6
CONTINUOUS
 62
     7
 10
222.161
 20
145.557700000000010
 11
222.3859
 21
145.914300000000000
  0
LINE
  8
PT3-Grafika_wekt5
  6
CONTINUOUS
 62
     7
 10
222.3909
 20
145.922200000000000
 11
222.161
 21
145.557700000000010
  0
LINE
  8
PT3-Grafika_wekt5
  6
CONTINUOUS
 62
     7
 10
222.417
 20
157.716000000000010
 11
222.417
 21
157.718599999999980
  0
LINE
  8
PT3-Grafika_wekt5
  6
CONTINUOUS
 62
     7
 10
222.462
 20
146.034400000000010
 11
227.9789
 21
146.034400000000010
  0
LINE
  8
PT3-Grafika_wekt5
  6
CONTINUOUS
 62
     7
 10
227.9782
 20
146.034400000000010
 11
228.2802
 21
145.557700000000010
  0
LINE
  8
PT3-Grafika_wekt5
  6
CONTINUOUS
 62
     7
 10
227.9785
 20
146.035200000000000
 11
227.9785
 21
146.036900000000000
  0
LINE
  8
PT3-Grafika_wekt5
  6
CONTINUOUS
 62
     7
 10
227.9785
 20
146.035200000000000
 11
228.2812
 21
145.557700000000010
  0
LINE
  8
PT3-Grafika_wekt5
  6
CONTINUOUS
 62
     7
 10
227.9785
 20
157.643300000000010
 11
227.9785
 21
146.035200000000000
  0
LINE
  8
PT3-Grafika_wekt5
  6
CONTINUOUS
 62
     7
 10
228.0099
 20
145.985200000000020
 11
228.0099
 21
145.985600000000010
  0
LINE
  8
PT3-Grafika_wekt5
  6
CONTINUOUS
 62
     7
 10
228.0099
 20
157.693400000000000
 11
228.0099
 21
157.697900000000000
  0
LINE
  8
PT3-Grafika_wekt5
  6
CONTINUOUS
 62
     7
 10
228.2558
 20
158.085899999999980
 11
228.0099
 21
157.693400000000000
  0
LINE
  8
PT3-Grafika_wekt5
  6
CONTINUOUS
 62
     7
 10
228.2849
 20
158.132400000000020
 11
227.9785
 21
157.643300000000010
  0
LINE
  8
PT3-Grafika_wekt5
  6
CONTINUOUS
 62
     7
 10
228.2857
 20
145.557700000000010
 11
228.8757
 21
144.599200000000000
  0
LINE
  8
PT3-Grafika_wekt5
  6
CONTINUOUS
 62
     7
 10
228.8757
 20
144.599200000000000
 11
228.8507
 21
144.599200000000000
  0
LINE
  8
PT3-Grafika_wekt5
  6
CONTINUOUS
 62
     7
 10
228.4495
 20
145.292399999999990
 11
228.5467
 21
145.139099999999980
  0
LINE
  8
PT3-Grafika_wekt5
  6
CONTINUOUS
 62
     7
 10
228.4827
 20
145.238100000000000
 11
228.5865
 21
145.074299999999990
  0
LINE
  8
PT3-Grafika_wekt5
  6
CONTINUOUS
 62
     7
 10
228.5478
 20
145.137200000000010
 11
228.5483
 21
145.136599999999990
  0
LINE
  8
PT3-Grafika_wekt5
  6
CONTINUOUS
 62
     7
 10
228.5868
 20
145.068500000000000
 11
228.59
 21
145.068500000000000
  0
LINE
  8
PT3-Grafika_wekt5
  6
CONTINUOUS
 62
     7
 10
228.7151
 20
144.862200000000000
 11
228.8723
 21
144.604800000000010
  0
LINE
  8
PT3-Grafika_wekt5
  6
CONTINUOUS
 62
     7
 10
228.8418
 20
159.035500000000010
 11
228.8502
 21
159.049300000000020
  0
LINE
  8
PT3-Grafika_wekt5
  6
CONTINUOUS
 62
     7
 10
228.8758
 20
144.602700000000000
 11
228.8758
 21
159.049300000000020
  0
LINE
  8
PT3-Grafika_wekt5
  6
CONTINUOUS
 62
     7
 10
247.8794
 20
144.599200000000000
 11
247.8825
 21
144.599200000000000
  0
LINE
  8
PT3-Grafika_wekt5
  6
CONTINUOUS
 62
     7
 10
247.8794
 20
144.625200000000010
 11
248.4674
 21
145.557700000000010
  0
LINE
  8
PT3-Grafika_wekt5
  6
CONTINUOUS
 62
     7
 10
248.4674
 20
145.557700000000010
 11
248.4669
 21
145.557700000000010
  0
LINE
  8
PT3-Grafika_wekt5
  6
CONTINUOUS
 62
     7
 10
247.8794
 20
144.625299999999980
 11
248.1982
 21
145.131800000000000
  0
LINE
  8
PT3-Grafika_wekt5
  6
CONTINUOUS
 62
     7
 10
248.1982
 20
145.131800000000000
 11
248.1982
 21
145.153200000000000
  0
LINE
  8
PT3-Grafika_wekt5
  6
CONTINUOUS
 62
     7
 10
248.1982
 20
145.153200000000000
 11
247.8794
 21
144.638300000000020
  0
LINE
  8
PT3-Grafika_wekt5
  6
CONTINUOUS
 62
     7
 10
247.8794
 20
144.638499999999990
 11
248.4514
 21
145.571000000000000
  0
LINE
  8
PT3-Grafika_wekt5
  6
CONTINUOUS
 62
     7
 10
248.4514
 20
145.571000000000000
 11
248.4514
 21
145.567500000000000
  0
LINE
  8
PT3-Grafika_wekt5
  6
CONTINUOUS
 62
     7
 10
247.8829
 20
159.049300000000020
 11
248.4514
 21
158.124900000000000
  0
LINE
  8
PT3-Grafika_wekt5
  6
CONTINUOUS
 62
     7
 10
248.4514
 20
158.124900000000000
 11
248.4514
 21
145.571000000000000
  0
LINE
  8
PT3-Grafika_wekt5
  6
CONTINUOUS
 62
     7
 10
247.8879
 20
159.049300000000020
 11
248.0873
 21
158.716999999999980
  0
LINE
  8
PT3-Grafika_wekt5
  6
CONTINUOUS
 62
     7
 10
247.8881
 20
159.049300000000020
 11
248.4408
 21
158.132400000000020
  0
LINE
  8
PT3-Grafika_wekt5
  6
CONTINUOUS
 62
     7
 10
248.4408
 20
158.132400000000020
 11
261.5554
 21
158.132400000000020
  0
LINE
  8
PT3-Grafika_wekt5
  6
CONTINUOUS
 62
     7
 10
261.5554
 20
158.132400000000020
 11
262.1178
 21
159.049300000000020
  0
LINE
  8
PT3-Grafika_wekt5
  6
CONTINUOUS
 62
     7
 10
262.1178
 20
159.049300000000020
 11
261.5494
 21
158.124900000000000
  0
LINE
  8
PT3-Grafika_wekt5
  6
CONTINUOUS
 62
     7
 10
261.5494
 20
158.124900000000000
 11
261.5494
 21
145.571000000000000
  0
LINE
  8
PT3-Grafika_wekt5
  6
CONTINUOUS
 62
     7
 10
261.5494
 20
145.571000000000000
 11
262.1434
 21
144.602700000000000
  0
LINE
  8
PT3-Grafika_wekt5
  6
CONTINUOUS
 62
     7
 10
262.1434
 20
144.602700000000000
 11
261.9821
 21
144.863299999999980
  0
LINE
  8
PT3-Grafika_wekt5
  6
CONTINUOUS
 62
     7
 10
247.9886
 20
144.803100000000000
 11
247.9886
 21
144.814700000000020
  0
LINE
  8
PT3-Grafika_wekt5
  6
CONTINUOUS
 62
     7
 10
248.1982
 20
145.131500000000020
 11
248.1982
 21
145.158199999999990
  0
LINE
  8
PT3-Grafika_wekt5
  6
CONTINUOUS
 62
     7
 10
248.4674
 20
145.557700000000010
 11
261.5552
 21
145.557700000000010
  0
LINE
  8
PT3-Grafika_wekt5
  6
CONTINUOUS
 62
     7
 10
248.4997
 20
158.132400000000020
 11
248.8052
 21
157.647800000000020
  0
LINE
  8
PT3-Grafika_wekt5
  6
CONTINUOUS
 62
     7
 10
248.8052
 20
157.647800000000020
 11
254.3226
 21
157.647800000000020
  0
LINE
  8
PT3-Grafika_wekt5
  6
CONTINUOUS
 62
     7
 10
248.5013
 20
158.129900000000020
 11
248.7714
 21
157.701500000000010
  0
LINE
  8
PT3-Grafika_wekt5
  6
CONTINUOUS
 62
     7
 10
248.7714
 20
157.701500000000010
 11
248.5035
 21
158.126300000000010
  0
LINE
  8
PT3-Grafika_wekt5
  6
CONTINUOUS
 62
     7
 10
248.5033
 20
145.557700000000010
 11
248.8062
 21
146.035200000000000
  0
LINE
  8
PT3-Grafika_wekt5
  6
CONTINUOUS
 62
     7
 10
248.8062
 20
146.035200000000000
 11
248.8062
 21
157.643300000000010
  0
LINE
  8
PT3-Grafika_wekt5
  6
CONTINUOUS
 62
     7
 10
248.8062
 20
157.643300000000010
 11
248.4997
 21
158.132400000000020
  0
LINE
  8
PT3-Grafika_wekt5
  6
CONTINUOUS
 62
     7
 10
248.5046
 20
145.557700000000010
 11
248.7302
 21
145.915300000000000
  0
LINE
  8
PT3-Grafika_wekt5
  6
CONTINUOUS
 62
     7
 10
248.7351
 20
145.923200000000010
 11
248.5046
 21
145.557700000000010
  0
LINE
  8
PT3-Grafika_wekt5
  6
CONTINUOUS
 62
     7
 10
248.7714
 20
157.698700000000000
 11
248.7714
 21
157.701500000000010
  0
LINE
  8
PT3-Grafika_wekt5
  6
CONTINUOUS
 62
     7
 10
248.8057
 20
146.034400000000010
 11
254.3226
 21
146.034400000000010
  0
LINE
  8
PT3-Grafika_wekt5
  6
CONTINUOUS
 62
     7
 10
254.3218
 20
146.034400000000010
 11
254.6239
 21
145.557700000000010
  0
LINE
  8
PT3-Grafika_wekt5
  6
CONTINUOUS
 62
     7
 10
254.3218
 20
157.647800000000020
 11
254.602
 21
158.089900000000000
  0
LINE
  8
PT3-Grafika_wekt5
  6
CONTINUOUS
 62
     7
 10
254.3221
 20
146.035200000000000
 11
254.3221
 21
146.036900000000000
  0
LINE
  8
PT3-Grafika_wekt5
  6
CONTINUOUS
 62
     7
 10
254.3221
 20
146.035200000000000
 11
254.6249
 21
145.557700000000010
  0
LINE
  8
PT3-Grafika_wekt5
  6
CONTINUOUS
 62
     7
 10
254.3221
 20
157.643300000000010
 11
254.3221
 21
146.035200000000000
  0
LINE
  8
PT3-Grafika_wekt5
  6
CONTINUOUS
 62
     7
 10
254.3643
 20
145.968200000000000
 11
254.3643
 21
145.968700000000010
  0
LINE
  8
PT3-Grafika_wekt5
  6
CONTINUOUS
 62
     7
 10
254.3643
 20
157.710600000000000
 11
254.3643
 21
157.714100000000000
  0
LINE
  8
PT3-Grafika_wekt5
  6
CONTINUOUS
 62
     7
 10
254.6286
 20
158.132400000000020
 11
254.3221
 21
157.643300000000010
  0
LINE
  8
PT3-Grafika_wekt5
  6
CONTINUOUS
 62
     7
 10
254.6748
 20
145.557400000000000
 11
254.6748
 21
158.132600000000000
  0
LINE
  8
PT3-Grafika_wekt5
  6
CONTINUOUS
 62
     7
 10
254.6748
 20
158.132600000000000
 11
255.3919
 21
158.132600000000000
  0
LINE
  8
PT3-Grafika_wekt5
  6
CONTINUOUS
 62
     7
 10
255.3919
 20
158.132600000000000
 11
255.3919
 21
145.557400000000000
  0
LINE
  8
PT3-Grafika_wekt5
  6
CONTINUOUS
 62
     7
 10
255.3919
 20
145.557400000000000
 11
254.6748
 21
145.557400000000000
  0
LINE
  8
PT3-Grafika_wekt5
  6
CONTINUOUS
 62
     7
 10
255.4237
 20
158.132400000000020
 11
255.7301
 21
157.643300000000010
  0
LINE
  8
PT3-Grafika_wekt5
  6
CONTINUOUS
 62
     7
 10
255.7301
 20
157.643300000000010
 11
255.7301
 21
146.035200000000000
  0
LINE
  8
PT3-Grafika_wekt5
  6
CONTINUOUS
 62
     7
 10
255.7301
 20
146.035200000000000
 11
255.4273
 21
145.557700000000010
  0
LINE
  8
PT3-Grafika_wekt5
  6
CONTINUOUS
 62
     7
 10
255.4253
 20
158.129900000000020
 11
255.7292
 21
157.647800000000020
  0
LINE
  8
PT3-Grafika_wekt5
  6
CONTINUOUS
 62
     7
 10
255.7292
 20
157.647800000000020
 11
261.2458
 21
157.647800000000020
  0
LINE
  8
PT3-Grafika_wekt5
  6
CONTINUOUS
 62
     7
 10
261.2458
 20
157.647800000000020
 11
261.5284
 21
158.093900000000020
  0
LINE
  8
PT3-Grafika_wekt5
  6
CONTINUOUS
 62
     7
 10
255.4275
 20
158.126300000000010
 11
255.6846
 21
157.718599999999980
  0
LINE
  8
PT3-Grafika_wekt5
  6
CONTINUOUS
 62
     7
 10
255.6846
 20
157.718599999999980
 11
255.4297
 21
158.122799999999980
  0
LINE
  8
PT3-Grafika_wekt5
  6
CONTINUOUS
 62
     7
 10
255.4286
 20
145.557700000000010
 11
255.6536
 21
145.914300000000000
  0
LINE
  8
PT3-Grafika_wekt5
  6
CONTINUOUS
 62
     7
 10
255.6585
 20
145.922200000000000
 11
255.4286
 21
145.557700000000010
  0
LINE
  8
PT3-Grafika_wekt5
  6
CONTINUOUS
 62
     7
 10
255.6846
 20
157.716000000000010
 11
255.6846
 21
157.718599999999980
  0
LINE
  8
PT3-Grafika_wekt5
  6
CONTINUOUS
 62
     7
 10
255.7296
 20
146.034400000000010
 11
261.2466
 21
146.034400000000010
  0
LINE
  8
PT3-Grafika_wekt5
  6
CONTINUOUS
 62
     7
 10
261.2458
 20
146.034400000000010
 11
261.5479
 21
145.557700000000010
  0
LINE
  8
PT3-Grafika_wekt5
  6
CONTINUOUS
 62
     7
 10
261.2461
 20
146.035200000000000
 11
261.2461
 21
146.036900000000000
  0
LINE
  8
PT3-Grafika_wekt5
  6
CONTINUOUS
 62
     7
 10
261.2461
 20
146.035200000000000
 11
261.5489
 21
145.557700000000010
  0
LINE
  8
PT3-Grafika_wekt5
  6
CONTINUOUS
 62
     7
 10
261.2461
 20
157.643300000000010
 11
261.2461
 21
146.035200000000000
  0
LINE
  8
PT3-Grafika_wekt5
  6
CONTINUOUS
 62
     7
 10
261.2775
 20
145.985200000000020
 11
261.2775
 21
145.985600000000010
  0
LINE
  8
PT3-Grafika_wekt5
  6
CONTINUOUS
 62
     7
 10
261.2775
 20
157.693400000000000
 11
261.2775
 21
157.697900000000000
  0
LINE
  8
PT3-Grafika_wekt5
  6
CONTINUOUS
 62
     7
 10
261.5234
 20
158.085899999999980
 11
261.2775
 21
157.693400000000000
  0
LINE
  8
PT3-Grafika_wekt5
  6
CONTINUOUS
 62
     7
 10
261.5526
 20
158.132400000000020
 11
261.2461
 21
157.643300000000010
  0
LINE
  8
PT3-Grafika_wekt5
  6
CONTINUOUS
 62
     7
 10
261.5533
 20
145.557700000000010
 11
262.1433
 21
144.599200000000000
  0
LINE
  8
PT3-Grafika_wekt5
  6
CONTINUOUS
 62
     7
 10
262.1433
 20
144.599200000000000
 11
262.1183
 21
144.599200000000000
  0
LINE
  8
PT3-Grafika_wekt5
  6
CONTINUOUS
 62
     7
 10
261.7172
 20
145.292399999999990
 11
261.8144
 21
145.139099999999980
  0
LINE
  8
PT3-Grafika_wekt5
  6
CONTINUOUS
 62
     7
 10
261.7503
 20
145.238100000000000
 11
261.8541
 21
145.074299999999990
  0
LINE
  8
PT3-Grafika_wekt5
  6
CONTINUOUS
 62
     7
 10
261.8155
 20
145.137200000000010
 11
261.8159
 21
145.136599999999990
  0
LINE
  8
PT3-Grafika_wekt5
  6
CONTINUOUS
 62
     7
 10
261.8544
 20
145.068500000000000
 11
261.8577
 21
145.068500000000000
  0
LINE
  8
PT3-Grafika_wekt5
  6
CONTINUOUS
 62
     7
 10
261.9827
 20
144.862200000000000
 11
262.1399
 21
144.604800000000010
  0
LINE
  8
PT3-Grafika_wekt5
  6
CONTINUOUS
 62
     7
 10
262.1094
 20
159.035500000000010
 11
262.1178
 21
159.049300000000020
  0
LINE
  8
PT3-Grafika_wekt5
  6
CONTINUOUS
 62
     7
 10
262.1434
 20
144.602700000000000
 11
262.1434
 21
159.049300000000020
  0
LINE
  8
PT3-Grafika_wekt5
  6
CONTINUOUS
 62
     7
 10
214.5898
 20
144.295700000000010
 11
214.5898
 21
144.297399999999980
  0
LINE
  8
PT3-Grafika_wekt5
  6
CONTINUOUS
 62
     7
 10
214.5898
 20
144.295700000000010
 11
214.6316
 21
144.245499999999990
  0
LINE
  8
PT3-Grafika_wekt5
  6
CONTINUOUS
 62
     7
 10
214.6316
 20
144.245499999999990
 11
214.6734
 21
144.295300000000000
  0
LINE
  8
PT3-Grafika_wekt5
  6
CONTINUOUS
 62
     7
 10
214.6734
 20
144.295300000000000
 11
214.6734
 21
144.558499999999980
  0
LINE
  8
PT3-Grafika_wekt5
  6
CONTINUOUS
 62
     7
 10
214.6734
 20
144.558499999999980
 11
214.6316
 21
144.608700000000000
  0
LINE
  8
PT3-Grafika_wekt5
  6
CONTINUOUS
 62
     7
 10
214.6316
 20
144.608700000000000
 11
214.5898
 21
144.558899999999990
  0
LINE
  8
PT3-Grafika_wekt5
  6
CONTINUOUS
 62
     7
 10
214.5898
 20
144.558899999999990
 11
214.5898
 21
144.295700000000010
  0
LINE
  8
PT3-Grafika_wekt5
  6
CONTINUOUS
 62
     7
 10
214.5898
 20
144.558899999999990
 11
214.5898
 21
144.560599999999990
  0
LINE
  8
PT3-Grafika_wekt5
  6
CONTINUOUS
 62
     7
 10
214.6117
 20
144.595399999999980
 11
214.6316
 21
144.619200000000010
  0
LINE
  8
PT3-Grafika_wekt5
  6
CONTINUOUS
 62
     7
 10
214.6316
 20
144.619200000000010
 11
214.6316
 21
144.608700000000000
  0
LINE
  8
PT3-Grafika_wekt5
  6
CONTINUOUS
 62
     7
 10
214.6316
 20
144.608700000000000
 11
228.8341
 21
144.608700000000000
  0
LINE
  8
PT3-Grafika_wekt5
  6
CONTINUOUS
 62
     7
 10
228.8341
 20
144.608700000000000
 11
228.7924
 21
144.558499999999980
  0
LINE
  8
PT3-Grafika_wekt5
  6
CONTINUOUS
 62
     7
 10
228.7924
 20
144.558499999999980
 11
214.6734
 21
144.558499999999980
  0
LINE
  8
PT3-Grafika_wekt5
  6
CONTINUOUS
 62
     7
 10
214.6316
 20
144.619200000000010
 11
228.8341
 21
144.619200000000010
  0
LINE
  8
PT3-Grafika_wekt5
  6
CONTINUOUS
 62
     7
 10
228.8341
 20
144.619200000000010
 11
228.8341
 21
144.608700000000000
  0
LINE
  8
PT3-Grafika_wekt5
  6
CONTINUOUS
 62
     7
 10
228.8341
 20
144.608700000000000
 11
228.8759
 21
144.558899999999990
  0
LINE
  8
PT3-Grafika_wekt5
  6
CONTINUOUS
 62
     7
 10
228.8759
 20
144.558899999999990
 11
228.8758
 21
144.569000000000020
  0
LINE
  8
PT3-Grafika_wekt5
  6
CONTINUOUS
 62
     7
 10
228.8758
 20
144.569000000000020
 11
228.8341
 21
144.619200000000010
  0
LINE
  8
PT3-Grafika_wekt5
  6
CONTINUOUS
 62
     7
 10
214.6316
 20
144.245499999999990
 11
228.8341
 21
144.245499999999990
  0
LINE
  8
PT3-Grafika_wekt5
  6
CONTINUOUS
 62
     7
 10
228.8341
 20
144.245499999999990
 11
228.7924
 21
144.295300000000000
  0
LINE
  8
PT3-Grafika_wekt5
  6
CONTINUOUS
 62
     7
 10
228.7924
 20
144.295300000000000
 11
214.6734
 21
144.295300000000000
  0
LINE
  8
PT3-Grafika_wekt5
  6
CONTINUOUS
 62
     7
 10
215.467
 20
144.609600000000000
 11
215.467
 21
144.610700000000010
  0
LINE
  8
PT3-Grafika_wekt5
  6
CONTINUOUS
 62
     7
 10
215.467
 20
144.610700000000010
 11
227.9987
 21
144.610700000000010
  0
LINE
  8
PT3-Grafika_wekt5
  6
CONTINUOUS
 62
     7
 10
227.9987
 20
144.610700000000010
 11
227.9987
 21
144.609600000000000
  0
LINE
  8
PT3-Grafika_wekt5
  6
CONTINUOUS
 62
     7
 10
227.9987
 20
144.609600000000000
 11
215.467
 21
144.609600000000000
  0
LINE
  8
PT3-Grafika_wekt5
  6
CONTINUOUS
 62
     7
 10
228.7924
 20
144.295300000000000
 11
228.7924
 21
144.558499999999980
  0
LINE
  8
PT3-Grafika_wekt5
  6
CONTINUOUS
 62
     7
 10
228.8341
 20
144.245499999999990
 11
228.8759
 21
144.295700000000010
  0
LINE
  8
PT3-Grafika_wekt5
  6
CONTINUOUS
 62
     7
 10
228.8759
 20
144.295700000000010
 11
228.8759
 21
144.558899999999990
  0
LINE
  8
PT3-Grafika_wekt5
  6
CONTINUOUS
 62
     7
 10
228.8747
 20
144.570300000000000
 11
228.8758
 21
144.569200000000000
  0
LINE
  8
PT3-Grafika_wekt5
  6
CONTINUOUS
 62
     7
 10
228.8758
 20
144.569200000000000
 11
228.8757
 21
144.569200000000000
  0
LINE
  8
PT3-Grafika_wekt5
  6
CONTINUOUS
 62
     7
 10
228.8758
 20
144.569000000000020
 11
228.8758
 21
144.569200000000000
  0
LINE
  8
PT3-Grafika_wekt5
  6
CONTINUOUS
 62
     7
 10
247.8574
 20
144.295700000000010
 11
247.8574
 21
144.297399999999980
  0
LINE
  8
PT3-Grafika_wekt5
  6
CONTINUOUS
 62
     7
 10
247.8574
 20
144.295700000000010
 11
247.8992
 21
144.245499999999990
  0
LINE
  8
PT3-Grafika_wekt5
  6
CONTINUOUS
 62
     7
 10
247.8992
 20
144.245499999999990
 11
247.941
 21
144.295300000000000
  0
LINE
  8
PT3-Grafika_wekt5
  6
CONTINUOUS
 62
     7
 10
247.941
 20
144.295300000000000
 11
247.941
 21
144.558499999999980
  0
LINE
  8
PT3-Grafika_wekt5
  6
CONTINUOUS
 62
     7
 10
247.941
 20
144.558499999999980
 11
247.8992
 21
144.608700000000000
  0
LINE
  8
PT3-Grafika_wekt5
  6
CONTINUOUS
 62
     7
 10
247.8992
 20
144.608700000000000
 11
247.8574
 21
144.558899999999990
  0
LINE
  8
PT3-Grafika_wekt5
  6
CONTINUOUS
 62
     7
 10
247.8574
 20
144.558899999999990
 11
247.8574
 21
144.295700000000010
  0
LINE
  8
PT3-Grafika_wekt5
  6
CONTINUOUS
 62
     7
 10
247.8574
 20
144.558899999999990
 11
247.8574
 21
144.560599999999990
  0
LINE
  8
PT3-Grafika_wekt5
  6
CONTINUOUS
 62
     7
 10
247.8794
 20
144.595399999999980
 11
247.8991
 21
144.619200000000010
  0
LINE
  8
PT3-Grafika_wekt5
  6
CONTINUOUS
 62
     7
 10
247.8991
 20
144.619200000000010
 11
247.8992
 21
144.608700000000000
  0
LINE
  8
PT3-Grafika_wekt5
  6
CONTINUOUS
 62
     7
 10
247.8992
 20
144.608700000000000
 11
262.1018
 21
144.608700000000000
  0
LINE
  8
PT3-Grafika_wekt5
  6
CONTINUOUS
 62
     7
 10
262.1018
 20
144.608700000000000
 11
262.0601
 21
144.558499999999980
  0
LINE
  8
PT3-Grafika_wekt5
  6
CONTINUOUS
 62
     7
 10
262.0601
 20
144.558499999999980
 11
247.941
 21
144.558499999999980
  0
LINE
  8
PT3-Grafika_wekt5
  6
CONTINUOUS
 62
     7
 10
247.8991
 20
144.619200000000010
 11
262.1017
 21
144.619200000000010
  0
LINE
  8
PT3-Grafika_wekt5
  6
CONTINUOUS
 62
     7
 10
262.1017
 20
144.619200000000010
 11
262.1018
 21
144.608700000000000
  0
LINE
  8
PT3-Grafika_wekt5
  6
CONTINUOUS
 62
     7
 10
262.1018
 20
144.608700000000000
 11
262.1435
 21
144.558899999999990
  0
LINE
  8
PT3-Grafika_wekt5
  6
CONTINUOUS
 62
     7
 10
262.1435
 20
144.558899999999990
 11
262.1434
 21
144.569000000000020
  0
LINE
  8
PT3-Grafika_wekt5
  6
CONTINUOUS
 62
     7
 10
262.1434
 20
144.569000000000020
 11
262.1017
 21
144.619200000000010
  0
LINE
  8
PT3-Grafika_wekt5
  6
CONTINUOUS
 62
     7
 10
247.8992
 20
144.245499999999990
 11
262.1018
 21
144.245499999999990
  0
LINE
  8
PT3-Grafika_wekt5
  6
CONTINUOUS
 62
     7
 10
262.1018
 20
144.245499999999990
 11
262.0601
 21
144.295300000000000
  0
LINE
  8
PT3-Grafika_wekt5
  6
CONTINUOUS
 62
     7
 10
262.0601
 20
144.295300000000000
 11
247.941
 21
144.295300000000000
  0
LINE
  8
PT3-Grafika_wekt5
  6
CONTINUOUS
 62
     7
 10
248.7346
 20
144.609600000000000
 11
248.7346
 21
144.610700000000010
  0
LINE
  8
PT3-Grafika_wekt5
  6
CONTINUOUS
 62
     7
 10
248.7346
 20
144.610700000000010
 11
261.2663
 21
144.610700000000010
  0
LINE
  8
PT3-Grafika_wekt5
  6
CONTINUOUS
 62
     7
 10
261.2663
 20
144.610700000000010
 11
261.2663
 21
144.609600000000000
  0
LINE
  8
PT3-Grafika_wekt5
  6
CONTINUOUS
 62
     7
 10
261.2663
 20
144.609600000000000
 11
248.7346
 21
144.609600000000000
  0
LINE
  8
PT3-Grafika_wekt5
  6
CONTINUOUS
 62
     7
 10
262.0601
 20
144.295300000000000
 11
262.0601
 21
144.558499999999980
  0
LINE
  8
PT3-Grafika_wekt5
  6
CONTINUOUS
 62
     7
 10
262.1018
 20
144.245499999999990
 11
262.1435
 21
144.295700000000010
  0
LINE
  8
PT3-Grafika_wekt5
  6
CONTINUOUS
 62
     7
 10
262.1435
 20
144.295700000000010
 11
262.1435
 21
144.558899999999990
  0
LINE
  8
PT3-Grafika_wekt5
  6
CONTINUOUS
 62
     7
 10
262.1423
 20
144.570300000000000
 11
262.1434
 21
144.569200000000000
  0
LINE
  8
PT3-Grafika_wekt5
  6
CONTINUOUS
 62
     7
 10
262.1434
 20
144.569200000000000
 11
262.1433
 21
144.569200000000000
  0
LINE
  8
PT3-Grafika_wekt5
  6
CONTINUOUS
 62
     7
 10
262.1434
 20
144.569000000000020
 11
262.1434
 21
144.569200000000000
  0
LINE
  8
PT3-Grafika_wekt5
  6
CONTINUOUS
 62
     7
 10
214.8391
 20
145.005600000000020
 11
214.8511
 21
145.005600000000020
  0
LINE
  8
PT3-Grafika_wekt5
  6
CONTINUOUS
 62
     7
 10
208.196
 20
179.079299999999990
 11
208.6955
 21
179.079299999999990
  0
LINE
  8
PT3-Grafika_wekt5
  6
CONTINUOUS
 62
     7
 10
208.6955
 20
179.079299999999990
 11
208.6955
 21
179.379099999999990
  0
LINE
  8
PT3-Grafika_wekt5
  6
CONTINUOUS
 62
     7
 10
208.6955
 20
179.379099999999990
 11
208.196
 21
179.379099999999990
  0
LINE
  8
PT3-Grafika_wekt5
  6
CONTINUOUS
 62
     7
 10
121.3306
 20
179.079299999999990
 11
121.3306
 21
179.379099999999990
  0
LINE
  8
PT3-Grafika_wekt5
  6
CONTINUOUS
 62
     7
 10
121.3306
 20
179.379099999999990
 11
122.0299
 21
180.078800000000000
  0
LINE
  8
PT3-Grafika_wekt5
  6
CONTINUOUS
 62
     7
 10
122.0299
 20
180.078800000000000
 11
122.0299
 21
190.372799999999980
  0
LINE
  8
PT3-Grafika_wekt5
  6
CONTINUOUS
 62
     7
 10
122.0299
 20
190.372799999999980
 11
121.3306
 21
191.072400000000020
  0
LINE
  8
PT3-Grafika_wekt5
  6
CONTINUOUS
 62
     7
 10
121.3306
 20
191.072400000000020
 11
136.316
 21
191.072400000000020
  0
LINE
  8
PT3-Grafika_wekt5
  6
CONTINUOUS
 62
     7
 10
136.316
 20
191.072400000000020
 11
135.6167
 21
190.372799999999980
  0
LINE
  8
PT3-Grafika_wekt5
  6
CONTINUOUS
 62
     7
 10
135.6167
 20
190.372799999999980
 11
122.0299
 21
190.372799999999980
  0
LINE
  8
PT3-Grafika_wekt5
  6
CONTINUOUS
 62
     7
 10
121.3306
 20
179.379099999999990
 11
136.316
 21
179.379099999999990
  0
LINE
  8
PT3-Grafika_wekt5
  6
CONTINUOUS
 62
     7
 10
136.316
 20
179.379099999999990
 11
135.6167
 21
180.078800000000000
  0
LINE
  8
PT3-Grafika_wekt5
  6
CONTINUOUS
 62
     7
 10
135.6167
 20
180.078800000000000
 11
122.0299
 21
180.078800000000000
  0
LINE
  8
PT3-Grafika_wekt5
  6
CONTINUOUS
 62
     7
 10
135.6167
 20
180.078800000000000
 11
135.6167
 21
190.372799999999980
  0
LINE
  8
PT3-Grafika_wekt5
  6
CONTINUOUS
 62
     7
 10
136.316
 20
179.079299999999990
 11
121.3306
 21
179.079299999999990
  0
LINE
  8
PT3-Grafika_wekt5
  6
CONTINUOUS
 62
     7
 10
136.316
 20
179.379099999999990
 11
136.316
 21
179.079299999999990
  0
LINE
  8
PT3-Grafika_wekt5
  6
CONTINUOUS
 62
     7
 10
492.1967
 20
167.380900000000000
 11
494.0603
 21
167.380900000000000
  0
LINE
  8
PT3-Grafika_wekt5
  6
CONTINUOUS
 62
     7
 10
494.0603
 20
167.380900000000000
 11
494.0137
 21
167.380900000000000
  0
LINE
  8
PT3-Grafika_wekt5
  6
CONTINUOUS
 62
     7
 10
494.0137
 20
167.380900000000000
 11
494.3105
 21
168.228999999999980
  0
LINE
  8
PT3-Grafika_wekt5
  6
CONTINUOUS
 62
     7
 10
494.3105
 20
168.228999999999980
 11
494.4041
 21
168.228999999999980
  0
LINE
  8
PT3-Grafika_wekt5
  6
CONTINUOUS
 62
     7
 10
494.4041
 20
168.228999999999980
 11
494.1072
 21
167.380900000000000
  0
LINE
  8
PT3-Grafika_wekt5
  6
CONTINUOUS
 62
     7
 10
494.1072
 20
167.380900000000000
 11
494.0603
 21
167.380900000000000
  0
LINE
  8
PT3-Grafika_wekt5
  6
CONTINUOUS
 62
     7
 10
494.0603
 20
167.380900000000000
 11
514.6215
 21
162.448800000000010
  0
LINE
  8
PT3-Grafika_wekt5
  6
CONTINUOUS
 62
     7
 10
492.1998
 20
167.388499999999990
 11
492.3203
 21
167.472199999999990
  0
LINE
  8
PT3-Grafika_wekt5
  6
CONTINUOUS
 62
     7
 10
492.3203
 20
167.472199999999990
 11
494.0046
 21
167.472199999999990
  0
LINE
  8
PT3-Grafika_wekt5
  6
CONTINUOUS
 62
     7
 10
494.0046
 20
167.472199999999990
 11
494.0307
 21
167.429599999999990
  0
LINE
  8
PT3-Grafika_wekt5
  6
CONTINUOUS
 62
     7
 10
492.4934
 20
168.228999999999980
 11
494.3573
 21
168.228999999999980
  0
LINE
  8
PT3-Grafika_wekt5
  6
CONTINUOUS
 62
     7
 10
494.3573
 20
168.228999999999980
 11
494.3573
 21
168.428800000000000
  0
LINE
  8
PT3-Grafika_wekt5
  6
CONTINUOUS
 62
     7
 10
494.3573
 20
168.428800000000000
 11
492.4934
 21
168.428800000000000
  0
LINE
  8
PT3-Grafika_wekt5
  6
CONTINUOUS
 62
     7
 10
492.4934
 20
170.227800000000000
 11
494.3573
 21
170.227800000000000
  0
LINE
  8
PT3-Grafika_wekt5
  6
CONTINUOUS
 62
     7
 10
494.3573
 20
170.227800000000000
 11
494.3573
 21
168.428800000000000
  0
LINE
  8
PT3-Grafika_wekt5
  6
CONTINUOUS
 62
     7
 10
494.3573
 20
168.428800000000000
 11
519.2871
 21
162.448800000000010
  0
LINE
  8
PT3-Grafika_wekt5
  6
CONTINUOUS
 62
     7
 10
494.0046
 20
167.472199999999990
 11
494.0424
 21
167.463100000000000
  0
LINE
  8
PT3-Grafika_wekt5
  6
CONTINUOUS
 62
     7
 10
494.0137
 20
167.380900000000000
 11
514.5748
 21
162.448800000000010
  0
LINE
  8
PT3-Grafika_wekt5
  6
CONTINUOUS
 62
     7
 10
494.1072
 20
167.380900000000000
 11
514.6682
 21
162.448800000000010
  0
LINE
  8
PT3-Grafika_wekt5
  6
CONTINUOUS
 62
     7
 10
494.3573
 20
170.227800000000000
 11
526.7866
 21
162.448800000000010
  0
LINE
  8
PT3-Grafika_wekt5
  6
CONTINUOUS
 62
     7
 10
494.4041
 20
168.228999999999980
 11
518.5006
 21
162.448800000000010
  0
LINE
  8
PT3-Grafika_wekt5
  6
CONTINUOUS
 62
     7
 10
505.6845
 20
164.143700000000000
 11
512.75
 21
162.448800000000010
  0
LINE
  8
PT3-Grafika_wekt5
  6
CONTINUOUS
 62
     7
 10
526.2805
 20
160.582699999999990
 11
536.4721
 21
158.137900000000000
  0
LINE
  8
PT3-Grafika_wekt5
  6
CONTINUOUS
 62
     7
 10
536.4721
 20
158.137900000000000
 11
536.1752
 21
157.289800000000010
  0
LINE
  8
PT3-Grafika_wekt5
  6
CONTINUOUS
 62
     7
 10
536.1752
 20
157.289800000000010
 11
526.8096
 21
159.536499999999990
  0
LINE
  8
PT3-Grafika_wekt5
  6
CONTINUOUS
 62
     7
 10
526.3811
 20
160.747099999999990
 11
536.4253
 21
158.337800000000020
  0
LINE
  8
PT3-Grafika_wekt5
  6
CONTINUOUS
 62
     7
 10
536.4253
 20
158.337800000000020
 11
536.4253
 21
158.149100000000000
  0
LINE
  8
PT3-Grafika_wekt5
  6
CONTINUOUS
 62
     7
 10
526.8096
 20
159.076300000000000
 11
534.16
 21
157.313100000000020
  0
LINE
  8
PT3-Grafika_wekt5
  6
CONTINUOUS
 62
     7
 10
534.16
 20
157.313100000000020
 11
533.5041
 21
156.793600000000000
  0
LINE
  8
PT3-Grafika_wekt5
  6
CONTINUOUS
 62
     7
 10
533.5041
 20
156.793600000000000
 11
533.488
 21
156.793600000000000
  0
LINE
  8
PT3-Grafika_wekt5
  6
CONTINUOUS
 62
     7
 10
526.8096
 20
159.514000000000010
 11
536.0816
 21
157.289800000000010
  0
LINE
  8
PT3-Grafika_wekt5
  6
CONTINUOUS
 62
     7
 10
536.0816
 20
157.289800000000010
 11
536.1752
 21
157.289800000000010
  0
LINE
  8
PT3-Grafika_wekt5
  6
CONTINUOUS
 62
     7
 10
526.8096
 20
159.525199999999980
 11
536.1284
 21
157.289800000000010
  0
LINE
  8
PT3-Grafika_wekt5
  6
CONTINUOUS
 62
     7
 10
536.1284
 20
157.289800000000010
 11
534.2569
 21
157.289800000000010
  0
LINE
  8
PT3-Grafika_wekt5
  6
CONTINUOUS
 62
     7
 10
534.2569
 20
157.289800000000010
 11
533.5041
 21
156.693600000000000
  0
LINE
  8
PT3-Grafika_wekt5
  6
CONTINUOUS
 62
     7
 10
533.5041
 20
156.693600000000000
 11
533.488
 21
156.693600000000000
  0
LINE
  8
PT3-Grafika_wekt5
  6
CONTINUOUS
 62
     7
 10
527.2162
 20
162.345800000000000
 11
536.4253
 21
160.136700000000020
  0
LINE
  8
PT3-Grafika_wekt5
  6
CONTINUOUS
 62
     7
 10
536.4253
 20
160.136700000000020
 11
536.4253
 21
158.337800000000020
  0
LINE
  8
PT3-Grafika_wekt5
  6
CONTINUOUS
 62
     7
 10
533.4889
 20
157.389799999999980
 11
533.8401
 21
157.389799999999980
  0
LINE
  8
PT3-Grafika_wekt5
  6
CONTINUOUS
 62
     7
 10
533.4889
 20
157.431299999999990
 11
533.6676
 21
157.431299999999990
  0
LINE
  8
PT3-Grafika_wekt5
  6
CONTINUOUS
 62
     7
 10
533.5041
 20
156.693600000000000
 11
533.5041
 21
156.793600000000000
  0
LINE
  8
PT3-Grafika_wekt5
  6
CONTINUOUS
 62
     7
 10
534.16
 20
157.313100000000020
 11
534.2569
 21
157.289800000000010
  0
LINE
  8
PT3-Grafika_wekt5
  6
CONTINUOUS
 62
     7
 10
534.2569
 20
157.289800000000010
 11
534.2816
 21
157.219200000000000
  0
LINE
  8
PT3-Grafika_wekt5
  6
CONTINUOUS
 62
     7
 10
534.2816
 20
157.219200000000000
 11
536.1531
 21
157.219200000000000
  0
LINE
  8
PT3-Grafika_wekt5
  6
CONTINUOUS
 62
     7
 10
536.1531
 20
157.219200000000000
 11
536.1284
 21
157.289800000000010
  0
LINE
  8
PT3-Grafika_wekt5
  6
CONTINUOUS
 62
     7
 10
536.1531
 20
157.219200000000000
 11
536.45
 21
158.067299999999990
  0
LINE
  8
PT3-Grafika_wekt5
  6
CONTINUOUS
 62
     7
 10
536.45
 20
158.067299999999990
 11
536.4487
 21
158.071100000000000
  0
LINE
  8
PT3-Grafika_wekt5
  6
CONTINUOUS
 62
     7
 10
536.4253
 20
158.987399999999980
 11
536.7226
 21
158.987399999999980
  0
LINE
  8
PT3-Grafika_wekt5
  6
CONTINUOUS
 62
     7
 10
536.7226
 20
158.987399999999980
 11
536.5371
 21
159.206999999999990
  0
LINE
  8
PT3-Grafika_wekt5
  6
CONTINUOUS
 62
     7
 10
536.5371
 20
159.206999999999990
 11
536.4603
 21
159.737100000000000
  0
LINE
  8
PT3-Grafika_wekt5
  6
CONTINUOUS
 62
     7
 10
536.4603
 20
159.737100000000000
 11
536.4253
 21
159.737100000000000
  0
LINE
  8
PT3-Grafika_wekt5
  6
CONTINUOUS
 62
     7
 10
536.4368
 20
159.737100000000000
 11
536.4837
 21
159.737100000000000
  0
LINE
  8
PT3-Grafika_wekt5
  6
CONTINUOUS
 62
     7
 10
536.4837
 20
159.737100000000000
 11
536.5606
 21
159.206999999999990
  0
LINE
  8
PT3-Grafika_wekt5
  6
CONTINUOUS
 62
     7
 10
536.5606
 20
159.206999999999990
 11
536.5137
 21
159.206999999999990
  0
LINE
  8
PT3-Grafika_wekt5
  6
CONTINUOUS
 62
     7
 10
536.5137
 20
159.206999999999990
 11
536.4368
 21
159.737100000000000
  0
LINE
  8
PT3-Grafika_wekt5
  6
CONTINUOUS
 62
     7
 10
536.4837
 20
159.737100000000000
 11
536.9501
 21
159.737100000000000
  0
LINE
  8
PT3-Grafika_wekt5
  6
CONTINUOUS
 62
     7
 10
536.5137
 20
159.206999999999990
 11
536.6992
 21
158.987399999999980
  0
LINE
  8
PT3-Grafika_wekt5
  6
CONTINUOUS
 62
     7
 10
536.6992
 20
158.987399999999980
 11
536.746
 21
158.987399999999980
  0
LINE
  8
PT3-Grafika_wekt5
  6
CONTINUOUS
 62
     7
 10
536.746
 20
158.987399999999980
 11
536.5606
 21
159.206999999999990
  0
LINE
  8
PT3-Grafika_wekt5
  6
CONTINUOUS
 62
     7
 10
536.746
 20
158.987399999999980
 11
536.9316
 21
159.206999999999990
  0
LINE
  8
PT3-Grafika_wekt5
  6
CONTINUOUS
 62
     7
 10
536.9316
 20
159.206999999999990
 11
537.0085
 21
159.737100000000000
  0
LINE
  8
PT3-Grafika_wekt5
  6
CONTINUOUS
 62
     7
 10
537.0085
 20
159.737100000000000
 11
536.4837
 21
159.737100000000000
  0
LINE
  8
PT3-Grafika_wekt5
  6
CONTINUOUS
 62
     7
 10
273.4102
 20
161.412199999999980
 11
273.457
 21
161.412199999999980
  0
LINE
  8
PT3-Grafika_wekt5
  6
CONTINUOUS
 62
     7
 10
273.457
 20
161.412199999999980
 11
273.5185
 21
160.988299999999980
  0
LINE
  8
PT3-Grafika_wekt5
  6
CONTINUOUS
 62
     7
 10
273.5185
 20
160.988299999999980
 11
273.4717
 21
160.988299999999980
  0
LINE
  8
PT3-Grafika_wekt5
  6
CONTINUOUS
 62
     7
 10
273.4717
 20
160.988299999999980
 11
273.4102
 21
161.412199999999980
  0
LINE
  8
PT3-Grafika_wekt5
  6
CONTINUOUS
 62
     7
 10
273.4337
 20
161.412199999999980
 11
273.4951
 21
160.988299999999980
  0
LINE
  8
PT3-Grafika_wekt5
  6
CONTINUOUS
 62
     7
 10
273.4951
 20
160.988299999999980
 11
273.6436
 21
160.812600000000000
  0
LINE
  8
PT3-Grafika_wekt5
  6
CONTINUOUS
 62
     7
 10
273.6436
 20
160.812600000000000
 11
454.3917
 21
160.812600000000000
  0
LINE
  8
PT3-Grafika_wekt5
  6
CONTINUOUS
 62
     7
 10
273.4717
 20
160.988299999999980
 11
273.6202
 21
160.812600000000000
  0
LINE
  8
PT3-Grafika_wekt5
  6
CONTINUOUS
 62
     7
 10
273.6202
 20
160.812600000000000
 11
273.6669
 21
160.812600000000000
  0
LINE
  8
PT3-Grafika_wekt5
  6
CONTINUOUS
 62
     7
 10
273.6669
 20
160.812600000000000
 11
273.5185
 21
160.988299999999980
  0
LINE
  8
PT3-Grafika_wekt5
  6
CONTINUOUS
 62
     7
 10
273.8885
 20
161.412199999999980
 11
273.8885
 21
161.812000000000010
  0
LINE
  8
PT3-Grafika_wekt5
  6
CONTINUOUS
 62
     7
 10
273.8885
 20
161.812000000000010
 11
274.9384
 21
162.127200000000020
  0
LINE
  8
PT3-Grafika_wekt5
  6
CONTINUOUS
 62
     7
 10
273.8885
 20
161.512200000000010
 11
456.7218
 21
161.512200000000010
  0
LINE
  8
PT3-Grafika_wekt5
  6
CONTINUOUS
 62
     7
 10
273.8885
 20
161.812000000000010
 11
457.7204
 21
161.812000000000010
  0
LINE
  8
PT3-Grafika_wekt5
  6
CONTINUOUS
 62
     7
 10
457.7204
 20
161.812000000000010
 11
445.14
 21
158.034899999999990
  0
LINE
  8
PT3-Grafika_wekt5
  6
CONTINUOUS
 62
     7
 10
445.14
 20
158.034899999999990
 11
445.14
 21
157.635200000000000
  0
LINE
  8
PT3-Grafika_wekt5
  6
CONTINUOUS
 62
     7
 10
274.0139
 20
160.812600000000000
 11
274.1606
 21
160.393599999999990
  0
LINE
  8
PT3-Grafika_wekt5
  6
CONTINUOUS
 62
     7
 10
274.1606
 20
160.393599999999990
 11
276.0321
 21
160.393599999999990
  0
LINE
  8
PT3-Grafika_wekt5
  6
CONTINUOUS
 62
     7
 10
276.0321
 20
160.393599999999990
 11
275.8854
 21
160.812600000000000
  0
LINE
  8
PT3-Grafika_wekt5
  6
CONTINUOUS
 62
     7
 10
275.935
 20
160.812600000000000
 11
276.0569
 21
160.464299999999980
  0
LINE
  8
PT3-Grafika_wekt5
  6
CONTINUOUS
 62
     7
 10
276.0569
 20
160.464299999999980
 11
276.0321
 21
160.393599999999990
  0
LINE
  8
PT3-Grafika_wekt5
  6
CONTINUOUS
 62
     7
 10
276.0569
 20
160.464299999999980
 11
276.5165
 21
160.138900000000010
  0
LINE
  8
PT3-Grafika_wekt5
  6
CONTINUOUS
 62
     7
 10
335.9915
 20
163.253199999999990
 11
336.4488
 21
163.390500000000000
  0
LINE
  8
PT3-Grafika_wekt5
  6
CONTINUOUS
 62
     7
 10
365.2278
 20
163.252299999999990
 11
372.916
 21
165.548200000000010
  0
LINE
  8
PT3-Grafika_wekt5
  6
CONTINUOUS
 62
     7
 10
372.916
 20
165.548200000000010
 11
372.6096
 21
165.548200000000010
  0
LINE
  8
PT3-Grafika_wekt5
  6
CONTINUOUS
 62
     7
 10
303.8554
 20
165.837600000000010
 11
397.4349
 21
165.828399999999990
  0
LINE
  8
PT3-Grafika_wekt5
  6
CONTINUOUS
 62
     7
 10
371.7543
 20
165.548200000000010
 11
371.9811
 21
165.548200000000010
  0
LINE
  8
PT3-Grafika_wekt5
  6
CONTINUOUS
 62
     7
 10
389.6293
 20
163.210300000000020
 11
390.0865
 21
163.347500000000000
  0
LINE
  8
PT3-Grafika_wekt5
  6
CONTINUOUS
 62
     7
 10
418.8656
 20
163.209299999999980
 11
426.5539
 21
165.505200000000000
  0
LINE
  8
PT3-Grafika_wekt5
  6
CONTINUOUS
 62
     7
 10
426.5539
 20
165.505200000000000
 11
426.2473
 21
165.505200000000000
  0
LINE
  8
PT3-Grafika_wekt5
  6
CONTINUOUS
 62
     7
 10
425.3803
 20
165.825600000000010
 11
427.6553
 21
165.825400000000000
  0
LINE
  8
PT3-Grafika_wekt5
  6
CONTINUOUS
 62
     7
 10
425.392
 20
165.505200000000000
 11
425.6188
 21
165.505200000000000
  0
LINE
  8
PT3-Grafika_wekt5
  6
CONTINUOUS
 62
     7
 10
435.7534
 20
165.824600000000000
 11
492.8608
 21
165.819099999999990
  0
LINE
  8
PT3-Grafika_wekt5
  6
CONTINUOUS
 62
     7
 10
444.6618
 20
157.635200000000000
 11
444.7086
 21
157.635200000000000
  0
LINE
  8
PT3-Grafika_wekt5
  6
CONTINUOUS
 62
     7
 10
444.7086
 20
157.635200000000000
 11
444.77
 21
157.211099999999990
  0
LINE
  8
PT3-Grafika_wekt5
  6
CONTINUOUS
 62
     7
 10
444.77
 20
157.211099999999990
 11
444.7232
 21
157.211099999999990
  0
LINE
  8
PT3-Grafika_wekt5
  6
CONTINUOUS
 62
     7
 10
444.7232
 20
157.211099999999990
 11
444.6618
 21
157.635200000000000
  0
LINE
  8
PT3-Grafika_wekt5
  6
CONTINUOUS
 62
     7
 10
444.6852
 20
157.635200000000000
 11
444.7467
 21
157.211099999999990
  0
LINE
  8
PT3-Grafika_wekt5
  6
CONTINUOUS
 62
     7
 10
444.7467
 20
157.211099999999990
 11
444.8951
 21
157.035500000000010
  0
LINE
  8
PT3-Grafika_wekt5
  6
CONTINUOUS
 62
     7
 10
444.8951
 20
157.035500000000010
 11
512.2465
 21
157.035500000000010
  0
LINE
  8
PT3-Grafika_wekt5
  6
CONTINUOUS
 62
     7
 10
512.2465
 20
157.035500000000010
 11
512.0981
 21
157.211099999999990
  0
LINE
  8
PT3-Grafika_wekt5
  6
CONTINUOUS
 62
     7
 10
512.0981
 20
157.211099999999990
 11
512.0366
 21
157.635200000000000
  0
LINE
  8
PT3-Grafika_wekt5
  6
CONTINUOUS
 62
     7
 10
512.0366
 20
157.635200000000000
 11
512.0834
 21
157.635200000000000
  0
LINE
  8
PT3-Grafika_wekt5
  6
CONTINUOUS
 62
     7
 10
512.0834
 20
157.635200000000000
 11
512.1448
 21
157.211099999999990
  0
LINE
  8
PT3-Grafika_wekt5
  6
CONTINUOUS
 62
     7
 10
512.1448
 20
157.211099999999990
 11
512.0981
 21
157.211099999999990
  0
LINE
  8
PT3-Grafika_wekt5
  6
CONTINUOUS
 62
     7
 10
444.7232
 20
157.211099999999990
 11
444.8717
 21
157.035500000000010
  0
LINE
  8
PT3-Grafika_wekt5
  6
CONTINUOUS
 62
     7
 10
444.8717
 20
157.035500000000010
 11
444.9185
 21
157.035500000000010
  0
LINE
  8
PT3-Grafika_wekt5
  6
CONTINUOUS
 62
     7
 10
444.9185
 20
157.035500000000010
 11
444.77
 21
157.211099999999990
  0
LINE
  8
PT3-Grafika_wekt5
  6
CONTINUOUS
 62
     7
 10
445.14
 20
157.735099999999990
 11
512.5148
 21
157.735099999999990
  0
LINE
  8
PT3-Grafika_wekt5
  6
CONTINUOUS
 62
     7
 10
512.5148
 20
157.735099999999990
 11
512.5148
 21
157.535200000000000
  0
LINE
  8
PT3-Grafika_wekt5
  6
CONTINUOUS
 62
     7
 10
512.5148
 20
157.535200000000000
 11
512.4888
 21
157.535200000000000
  0
LINE
  8
PT3-Grafika_wekt5
  6
CONTINUOUS
 62
     7
 10
512.4888
 20
157.535200000000000
 11
512.5615
 21
157.535200000000000
  0
LINE
  8
PT3-Grafika_wekt5
  6
CONTINUOUS
 62
     7
 10
512.5615
 20
157.535200000000000
 11
512.8585
 21
156.687099999999990
  0
LINE
  8
PT3-Grafika_wekt5
  6
CONTINUOUS
 62
     7
 10
512.8585
 20
156.687099999999990
 11
512.7648
 21
156.687099999999990
  0
LINE
  8
PT3-Grafika_wekt5
  6
CONTINUOUS
 62
     7
 10
512.7648
 20
156.687099999999990
 11
512.4826
 21
157.493400000000010
  0
LINE
  8
PT3-Grafika_wekt5
  6
CONTINUOUS
 62
     7
 10
445.14
 20
158.034899999999990
 11
512.5148
 21
158.034899999999990
  0
LINE
  8
PT3-Grafika_wekt5
  6
CONTINUOUS
 62
     7
 10
512.5148
 20
158.034899999999990
 11
512.5148
 21
157.735099999999990
  0
LINE
  8
PT3-Grafika_wekt5
  6
CONTINUOUS
 62
     7
 10
512.5148
 20
157.735099999999990
 11
527.2162
 21
162.149000000000000
  0
LINE
  8
PT3-Grafika_wekt5
  6
CONTINUOUS
 62
     7
 10
527.2162
 20
162.149000000000000
 11
527.2162
 21
161.949099999999990
  0
LINE
  8
PT3-Grafika_wekt5
  6
CONTINUOUS
 62
     7
 10
527.2162
 20
161.949099999999990
 11
512.5148
 21
157.535200000000000
  0
LINE
  8
PT3-Grafika_wekt5
  6
CONTINUOUS
 62
     7
 10
512.5148
 20
157.535200000000000
 11
512.5395
 21
157.605900000000020
  0
LINE
  8
PT3-Grafika_wekt5
  6
CONTINUOUS
 62
     7
 10
512.5395
 20
157.605900000000020
 11
512.5594
 21
157.548599999999990
  0
LINE
  8
PT3-Grafika_wekt5
  6
CONTINUOUS
 62
     7
 10
445.2654
 20
157.035500000000010
 11
445.4121
 21
156.616500000000000
  0
LINE
  8
PT3-Grafika_wekt5
  6
CONTINUOUS
 62
     7
 10
445.4121
 20
156.616500000000000
 11
447.2836
 21
156.616500000000000
  0
LINE
  8
PT3-Grafika_wekt5
  6
CONTINUOUS
 62
     7
 10
447.2836
 20
156.616500000000000
 11
447.137
 21
157.035500000000010
  0
LINE
  8
PT3-Grafika_wekt5
  6
CONTINUOUS
 62
     7
 10
447.1865
 20
157.035500000000010
 11
447.3084
 21
156.687099999999990
  0
LINE
  8
PT3-Grafika_wekt5
  6
CONTINUOUS
 62
     7
 10
447.3084
 20
156.687099999999990
 11
447.2836
 21
156.616500000000000
  0
LINE
  8
PT3-Grafika_wekt5
  6
CONTINUOUS
 62
     7
 10
447.3084
 20
156.687099999999990
 11
448.0611
 21
156.154200000000000
  0
LINE
  8
PT3-Grafika_wekt5
  6
CONTINUOUS
 62
     7
 10
448.0611
 20
156.154200000000000
 11
511.6929
 21
156.154200000000000
  0
LINE
  8
PT3-Grafika_wekt5
  6
CONTINUOUS
 62
     7
 10
511.6929
 20
156.154200000000000
 11
510.9402
 21
156.687099999999990
  0
LINE
  8
PT3-Grafika_wekt5
  6
CONTINUOUS
 62
     7
 10
510.9402
 20
156.687099999999990
 11
447.3084
 21
156.687099999999990
  0
LINE
  8
PT3-Grafika_wekt5
  6
CONTINUOUS
 62
     7
 10
453.2314
 20
160.464299999999980
 11
276.0569
 21
160.464299999999980
  0
LINE
  8
PT3-Grafika_wekt5
  6
CONTINUOUS
 62
     7
 10
456.3888
 20
161.412199999999980
 11
273.4337
 21
161.412199999999980
  0
LINE
  8
PT3-Grafika_wekt5
  6
CONTINUOUS
 62
     7
 10
492.8606
 20
165.819000000000020
 11
481.688
 21
162.448800000000010
  0
LINE
  8
PT3-Grafika_wekt5
  6
CONTINUOUS
 62
     7
 10
481.688
 20
162.448800000000010
 11
527.2162
 21
162.448800000000010
  0
LINE
  8
PT3-Grafika_wekt5
  6
CONTINUOUS
 62
     7
 10
527.2162
 20
162.448800000000010
 11
512.5148
 21
158.034899999999990
  0
LINE
  8
PT3-Grafika_wekt5
  6
CONTINUOUS
 62
     7
 10
482.6819
 20
162.448800000000010
 11
492.8606
 21
165.519200000000010
  0
LINE
  8
PT3-Grafika_wekt5
  6
CONTINUOUS
 62
     7
 10
492.8606
 20
165.519200000000010
 11
492.8606
 21
165.319300000000000
  0
LINE
  8
PT3-Grafika_wekt5
  6
CONTINUOUS
 62
     7
 10
492.8606
 20
165.319300000000000
 11
483.3446
 21
162.448800000000010
  0
LINE
  8
PT3-Grafika_wekt5
  6
CONTINUOUS
 62
     7
 10
483.3915
 20
162.448800000000010
 11
492.9075
 21
165.319300000000000
  0
LINE
  8
PT3-Grafika_wekt5
  6
CONTINUOUS
 62
     7
 10
492.9075
 20
165.319300000000000
 11
492.8606
 21
165.319300000000000
  0
LINE
  8
PT3-Grafika_wekt5
  6
CONTINUOUS
 62
     7
 10
486.4984
 20
162.448800000000010
 11
492.9075
 21
164.382099999999980
  0
LINE
  8
PT3-Grafika_wekt5
  6
CONTINUOUS
 62
     7
 10
492.9075
 20
164.382099999999980
 11
492.9075
 21
165.319300000000000
  0
LINE
  8
PT3-Grafika_wekt5
  6
CONTINUOUS
 62
     7
 10
492.8606
 20
165.519200000000010
 11
492.8606
 21
165.819000000000020
  0
LINE
  8
PT3-Grafika_wekt5
  6
CONTINUOUS
 62
     7
 10
510.8182
 20
157.035500000000010
 11
510.9402
 21
156.687099999999990
  0
LINE
  8
PT3-Grafika_wekt5
  6
CONTINUOUS
 62
     7
 10
510.9402
 20
156.687099999999990
 11
512.8117
 21
156.687099999999990
  0
LINE
  8
PT3-Grafika_wekt5
  6
CONTINUOUS
 62
     7
 10
512.8117
 20
156.687099999999990
 11
512.5148
 21
157.535200000000000
  0
LINE
  8
PT3-Grafika_wekt5
  6
CONTINUOUS
 62
     7
 10
511.0814
 20
156.687099999999990
 11
511.6929
 21
156.254200000000000
  0
LINE
  8
PT3-Grafika_wekt5
  6
CONTINUOUS
 62
     7
 10
511.6929
 20
156.254200000000000
 11
511.6929
 21
156.154200000000000
  0
LINE
  8
PT3-Grafika_wekt5
  6
CONTINUOUS
 62
     7
 10
512.06
 20
157.635200000000000
 11
444.6852
 21
157.635200000000000
  0
LINE
  8
PT3-Grafika_wekt5
  6
CONTINUOUS
 62
     7
 10
512.0834
 20
157.635200000000000
 11
512.5032
 21
157.635200000000000
  0
LINE
  8
PT3-Grafika_wekt5
  6
CONTINUOUS
 62
     7
 10
512.5032
 20
157.635200000000000
 11
512.4417
 21
157.211099999999990
  0
LINE
  8
PT3-Grafika_wekt5
  6
CONTINUOUS
 62
     7
 10
512.4417
 20
157.211099999999990
 11
512.2933
 21
157.035500000000010
  0
LINE
  8
PT3-Grafika_wekt5
  6
CONTINUOUS
 62
     7
 10
512.2933
 20
157.035500000000010
 11
512.1448
 21
157.211099999999990
  0
LINE
  8
PT3-Grafika_wekt5
  6
CONTINUOUS
 62
     7
 10
512.1215
 20
157.211099999999990
 11
512.06
 21
157.635200000000000
  0
LINE
  8
PT3-Grafika_wekt5
  6
CONTINUOUS
 62
     7
 10
512.2465
 20
157.035500000000010
 11
512.2933
 21
157.035500000000010
  0
LINE
  8
PT3-Grafika_wekt5
  6
CONTINUOUS
 62
     7
 10
512.2933
 20
157.035500000000010
 11
512.2699
 21
157.035500000000010
  0
LINE
  8
PT3-Grafika_wekt5
  6
CONTINUOUS
 62
     7
 10
512.2699
 20
157.035500000000010
 11
512.1215
 21
157.211099999999990
  0
LINE
  8
PT3-Grafika_wekt5
  6
CONTINUOUS
 62
     7
 10
512.5615
 20
157.535200000000000
 11
527.263
 21
161.949099999999990
  0
LINE
  8
PT3-Grafika_wekt5
  6
CONTINUOUS
 62
     7
 10
527.263
 20
161.949099999999990
 11
527.2162
 21
161.949099999999990
  0
LINE
  8
PT3-Grafika_wekt5
  6
CONTINUOUS
 62
     7
 10
512.8585
 20
156.687099999999990
 11
527.5599
 21
161.101100000000000
  0
LINE
  8
PT3-Grafika_wekt5
  6
CONTINUOUS
 62
     7
 10
527.5599
 20
161.101100000000000
 11
527.263
 21
161.949099999999990
  0
LINE
  8
PT3-Grafika_wekt5
  6
CONTINUOUS
 62
     7
 10
527.2162
 20
162.149000000000000
 11
527.2162
 21
162.448800000000010
  0
LINE
  8
PT3-Grafika_wekt5
  6
CONTINUOUS
 62
     7
 10
389.0648
 20
163.084900000000000
 11
389.0663
 21
163.045199999999990
  0
LINE
  8
PT3-Grafika_wekt5
  6
CONTINUOUS
 62
     7
 10
389.0663
 20
163.045199999999990
 11
418.4491
 21
163.045199999999990
  0
LINE
  8
PT3-Grafika_wekt5
  6
CONTINUOUS
 62
     7
 10
418.4491
 20
163.045199999999990
 11
418.4476
 21
163.084900000000000
  0
LINE
  8
PT3-Grafika_wekt5
  6
CONTINUOUS
 62
     7
 10
418.4476
 20
163.084900000000000
 11
389.0648
 21
163.084900000000000
  0
LINE
  8
PT3-Grafika_wekt5
  6
CONTINUOUS
 62
     7
 10
389.0648
 20
163.084900000000000
 11
389.4823
 21
163.210300000000020
  0
LINE
  8
PT3-Grafika_wekt5
  6
CONTINUOUS
 62
     7
 10
389.4823
 20
163.210300000000020
 11
418.8652
 21
163.210300000000020
  0
LINE
  8
PT3-Grafika_wekt5
  6
CONTINUOUS
 62
     7
 10
418.8652
 20
163.210300000000020
 11
418.4476
 21
163.084900000000000
  0
LINE
  8
PT3-Grafika_wekt5
  6
CONTINUOUS
 62
     7
 10
390.0793
 20
163.544400000000000
 11
390.0916
 21
163.210300000000020
  0
LINE
  8
PT3-Grafika_wekt5
  6
CONTINUOUS
 62
     7
 10
390.821
 20
163.733200000000010
 11
390.8403
 21
163.210300000000020
  0
LINE
  8
PT3-Grafika_wekt5
  6
CONTINUOUS
 62
     7
 10
390.821
 20
163.733200000000010
 11
418.3323
 21
163.733200000000010
  0
LINE
  8
PT3-Grafika_wekt5
  6
CONTINUOUS
 62
     7
 10
418.3323
 20
163.733200000000010
 11
418.3516
 21
163.210300000000020
  0
LINE
  8
PT3-Grafika_wekt5
  6
CONTINUOUS
 62
     7
 10
390.9566
 20
163.804900000000000
 11
390.9915
 21
163.874500000000010
  0
LINE
  8
PT3-Grafika_wekt5
  6
CONTINUOUS
 62
     7
 10
390.9915
 20
163.874500000000010
 11
391.0926
 21
163.924199999999980
  0
LINE
  8
PT3-Grafika_wekt5
  6
CONTINUOUS
 62
     7
 10
391.0926
 20
163.924199999999980
 11
391.1862
 21
163.924199999999980
  0
LINE
  8
PT3-Grafika_wekt5
  6
CONTINUOUS
 62
     7
 10
391.1862
 20
163.924199999999980
 11
391.2909
 21
163.874500000000010
  0
LINE
  8
PT3-Grafika_wekt5
  6
CONTINUOUS
 62
     7
 10
391.2909
 20
163.874500000000010
 11
391.3309
 21
163.804900000000000
  0
LINE
  8
PT3-Grafika_wekt5
  6
CONTINUOUS
 62
     7
 10
391.3309
 20
163.804900000000000
 11
390.9566
 21
163.804900000000000
  0
LINE
  8
PT3-Grafika_wekt5
  6
CONTINUOUS
 62
     7
 10
390.9583
 20
163.808300000000000
 11
390.0793
 21
163.544400000000000
  0
LINE
  8
PT3-Grafika_wekt5
  6
CONTINUOUS
 62
     7
 10
391.0135
 20
163.779200000000000
 11
391.0182
 21
163.784499999999980
  0
LINE
  8
PT3-Grafika_wekt5
  6
CONTINUOUS
 62
     7
 10
391.0182
 20
163.784499999999980
 11
391.0486
 21
163.789699999999980
  0
LINE
  8
PT3-Grafika_wekt5
  6
CONTINUOUS
 62
     7
 10
391.0486
 20
163.789699999999980
 11
391.0946
 21
163.793499999999990
  0
LINE
  8
PT3-Grafika_wekt5
  6
CONTINUOUS
 62
     7
 10
391.0946
 20
163.793499999999990
 11
391.1466
 21
163.794899999999980
  0
LINE
  8
PT3-Grafika_wekt5
  6
CONTINUOUS
 62
     7
 10
391.1466
 20
163.794899999999980
 11
391.1891
 21
163.793499999999990
  0
LINE
  8
PT3-Grafika_wekt5
  6
CONTINUOUS
 62
     7
 10
391.1891
 20
163.793499999999990
 11
391.2101
 21
163.789699999999980
  0
LINE
  8
PT3-Grafika_wekt5
  6
CONTINUOUS
 62
     7
 10
391.2101
 20
163.789699999999980
 11
391.2053
 21
163.784499999999980
  0
LINE
  8
PT3-Grafika_wekt5
  6
CONTINUOUS
 62
     7
 10
391.2053
 20
163.784499999999980
 11
391.175
 21
163.779200000000000
  0
LINE
  8
PT3-Grafika_wekt5
  6
CONTINUOUS
 62
     7
 10
391.175
 20
163.779200000000000
 11
391.1289
 21
163.775499999999990
  0
LINE
  8
PT3-Grafika_wekt5
  6
CONTINUOUS
 62
     7
 10
391.1289
 20
163.775499999999990
 11
391.077
 21
163.774000000000000
  0
LINE
  8
PT3-Grafika_wekt5
  6
CONTINUOUS
 62
     7
 10
391.077
 20
163.774000000000000
 11
391.0346
 21
163.775499999999990
  0
LINE
  8
PT3-Grafika_wekt5
  6
CONTINUOUS
 62
     7
 10
391.0346
 20
163.775499999999990
 11
391.0135
 21
163.779200000000000
  0
LINE
  8
PT3-Grafika_wekt5
  6
CONTINUOUS
 62
     7
 10
391.0595
 20
163.804900000000000
 11
390.821
 21
163.733200000000010
  0
LINE
  8
PT3-Grafika_wekt5
  6
CONTINUOUS
 62
     7
 10
391.0926
 20
163.924199999999980
 11
397.7002
 21
165.908000000000020
  0
LINE
  8
PT3-Grafika_wekt5
  6
CONTINUOUS
 62
     7
 10
391.2909
 20
163.874500000000010
 11
398.0641
 21
165.908000000000020
  0
LINE
  8
PT3-Grafika_wekt5
  6
CONTINUOUS
 62
     7
 10
391.3309
 20
163.804900000000000
 11
398.2133
 21
165.871300000000020
  0
LINE
  8
PT3-Grafika_wekt5
  6
CONTINUOUS
 62
     7
 10
398.2133
 20
165.871300000000020
 11
398.1922
 21
165.908000000000020
  0
LINE
  8
PT3-Grafika_wekt5
  6
CONTINUOUS
 62
     7
 10
391.3337
 20
163.794899999999980
 11
398.2162
 21
165.861300000000000
  0
LINE
  8
PT3-Grafika_wekt5
  6
CONTINUOUS
 62
     7
 10
398.2162
 20
165.861300000000000
 11
406.5935
 21
165.861300000000000
  0
LINE
  8
PT3-Grafika_wekt5
  6
CONTINUOUS
 62
     7
 10
397.4767
 20
165.908000000000020
 11
397.4791
 21
165.841700000000000
  0
LINE
  8
PT3-Grafika_wekt5
  6
CONTINUOUS
 62
     7
 10
397.4767
 20
165.908000000000020
 11
425.0254
 21
165.908000000000020
  0
LINE
  8
PT3-Grafika_wekt5
  6
CONTINUOUS
 62
     7
 10
425.0254
 20
165.908000000000020
 11
425.0466
 21
165.333399999999980
  0
LINE
  8
PT3-Grafika_wekt5
  6
CONTINUOUS
 62
     7
 10
397.763
 20
165.960199999999990
 11
397.8083
 21
166.000000000000000
  0
LINE
  8
PT3-Grafika_wekt5
  6
CONTINUOUS
 62
     7
 10
397.8083
 20
166.000000000000000
 11
397.8232
 21
166.002600000000000
  0
LINE
  8
PT3-Grafika_wekt5
  6
CONTINUOUS
 62
     7
 10
397.8232
 20
166.002600000000000
 11
397.8467
 21
166.004500000000010
  0
LINE
  8
PT3-Grafika_wekt5
  6
CONTINUOUS
 62
     7
 10
397.8085
 20
165.949400000000000
 11
397.8217
 21
165.949799999999980
  0
LINE
  8
PT3-Grafika_wekt5
  6
CONTINUOUS
 62
     7
 10
397.8217
 20
165.949799999999980
 11
397.8331
 21
165.949400000000000
  0
LINE
  8
PT3-Grafika_wekt5
  6
CONTINUOUS
 62
     7
 10
397.8247
 20
166.012499999999990
 11
397.4767
 21
165.908000000000020
  0
LINE
  8
PT3-Grafika_wekt5
  6
CONTINUOUS
 62
     7
 10
397.8551
 20
166.000000000000000
 11
397.8935
 21
166.004500000000010
  0
LINE
  8
PT3-Grafika_wekt5
  6
CONTINUOUS
 62
     7
 10
397.9043
 20
166.002600000000000
 11
397.955
 21
165.965500000000020
  0
LINE
  8
PT3-Grafika_wekt5
  6
CONTINUOUS
 62
     7
 10
398.114
 20
165.841500000000000
 11
398.15
 21
165.841500000000000
  0
LINE
  8
PT3-Grafika_wekt5
  6
CONTINUOUS
 62
     7
 10
400.0054
 20
163.804900000000000
 11
400.0402
 21
163.874500000000010
  0
LINE
  8
PT3-Grafika_wekt5
  6
CONTINUOUS
 62
     7
 10
400.0402
 20
163.874500000000010
 11
400.1413
 21
163.924199999999980
  0
LINE
  8
PT3-Grafika_wekt5
  6
CONTINUOUS
 62
     7
 10
400.1413
 20
163.924199999999980
 11
400.2349
 21
163.924199999999980
  0
LINE
  8
PT3-Grafika_wekt5
  6
CONTINUOUS
 62
     7
 10
400.2349
 20
163.924199999999980
 11
400.3397
 21
163.874500000000010
  0
LINE
  8
PT3-Grafika_wekt5
  6
CONTINUOUS
 62
     7
 10
400.3397
 20
163.874500000000010
 11
400.3796
 21
163.804900000000000
  0
LINE
  8
PT3-Grafika_wekt5
  6
CONTINUOUS
 62
     7
 10
400.3796
 20
163.804900000000000
 11
400.0054
 21
163.804900000000000
  0
LINE
  8
PT3-Grafika_wekt5
  6
CONTINUOUS
 62
     7
 10
400.0364
 20
163.794899999999980
 11
391.3337
 21
163.794899999999980
  0
LINE
  8
PT3-Grafika_wekt5
  6
CONTINUOUS
 62
     7
 10
400.0622
 20
163.779200000000000
 11
400.067
 21
163.784499999999980
  0
LINE
  8
PT3-Grafika_wekt5
  6
CONTINUOUS
 62
     7
 10
400.067
 20
163.784499999999980
 11
400.0973
 21
163.789699999999980
  0
LINE
  8
PT3-Grafika_wekt5
  6
CONTINUOUS
 62
     7
 10
400.0973
 20
163.789699999999980
 11
400.1434
 21
163.793499999999990
  0
LINE
  8
PT3-Grafika_wekt5
  6
CONTINUOUS
 62
     7
 10
400.1434
 20
163.793499999999990
 11
400.1954
 21
163.794899999999980
  0
LINE
  8
PT3-Grafika_wekt5
  6
CONTINUOUS
 62
     7
 10
400.1954
 20
163.794899999999980
 11
400.2378
 21
163.793499999999990
  0
LINE
  8
PT3-Grafika_wekt5
  6
CONTINUOUS
 62
     7
 10
400.2378
 20
163.793499999999990
 11
400.259
 21
163.789699999999980
  0
LINE
  8
PT3-Grafika_wekt5
  6
CONTINUOUS
 62
     7
 10
400.259
 20
163.789699999999980
 11
400.2542
 21
163.784499999999980
  0
LINE
  8
PT3-Grafika_wekt5
  6
CONTINUOUS
 62
     7
 10
400.2542
 20
163.784499999999980
 11
400.2238
 21
163.779200000000000
  0
LINE
  8
PT3-Grafika_wekt5
  6
CONTINUOUS
 62
     7
 10
400.2238
 20
163.779200000000000
 11
400.1777
 21
163.775499999999990
  0
LINE
  8
PT3-Grafika_wekt5
  6
CONTINUOUS
 62
     7
 10
400.1777
 20
163.775499999999990
 11
400.1258
 21
163.774000000000000
  0
LINE
  8
PT3-Grafika_wekt5
  6
CONTINUOUS
 62
     7
 10
400.1258
 20
163.774000000000000
 11
400.0834
 21
163.775499999999990
  0
LINE
  8
PT3-Grafika_wekt5
  6
CONTINUOUS
 62
     7
 10
400.0834
 20
163.775499999999990
 11
400.0622
 21
163.779200000000000
  0
LINE
  8
PT3-Grafika_wekt5
  6
CONTINUOUS
 62
     7
 10
400.0695
 20
163.804900000000000
 11
400.0364
 21
163.794899999999980
  0
LINE
  8
PT3-Grafika_wekt5
  6
CONTINUOUS
 62
     7
 10
400.1413
 20
163.924199999999980
 11
406.7491
 21
165.908000000000020
  0
LINE
  8
PT3-Grafika_wekt5
  6
CONTINUOUS
 62
     7
 10
400.3397
 20
163.874500000000010
 11
407.1129
 21
165.908000000000020
  0
LINE
  8
PT3-Grafika_wekt5
  6
CONTINUOUS
 62
     7
 10
400.3638
 20
163.794899999999980
 11
407.2463
 21
165.861300000000000
  0
LINE
  8
PT3-Grafika_wekt5
  6
CONTINUOUS
 62
     7
 10
407.2463
 20
165.861300000000000
 11
415.6345
 21
165.861300000000000
  0
LINE
  8
PT3-Grafika_wekt5
  6
CONTINUOUS
 62
     7
 10
400.3796
 20
163.804900000000000
 11
407.2621
 21
165.871300000000020
  0
LINE
  8
PT3-Grafika_wekt5
  6
CONTINUOUS
 62
     7
 10
407.2621
 20
165.871300000000020
 11
407.241
 21
165.908000000000020
  0
LINE
  8
PT3-Grafika_wekt5
  6
CONTINUOUS
 62
     7
 10
406.8117
 20
165.960199999999990
 11
406.857
 21
166.000000000000000
  0
LINE
  8
PT3-Grafika_wekt5
  6
CONTINUOUS
 62
     7
 10
406.872
 20
166.002600000000000
 11
406.8955
 21
166.004500000000010
  0
LINE
  8
PT3-Grafika_wekt5
  6
CONTINUOUS
 62
     7
 10
406.9038
 20
166.000000000000000
 11
406.9423
 21
166.004500000000010
  0
LINE
  8
PT3-Grafika_wekt5
  6
CONTINUOUS
 62
     7
 10
406.9423
 20
166.004500000000010
 11
406.9213
 21
166.005200000000000
  0
LINE
  8
PT3-Grafika_wekt5
  6
CONTINUOUS
 62
     7
 10
406.9423
 20
166.004500000000010
 11
406.953
 21
166.002600000000000
  0
LINE
  8
PT3-Grafika_wekt5
  6
CONTINUOUS
 62
     7
 10
406.953
 20
166.002600000000000
 11
407.0037
 21
165.965500000000020
  0
LINE
  8
PT3-Grafika_wekt5
  6
CONTINUOUS
 62
     7
 10
407.1628
 20
165.841500000000000
 11
407.1801
 21
165.841500000000000
  0
LINE
  8
PT3-Grafika_wekt5
  6
CONTINUOUS
 62
     7
 10
409.0465
 20
163.804900000000000
 11
409.0813
 21
163.874500000000010
  0
LINE
  8
PT3-Grafika_wekt5
  6
CONTINUOUS
 62
     7
 10
409.0813
 20
163.874500000000010
 11
409.1825
 21
163.924199999999980
  0
LINE
  8
PT3-Grafika_wekt5
  6
CONTINUOUS
 62
     7
 10
409.1825
 20
163.924199999999980
 11
409.2761
 21
163.924199999999980
  0
LINE
  8
PT3-Grafika_wekt5
  6
CONTINUOUS
 62
     7
 10
409.2761
 20
163.924199999999980
 11
409.3808
 21
163.874500000000010
  0
LINE
  8
PT3-Grafika_wekt5
  6
CONTINUOUS
 62
     7
 10
409.3808
 20
163.874500000000010
 11
409.4208
 21
163.804900000000000
  0
LINE
  8
PT3-Grafika_wekt5
  6
CONTINUOUS
 62
     7
 10
409.4208
 20
163.804900000000000
 11
409.0465
 21
163.804900000000000
  0
LINE
  8
PT3-Grafika_wekt5
  6
CONTINUOUS
 62
     7
 10
409.0664
 20
163.794899999999980
 11
400.3638
 21
163.794899999999980
  0
LINE
  8
PT3-Grafika_wekt5
  6
CONTINUOUS
 62
     7
 10
409.0995
 20
163.804900000000000
 11
409.0664
 21
163.794899999999980
  0
LINE
  8
PT3-Grafika_wekt5
  6
CONTINUOUS
 62
     7
 10
409.1016
 20
163.779200000000000
 11
409.1065
 21
163.784499999999980
  0
LINE
  8
PT3-Grafika_wekt5
  6
CONTINUOUS
 62
     7
 10
409.1065
 20
163.784499999999980
 11
409.1368
 21
163.789699999999980
  0
LINE
  8
PT3-Grafika_wekt5
  6
CONTINUOUS
 62
     7
 10
409.1368
 20
163.789699999999980
 11
409.1829
 21
163.793499999999990
  0
LINE
  8
PT3-Grafika_wekt5
  6
CONTINUOUS
 62
     7
 10
409.1829
 20
163.793499999999990
 11
409.2348
 21
163.794899999999980
  0
LINE
  8
PT3-Grafika_wekt5
  6
CONTINUOUS
 62
     7
 10
409.2348
 20
163.794899999999980
 11
409.2773
 21
163.793499999999990
  0
LINE
  8
PT3-Grafika_wekt5
  6
CONTINUOUS
 62
     7
 10
409.2773
 20
163.793499999999990
 11
409.2984
 21
163.789699999999980
  0
LINE
  8
PT3-Grafika_wekt5
  6
CONTINUOUS
 62
     7
 10
409.2984
 20
163.789699999999980
 11
409.2936
 21
163.784499999999980
  0
LINE
  8
PT3-Grafika_wekt5
  6
CONTINUOUS
 62
     7
 10
409.2936
 20
163.784499999999980
 11
409.2633
 21
163.779200000000000
  0
LINE
  8
PT3-Grafika_wekt5
  6
CONTINUOUS
 62
     7
 10
409.2633
 20
163.779200000000000
 11
409.2172
 21
163.775499999999990
  0
LINE
  8
PT3-Grafika_wekt5
  6
CONTINUOUS
 62
     7
 10
409.2172
 20
163.775499999999990
 11
409.1652
 21
163.774000000000000
  0
LINE
  8
PT3-Grafika_wekt5
  6
CONTINUOUS
 62
     7
 10
409.1652
 20
163.774000000000000
 11
409.1228
 21
163.775499999999990
  0
LINE
  8
PT3-Grafika_wekt5
  6
CONTINUOUS
 62
     7
 10
409.1228
 20
163.775499999999990
 11
409.1016
 21
163.779200000000000
  0
LINE
  8
PT3-Grafika_wekt5
  6
CONTINUOUS
 62
     7
 10
409.1825
 20
163.924199999999980
 11
415.7901
 21
165.908000000000020
  0
LINE
  8
PT3-Grafika_wekt5
  6
CONTINUOUS
 62
     7
 10
409.3808
 20
163.874500000000010
 11
416.154
 21
165.908000000000020
  0
LINE
  8
PT3-Grafika_wekt5
  6
CONTINUOUS
 62
     7
 10
409.3939
 20
163.794899999999980
 11
416.2763
 21
165.861300000000000
  0
LINE
  8
PT3-Grafika_wekt5
  6
CONTINUOUS
 62
     7
 10
416.2763
 20
165.861300000000000
 11
424.6841
 21
165.861300000000000
  0
LINE
  8
PT3-Grafika_wekt5
  6
CONTINUOUS
 62
     7
 10
409.4208
 20
163.804900000000000
 11
416.3032
 21
165.871300000000020
  0
LINE
  8
PT3-Grafika_wekt5
  6
CONTINUOUS
 62
     7
 10
416.3032
 20
165.871300000000020
 11
416.2821
 21
165.908000000000020
  0
LINE
  8
PT3-Grafika_wekt5
  6
CONTINUOUS
 62
     7
 10
415.8381
 20
165.961999999999990
 11
415.8547
 21
165.963399999999980
  0
LINE
  8
PT3-Grafika_wekt5
  6
CONTINUOUS
 62
     7
 10
415.8407
 20
165.952100000000000
 11
415.8678
 21
165.951200000000000
  0
LINE
  8
PT3-Grafika_wekt5
  6
CONTINUOUS
 62
     7
 10
415.8678
 20
165.951200000000000
 11
415.8896
 21
165.947299999999980
  0
LINE
  8
PT3-Grafika_wekt5
  6
CONTINUOUS
 62
     7
 10
415.9115
 20
166.002600000000000
 11
415.935
 21
166.004500000000010
  0
LINE
  8
PT3-Grafika_wekt5
  6
CONTINUOUS
 62
     7
 10
415.9286
 20
165.948500000000000
 11
415.9614
 21
165.951200000000000
  0
LINE
  8
PT3-Grafika_wekt5
  6
CONTINUOUS
 62
     7
 10
415.9614
 20
165.951200000000000
 11
415.9875
 21
165.951899999999990
  0
LINE
  8
PT3-Grafika_wekt5
  6
CONTINUOUS
 62
     7
 10
415.9433
 20
166.000000000000000
 11
415.9817
 21
166.004500000000010
  0
LINE
  8
PT3-Grafika_wekt5
  6
CONTINUOUS
 62
     7
 10
415.9925
 20
166.002600000000000
 11
416.0431
 21
165.965500000000020
  0
LINE
  8
PT3-Grafika_wekt5
  6
CONTINUOUS
 62
     7
 10
416.0431
 20
165.965500000000020
 11
416.0492
 21
165.971999999999980
  0
LINE
  8
PT3-Grafika_wekt5
  6
CONTINUOUS
 62
     7
 10
416.0431
 20
165.965500000000020
 11
416.0559
 21
165.963200000000000
  0
LINE
  8
PT3-Grafika_wekt5
  6
CONTINUOUS
 62
     7
 10
416.2038
 20
165.841399999999990
 11
416.2101
 21
165.841399999999990
  0
LINE
  8
PT3-Grafika_wekt5
  6
CONTINUOUS
 62
     7
 10
418.0961
 20
163.804900000000000
 11
418.131
 21
163.874500000000010
  0
LINE
  8
PT3-Grafika_wekt5
  6
CONTINUOUS
 62
     7
 10
418.131
 20
163.874500000000010
 11
418.2321
 21
163.924199999999980
  0
LINE
  8
PT3-Grafika_wekt5
  6
CONTINUOUS
 62
     7
 10
418.2321
 20
163.924199999999980
 11
418.3257
 21
163.924199999999980
  0
LINE
  8
PT3-Grafika_wekt5
  6
CONTINUOUS
 62
     7
 10
418.3257
 20
163.924199999999980
 11
418.4304
 21
163.874500000000010
  0
LINE
  8
PT3-Grafika_wekt5
  6
CONTINUOUS
 62
     7
 10
418.4304
 20
163.874500000000010
 11
418.4704
 21
163.804900000000000
  0
LINE
  8
PT3-Grafika_wekt5
  6
CONTINUOUS
 62
     7
 10
418.4704
 20
163.804900000000000
 11
418.0961
 21
163.804900000000000
  0
LINE
  8
PT3-Grafika_wekt5
  6
CONTINUOUS
 62
     7
 10
418.0965
 20
163.794899999999980
 11
409.3939
 21
163.794899999999980
  0
LINE
  8
PT3-Grafika_wekt5
  6
CONTINUOUS
 62
     7
 10
418.1296
 20
163.804900000000000
 11
418.0965
 21
163.794899999999980
  0
LINE
  8
PT3-Grafika_wekt5
  6
CONTINUOUS
 62
     7
 10
418.1504
 20
163.779200000000000
 11
418.1552
 21
163.784499999999980
  0
LINE
  8
PT3-Grafika_wekt5
  6
CONTINUOUS
 62
     7
 10
418.1552
 20
163.784499999999980
 11
418.1856
 21
163.789699999999980
  0
LINE
  8
PT3-Grafika_wekt5
  6
CONTINUOUS
 62
     7
 10
418.1856
 20
163.789699999999980
 11
418.2316
 21
163.793499999999990
  0
LINE
  8
PT3-Grafika_wekt5
  6
CONTINUOUS
 62
     7
 10
418.2316
 20
163.793499999999990
 11
418.2836
 21
163.794899999999980
  0
LINE
  8
PT3-Grafika_wekt5
  6
CONTINUOUS
 62
     7
 10
418.2836
 20
163.794899999999980
 11
418.326
 21
163.793499999999990
  0
LINE
  8
PT3-Grafika_wekt5
  6
CONTINUOUS
 62
     7
 10
418.326
 20
163.793499999999990
 11
418.3472
 21
163.789699999999980
  0
LINE
  8
PT3-Grafika_wekt5
  6
CONTINUOUS
 62
     7
 10
418.3472
 20
163.789699999999980
 11
418.3424
 21
163.784499999999980
  0
LINE
  8
PT3-Grafika_wekt5
  6
CONTINUOUS
 62
     7
 10
418.3424
 20
163.784499999999980
 11
418.3121
 21
163.779200000000000
  0
LINE
  8
PT3-Grafika_wekt5
  6
CONTINUOUS
 62
     7
 10
418.3121
 20
163.779200000000000
 11
418.266
 21
163.775499999999990
  0
LINE
  8
PT3-Grafika_wekt5
  6
CONTINUOUS
 62
     7
 10
418.266
 20
163.775499999999990
 11
418.214
 21
163.774000000000000
  0
LINE
  8
PT3-Grafika_wekt5
  6
CONTINUOUS
 62
     7
 10
418.214
 20
163.774000000000000
 11
418.1716
 21
163.775499999999990
  0
LINE
  8
PT3-Grafika_wekt5
  6
CONTINUOUS
 62
     7
 10
418.1716
 20
163.775499999999990
 11
418.1504
 21
163.779200000000000
  0
LINE
  8
PT3-Grafika_wekt5
  6
CONTINUOUS
 62
     7
 10
418.2321
 20
163.924199999999980
 11
424.8397
 21
165.908000000000020
  0
LINE
  8
PT3-Grafika_wekt5
  6
CONTINUOUS
 62
     7
 10
418.3323
 20
163.733200000000010
 11
425.0315
 21
165.744599999999990
  0
LINE
  8
PT3-Grafika_wekt5
  6
CONTINUOUS
 62
     7
 10
418.4304
 20
163.874500000000010
 11
425.0274
 21
165.855099999999990
  0
LINE
  8
PT3-Grafika_wekt5
  6
CONTINUOUS
 62
     7
 10
418.4491
 20
163.045199999999990
 11
418.8608
 21
163.168800000000000
  0
LINE
  8
PT3-Grafika_wekt5
  6
CONTINUOUS
 62
     7
 10
418.4704
 20
163.804900000000000
 11
425.0304
 21
165.774400000000010
  0
LINE
  8
PT3-Grafika_wekt5
  6
CONTINUOUS
 62
     7
 10
418.8652
 20
163.210300000000020
 11
418.8805
 21
163.174700000000000
  0
LINE
  8
PT3-Grafika_wekt5
  6
CONTINUOUS
 62
     7
 10
419.0879
 20
163.544400000000000
 11
419.0977
 21
163.278599999999980
  0
LINE
  8
PT3-Grafika_wekt5
  6
CONTINUOUS
 62
     7
 10
422.2641
 20
164.943899999999990
 11
422.3646
 21
164.943899999999990
  0
LINE
  8
PT3-Grafika_wekt5
  6
CONTINUOUS
 62
     7
 10
424.9
 20
165.960199999999990
 11
424.9067
 21
165.967400000000000
  0
LINE
  8
PT3-Grafika_wekt5
  6
CONTINUOUS
 62
     7
 10
424.9113
 20
165.951300000000000
 11
424.9166
 21
165.951200000000000
  0
LINE
  8
PT3-Grafika_wekt5
  6
CONTINUOUS
 62
     7
 10
424.9166
 20
165.951200000000000
 11
424.9206
 21
165.950500000000010
  0
LINE
  8
PT3-Grafika_wekt5
  6
CONTINUOUS
 62
     7
 10
424.9603
 20
166.002600000000000
 11
424.9838
 21
166.004500000000010
  0
LINE
  8
PT3-Grafika_wekt5
  6
CONTINUOUS
 62
     7
 10
424.992
 20
166.000000000000000
 11
425.0306
 21
166.004500000000010
  0
LINE
  8
PT3-Grafika_wekt5
  6
CONTINUOUS
 62
     7
 10
424.9934
 20
165.949799999999980
 11
425.0102
 21
165.951200000000000
  0
LINE
  8
PT3-Grafika_wekt5
  6
CONTINUOUS
 62
     7
 10
425.0102
 20
165.951200000000000
 11
425.0206
 21
165.951500000000010
  0
LINE
  8
PT3-Grafika_wekt5
  6
CONTINUOUS
 62
     7
 10
425.0254
 20
165.908000000000020
 11
425.3734
 21
166.012400000000010
  0
LINE
  8
PT3-Grafika_wekt5
  6
CONTINUOUS
 62
     7
 10
425.3734
 20
166.012400000000010
 11
425.3946
 21
165.437900000000010
  0
LINE
  8
PT3-Grafika_wekt5
  6
CONTINUOUS
 62
     7
 10
425.0413
 20
166.002600000000000
 11
425.092
 21
165.965500000000020
  0
LINE
  8
PT3-Grafika_wekt5
  6
CONTINUOUS
 62
     7
 10
425.092
 20
165.965500000000020
 11
425.0871
 21
165.960199999999990
  0
LINE
  8
PT3-Grafika_wekt5
  6
CONTINUOUS
 62
     7
 10
425.0871
 20
165.960199999999990
 11
425.1349
 21
165.968599999999980
  0
LINE
  8
PT3-Grafika_wekt5
  6
CONTINUOUS
 62
     7
 10
426.1861
 20
165.675500000000000
 11
419.0879
 21
163.544400000000000
  0
LINE
  8
PT3-Grafika_wekt5
  6
CONTINUOUS
 62
     7
 10
426.2771
 20
165.422599999999990
 11
426.1861
 21
165.675500000000000
  0
LINE
  8
PT3-Grafika_wekt5
  6
CONTINUOUS
 62
     7
 10
335.427
 20
163.127799999999980
 11
335.4284
 21
163.088100000000000
  0
LINE
  8
PT3-Grafika_wekt5
  6
CONTINUOUS
 62
     7
 10
335.427
 20
163.127799999999980
 11
364.8099
 21
163.127799999999980
  0
LINE
  8
PT3-Grafika_wekt5
  6
CONTINUOUS
 62
     7
 10
364.8099
 20
163.127799999999980
 11
364.8113
 21
163.087999999999990
  0
LINE
  8
PT3-Grafika_wekt5
  6
CONTINUOUS
 62
     7
 10
364.8113
 20
163.087999999999990
 11
353.4023
 21
163.087999999999990
  0
LINE
  8
PT3-Grafika_wekt5
  6
CONTINUOUS
 62
     7
 10
335.8446
 20
163.253199999999990
 11
335.427
 21
163.127799999999980
  0
LINE
  8
PT3-Grafika_wekt5
  6
CONTINUOUS
 62
     7
 10
336.4415
 20
163.587300000000000
 11
336.4538
 21
163.253199999999990
  0
LINE
  8
PT3-Grafika_wekt5
  6
CONTINUOUS
 62
     7
 10
337.1832
 20
163.776099999999990
 11
337.2024
 21
163.253199999999990
  0
LINE
  8
PT3-Grafika_wekt5
  6
CONTINUOUS
 62
     7
 10
337.1832
 20
163.776099999999990
 11
364.6945
 21
163.776099999999990
  0
LINE
  8
PT3-Grafika_wekt5
  6
CONTINUOUS
 62
     7
 10
364.6945
 20
163.776099999999990
 11
364.7138
 21
163.253199999999990
  0
LINE
  8
PT3-Grafika_wekt5
  6
CONTINUOUS
 62
     7
 10
337.3188
 20
163.847800000000010
 11
337.3536
 21
163.917399999999990
  0
LINE
  8
PT3-Grafika_wekt5
  6
CONTINUOUS
 62
     7
 10
337.3536
 20
163.917399999999990
 11
337.4548
 21
163.966999999999980
  0
LINE
  8
PT3-Grafika_wekt5
  6
CONTINUOUS
 62
     7
 10
337.4548
 20
163.966999999999980
 11
337.5483
 21
163.966999999999980
  0
LINE
  8
PT3-Grafika_wekt5
  6
CONTINUOUS
 62
     7
 10
337.5483
 20
163.966999999999980
 11
337.6531
 21
163.917399999999990
  0
LINE
  8
PT3-Grafika_wekt5
  6
CONTINUOUS
 62
     7
 10
337.6531
 20
163.917399999999990
 11
337.6931
 21
163.847800000000010
  0
LINE
  8
PT3-Grafika_wekt5
  6
CONTINUOUS
 62
     7
 10
337.6931
 20
163.847800000000010
 11
337.3188
 21
163.847800000000010
  0
LINE
  8
PT3-Grafika_wekt5
  6
CONTINUOUS
 62
     7
 10
337.3205
 20
163.851200000000010
 11
336.4415
 21
163.587300000000000
  0
LINE
  8
PT3-Grafika_wekt5
  6
CONTINUOUS
 62
     7
 10
337.3757
 20
163.822100000000010
 11
337.3805
 21
163.827400000000010
  0
LINE
  8
PT3-Grafika_wekt5
  6
CONTINUOUS
 62
     7
 10
337.3805
 20
163.827400000000010
 11
337.4108
 21
163.832600000000010
  0
LINE
  8
PT3-Grafika_wekt5
  6
CONTINUOUS
 62
     7
 10
337.4108
 20
163.832600000000010
 11
337.4569
 21
163.836400000000000
  0
LINE
  8
PT3-Grafika_wekt5
  6
CONTINUOUS
 62
     7
 10
337.4569
 20
163.836400000000000
 11
337.5088
 21
163.837800000000020
  0
LINE
  8
PT3-Grafika_wekt5
  6
CONTINUOUS
 62
     7
 10
337.5088
 20
163.837800000000020
 11
337.5513
 21
163.836400000000000
  0
LINE
  8
PT3-Grafika_wekt5
  6
CONTINUOUS
 62
     7
 10
337.5513
 20
163.836400000000000
 11
337.5723
 21
163.832600000000010
  0
LINE
  8
PT3-Grafika_wekt5
  6
CONTINUOUS
 62
     7
 10
337.5723
 20
163.832600000000010
 11
337.5676
 21
163.827400000000010
  0
LINE
  8
PT3-Grafika_wekt5
  6
CONTINUOUS
 62
     7
 10
337.5676
 20
163.827400000000010
 11
337.5372
 21
163.822100000000010
  0
LINE
  8
PT3-Grafika_wekt5
  6
CONTINUOUS
 62
     7
 10
337.5372
 20
163.822100000000010
 11
337.4912
 21
163.818299999999990
  0
LINE
  8
PT3-Grafika_wekt5
  6
CONTINUOUS
 62
     7
 10
337.4912
 20
163.818299999999990
 11
337.4392
 21
163.816900000000000
  0
LINE
  8
PT3-Grafika_wekt5
  6
CONTINUOUS
 62
     7
 10
337.4392
 20
163.816900000000000
 11
337.3967
 21
163.818299999999990
  0
LINE
  8
PT3-Grafika_wekt5
  6
CONTINUOUS
 62
     7
 10
337.3967
 20
163.818299999999990
 11
337.3757
 21
163.822100000000010
  0
LINE
  8
PT3-Grafika_wekt5
  6
CONTINUOUS
 62
     7
 10
337.4217
 20
163.847800000000010
 11
337.1832
 21
163.776099999999990
  0
LINE
  8
PT3-Grafika_wekt5
  6
CONTINUOUS
 62
     7
 10
337.4548
 20
163.966999999999980
 11
344.0625
 21
165.950899999999990
  0
LINE
  8
PT3-Grafika_wekt5
  6
CONTINUOUS
 62
     7
 10
337.6531
 20
163.917399999999990
 11
344.4262
 21
165.950899999999990
  0
LINE
  8
PT3-Grafika_wekt5
  6
CONTINUOUS
 62
     7
 10
337.6931
 20
163.847800000000010
 11
344.5755
 21
165.914199999999990
  0
LINE
  8
PT3-Grafika_wekt5
  6
CONTINUOUS
 62
     7
 10
344.5755
 20
165.914199999999990
 11
344.5544
 21
165.950899999999990
  0
LINE
  8
PT3-Grafika_wekt5
  6
CONTINUOUS
 62
     7
 10
337.696
 20
163.837800000000020
 11
344.5784
 21
165.904200000000000
  0
LINE
  8
PT3-Grafika_wekt5
  6
CONTINUOUS
 62
     7
 10
344.5784
 20
165.904200000000000
 11
352.9556
 21
165.904200000000000
  0
LINE
  8
PT3-Grafika_wekt5
  6
CONTINUOUS
 62
     7
 10
343.8389
 20
165.950899999999990
 11
343.8414
 21
165.884500000000000
  0
LINE
  8
PT3-Grafika_wekt5
  6
CONTINUOUS
 62
     7
 10
343.8389
 20
165.950899999999990
 11
371.3877
 21
165.950899999999990
  0
LINE
  8
PT3-Grafika_wekt5
  6
CONTINUOUS
 62
     7
 10
371.3877
 20
165.950899999999990
 11
371.4088
 21
165.376300000000010
  0
LINE
  8
PT3-Grafika_wekt5
  6
CONTINUOUS
 62
     7
 10
344.1252
 20
166.003100000000020
 11
344.1705
 21
166.042900000000000
  0
LINE
  8
PT3-Grafika_wekt5
  6
CONTINUOUS
 62
     7
 10
344.1705
 20
166.042900000000000
 11
344.1855
 21
166.045500000000000
  0
LINE
  8
PT3-Grafika_wekt5
  6
CONTINUOUS
 62
     7
 10
344.1855
 20
166.045500000000000
 11
344.209
 21
166.047399999999980
  0
LINE
  8
PT3-Grafika_wekt5
  6
CONTINUOUS
 62
     7
 10
344.1755
 20
165.992500000000010
 11
344.1839
 21
165.992700000000010
  0
LINE
  8
PT3-Grafika_wekt5
  6
CONTINUOUS
 62
     7
 10
344.1839
 20
165.992700000000010
 11
344.1907
 21
165.992500000000010
  0
LINE
  8
PT3-Grafika_wekt5
  6
CONTINUOUS
 62
     7
 10
344.1868
 20
166.055400000000020
 11
343.8389
 21
165.950899999999990
  0
LINE
  8
PT3-Grafika_wekt5
  6
CONTINUOUS
 62
     7
 10
344.2173
 20
166.042900000000000
 11
344.2558
 21
166.047399999999980
  0
LINE
  8
PT3-Grafika_wekt5
  6
CONTINUOUS
 62
     7
 10
344.2665
 20
166.045500000000000
 11
344.3171
 21
166.008399999999990
  0
LINE
  8
PT3-Grafika_wekt5
  6
CONTINUOUS
 62
     7
 10
344.4762
 20
165.884400000000000
 11
344.5122
 21
165.884400000000000
  0
LINE
  8
PT3-Grafika_wekt5
  6
CONTINUOUS
 62
     7
 10
346.3675
 20
163.847800000000010
 11
346.4025
 21
163.917399999999990
  0
LINE
  8
PT3-Grafika_wekt5
  6
CONTINUOUS
 62
     7
 10
346.4025
 20
163.917399999999990
 11
346.5036
 21
163.966999999999980
  0
LINE
  8
PT3-Grafika_wekt5
  6
CONTINUOUS
 62
     7
 10
346.5036
 20
163.966999999999980
 11
346.5972
 21
163.966999999999980
  0
LINE
  8
PT3-Grafika_wekt5
  6
CONTINUOUS
 62
     7
 10
346.5972
 20
163.966999999999980
 11
346.7019
 21
163.917399999999990
  0
LINE
  8
PT3-Grafika_wekt5
  6
CONTINUOUS
 62
     7
 10
346.7019
 20
163.917399999999990
 11
346.7419
 21
163.847800000000010
  0
LINE
  8
PT3-Grafika_wekt5
  6
CONTINUOUS
 62
     7
 10
346.7419
 20
163.847800000000010
 11
346.3675
 21
163.847800000000010
  0
LINE
  8
PT3-Grafika_wekt5
  6
CONTINUOUS
 62
     7
 10
346.3985
 20
163.837800000000020
 11
337.696
 21
163.837800000000020
  0
LINE
  8
PT3-Grafika_wekt5
  6
CONTINUOUS
 62
     7
 10
346.4245
 20
163.822100000000010
 11
346.4293
 21
163.827400000000010
  0
LINE
  8
PT3-Grafika_wekt5
  6
CONTINUOUS
 62
     7
 10
346.4293
 20
163.827400000000010
 11
346.4596
 21
163.832600000000010
  0
LINE
  8
PT3-Grafika_wekt5
  6
CONTINUOUS
 62
     7
 10
346.4596
 20
163.832600000000010
 11
346.5056
 21
163.836400000000000
  0
LINE
  8
PT3-Grafika_wekt5
  6
CONTINUOUS
 62
     7
 10
346.5056
 20
163.836400000000000
 11
346.5576
 21
163.837800000000020
  0
LINE
  8
PT3-Grafika_wekt5
  6
CONTINUOUS
 62
     7
 10
346.5576
 20
163.837800000000020
 11
346.6001
 21
163.836400000000000
  0
LINE
  8
PT3-Grafika_wekt5
  6
CONTINUOUS
 62
     7
 10
346.6001
 20
163.836400000000000
 11
346.6212
 21
163.832600000000010
  0
LINE
  8
PT3-Grafika_wekt5
  6
CONTINUOUS
 62
     7
 10
346.6212
 20
163.832600000000010
 11
346.6164
 21
163.827400000000010
  0
LINE
  8
PT3-Grafika_wekt5
  6
CONTINUOUS
 62
     7
 10
346.6164
 20
163.827400000000010
 11
346.586
 21
163.822100000000010
  0
LINE
  8
PT3-Grafika_wekt5
  6
CONTINUOUS
 62
     7
 10
346.586
 20
163.822100000000010
 11
346.5399
 21
163.818299999999990
  0
LINE
  8
PT3-Grafika_wekt5
  6
CONTINUOUS
 62
     7
 10
346.5399
 20
163.818299999999990
 11
346.488
 21
163.816900000000000
  0
LINE
  8
PT3-Grafika_wekt5
  6
CONTINUOUS
 62
     7
 10
346.488
 20
163.816900000000000
 11
346.4455
 21
163.818299999999990
  0
LINE
  8
PT3-Grafika_wekt5
  6
CONTINUOUS
 62
     7
 10
346.4455
 20
163.818299999999990
 11
346.4245
 21
163.822100000000010
  0
LINE
  8
PT3-Grafika_wekt5
  6
CONTINUOUS
 62
     7
 10
346.4316
 20
163.847800000000010
 11
346.3985
 21
163.837800000000020
  0
LINE
  8
PT3-Grafika_wekt5
  6
CONTINUOUS
 62
     7
 10
346.5036
 20
163.966999999999980
 11
353.1113
 21
165.950899999999990
  0
LINE
  8
PT3-Grafika_wekt5
  6
CONTINUOUS
 62
     7
 10
346.7019
 20
163.917399999999990
 11
353.475
 21
165.950899999999990
  0
LINE
  8
PT3-Grafika_wekt5
  6
CONTINUOUS
 62
     7
 10
346.726
 20
163.837800000000020
 11
353.6085
 21
165.904200000000000
  0
LINE
  8
PT3-Grafika_wekt5
  6
CONTINUOUS
 62
     7
 10
353.6085
 20
165.904200000000000
 11
361.9968
 21
165.904200000000000
  0
LINE
  8
PT3-Grafika_wekt5
  6
CONTINUOUS
 62
     7
 10
346.7419
 20
163.847800000000010
 11
353.6243
 21
165.914199999999990
  0
LINE
  8
PT3-Grafika_wekt5
  6
CONTINUOUS
 62
     7
 10
353.6243
 20
165.914199999999990
 11
353.6031
 21
165.950899999999990
  0
LINE
  8
PT3-Grafika_wekt5
  6
CONTINUOUS
 62
     7
 10
353.174
 20
166.003100000000020
 11
353.2193
 21
166.042900000000000
  0
LINE
  8
PT3-Grafika_wekt5
  6
CONTINUOUS
 62
     7
 10
353.2342
 20
166.045500000000000
 11
353.2578
 21
166.047399999999980
  0
LINE
  8
PT3-Grafika_wekt5
  6
CONTINUOUS
 62
     7
 10
353.2661
 20
166.042900000000000
 11
353.3046
 21
166.047399999999980
  0
LINE
  8
PT3-Grafika_wekt5
  6
CONTINUOUS
 62
     7
 10
353.3046
 20
166.047399999999980
 11
353.2834
 21
166.048100000000010
  0
LINE
  8
PT3-Grafika_wekt5
  6
CONTINUOUS
 62
     7
 10
353.3046
 20
166.047399999999980
 11
353.3153
 21
166.045500000000000
  0
LINE
  8
PT3-Grafika_wekt5
  6
CONTINUOUS
 62
     7
 10
353.3153
 20
166.045500000000000
 11
353.366
 21
166.008399999999990
  0
LINE
  8
PT3-Grafika_wekt5
  6
CONTINUOUS
 62
     7
 10
353.5249
 20
165.884400000000000
 11
353.5423
 21
165.884400000000000
  0
LINE
  8
PT3-Grafika_wekt5
  6
CONTINUOUS
 62
     7
 10
355.4087
 20
163.847800000000010
 11
355.4436
 21
163.917399999999990
  0
LINE
  8
PT3-Grafika_wekt5
  6
CONTINUOUS
 62
     7
 10
355.4436
 20
163.917399999999990
 11
355.5447
 21
163.966999999999980
  0
LINE
  8
PT3-Grafika_wekt5
  6
CONTINUOUS
 62
     7
 10
355.5447
 20
163.966999999999980
 11
355.6382
 21
163.966999999999980
  0
LINE
  8
PT3-Grafika_wekt5
  6
CONTINUOUS
 62
     7
 10
355.6382
 20
163.966999999999980
 11
355.743
 21
163.917399999999990
  0
LINE
  8
PT3-Grafika_wekt5
  6
CONTINUOUS
 62
     7
 10
355.743
 20
163.917399999999990
 11
355.783
 21
163.847800000000010
  0
LINE
  8
PT3-Grafika_wekt5
  6
CONTINUOUS
 62
     7
 10
355.783
 20
163.847800000000010
 11
355.4087
 21
163.847800000000010
  0
LINE
  8
PT3-Grafika_wekt5
  6
CONTINUOUS
 62
     7
 10
355.4286
 20
163.837800000000020
 11
346.726
 21
163.837800000000020
  0
LINE
  8
PT3-Grafika_wekt5
  6
CONTINUOUS
 62
     7
 10
355.4617
 20
163.847800000000010
 11
355.4286
 21
163.837800000000020
  0
LINE
  8
PT3-Grafika_wekt5
  6
CONTINUOUS
 62
     7
 10
355.4639
 20
163.822100000000010
 11
355.4686
 21
163.827400000000010
  0
LINE
  8
PT3-Grafika_wekt5
  6
CONTINUOUS
 62
     7
 10
355.4686
 20
163.827400000000010
 11
355.499
 21
163.832600000000010
  0
LINE
  8
PT3-Grafika_wekt5
  6
CONTINUOUS
 62
     7
 10
355.499
 20
163.832600000000010
 11
355.545
 21
163.836400000000000
  0
LINE
  8
PT3-Grafika_wekt5
  6
CONTINUOUS
 62
     7
 10
355.545
 20
163.836400000000000
 11
355.5971
 21
163.837800000000020
  0
LINE
  8
PT3-Grafika_wekt5
  6
CONTINUOUS
 62
     7
 10
355.5971
 20
163.837800000000020
 11
355.6395
 21
163.836400000000000
  0
LINE
  8
PT3-Grafika_wekt5
  6
CONTINUOUS
 62
     7
 10
355.6395
 20
163.836400000000000
 11
355.6606
 21
163.832600000000010
  0
LINE
  8
PT3-Grafika_wekt5
  6
CONTINUOUS
 62
     7
 10
355.6606
 20
163.832600000000010
 11
355.6559
 21
163.827400000000010
  0
LINE
  8
PT3-Grafika_wekt5
  6
CONTINUOUS
 62
     7
 10
355.6559
 20
163.827400000000010
 11
355.6255
 21
163.822100000000010
  0
LINE
  8
PT3-Grafika_wekt5
  6
CONTINUOUS
 62
     7
 10
355.6255
 20
163.822100000000010
 11
355.5794
 21
163.818299999999990
  0
LINE
  8
PT3-Grafika_wekt5
  6
CONTINUOUS
 62
     7
 10
355.5794
 20
163.818299999999990
 11
355.5275
 21
163.816900000000000
  0
LINE
  8
PT3-Grafika_wekt5
  6
CONTINUOUS
 62
     7
 10
355.5275
 20
163.816900000000000
 11
355.485
 21
163.818299999999990
  0
LINE
  8
PT3-Grafika_wekt5
  6
CONTINUOUS
 62
     7
 10
355.485
 20
163.818299999999990
 11
355.4639
 21
163.822100000000010
  0
LINE
  8
PT3-Grafika_wekt5
  6
CONTINUOUS
 62
     7
 10
355.5447
 20
163.966999999999980
 11
362.1523
 21
165.950899999999990
  0
LINE
  8
PT3-Grafika_wekt5
  6
CONTINUOUS
 62
     7
 10
355.743
 20
163.917399999999990
 11
362.5161
 21
165.950899999999990
  0
LINE
  8
PT3-Grafika_wekt5
  6
CONTINUOUS
 62
     7
 10
355.7562
 20
163.837800000000020
 11
362.6386
 21
165.904200000000000
  0
LINE
  8
PT3-Grafika_wekt5
  6
CONTINUOUS
 62
     7
 10
362.6386
 20
165.904200000000000
 11
371.0463
 21
165.904200000000000
  0
LINE
  8
PT3-Grafika_wekt5
  6
CONTINUOUS
 62
     7
 10
355.783
 20
163.847800000000010
 11
362.6654
 21
165.914199999999990
  0
LINE
  8
PT3-Grafika_wekt5
  6
CONTINUOUS
 62
     7
 10
362.6654
 20
165.914199999999990
 11
362.6443
 21
165.950899999999990
  0
LINE
  8
PT3-Grafika_wekt5
  6
CONTINUOUS
 62
     7
 10
362.1949
 20
166.004500000000010
 11
362.2169
 21
166.006200000000010
  0
LINE
  8
PT3-Grafika_wekt5
  6
CONTINUOUS
 62
     7
 10
362.2015
 20
165.995000000000000
 11
362.2301
 21
165.994100000000000
  0
LINE
  8
PT3-Grafika_wekt5
  6
CONTINUOUS
 62
     7
 10
362.2301
 20
165.994100000000000
 11
362.2535
 21
165.989900000000010
  0
LINE
  8
PT3-Grafika_wekt5
  6
CONTINUOUS
 62
     7
 10
362.2693
 20
165.989700000000000
 11
362.3236
 21
165.994100000000000
  0
LINE
  8
PT3-Grafika_wekt5
  6
CONTINUOUS
 62
     7
 10
362.3236
 20
165.994100000000000
 11
362.3596
 21
165.995099999999980
  0
LINE
  8
PT3-Grafika_wekt5
  6
CONTINUOUS
 62
     7
 10
362.2737
 20
166.045500000000000
 11
362.2971
 21
166.047399999999980
  0
LINE
  8
PT3-Grafika_wekt5
  6
CONTINUOUS
 62
     7
 10
362.3055
 20
166.042900000000000
 11
362.344
 21
166.047399999999980
  0
LINE
  8
PT3-Grafika_wekt5
  6
CONTINUOUS
 62
     7
 10
362.3547
 20
166.045500000000000
 11
362.4054
 21
166.008399999999990
  0
LINE
  8
PT3-Grafika_wekt5
  6
CONTINUOUS
 62
     7
 10
362.4054
 20
166.008399999999990
 11
362.4135
 21
166.017000000000000
  0
LINE
  8
PT3-Grafika_wekt5
  6
CONTINUOUS
 62
     7
 10
362.4054
 20
166.008399999999990
 11
362.4276
 21
166.004500000000010
  0
LINE
  8
PT3-Grafika_wekt5
  6
CONTINUOUS
 62
     7
 10
362.5661
 20
165.884300000000000
 11
362.5724
 21
165.884300000000000
  0
LINE
  8
PT3-Grafika_wekt5
  6
CONTINUOUS
 62
     7
 10
364.4583
 20
163.847800000000010
 11
364.4932
 21
163.917399999999990
  0
LINE
  8
PT3-Grafika_wekt5
  6
CONTINUOUS
 62
     7
 10
364.4932
 20
163.917399999999990
 11
364.5943
 21
163.966999999999980
  0
LINE
  8
PT3-Grafika_wekt5
  6
CONTINUOUS
 62
     7
 10
364.5943
 20
163.966999999999980
 11
364.6879
 21
163.966999999999980
  0
LINE
  8
PT3-Grafika_wekt5
  6
CONTINUOUS
 62
     7
 10
364.6879
 20
163.966999999999980
 11
364.7926
 21
163.917399999999990
  0
LINE
  8
PT3-Grafika_wekt5
  6
CONTINUOUS
 62
     7
 10
364.7926
 20
163.917399999999990
 11
364.8327
 21
163.847800000000010
  0
LINE
  8
PT3-Grafika_wekt5
  6
CONTINUOUS
 62
     7
 10
364.8327
 20
163.847800000000010
 11
364.4583
 21
163.847800000000010
  0
LINE
  8
PT3-Grafika_wekt5
  6
CONTINUOUS
 62
     7
 10
364.4587
 20
163.837800000000020
 11
355.7562
 21
163.837800000000020
  0
LINE
  8
PT3-Grafika_wekt5
  6
CONTINUOUS
 62
     7
 10
364.4918
 20
163.847800000000010
 11
364.4587
 21
163.837800000000020
  0
LINE
  8
PT3-Grafika_wekt5
  6
CONTINUOUS
 62
     7
 10
364.5127
 20
163.822100000000010
 11
364.5175
 21
163.827400000000010
  0
LINE
  8
PT3-Grafika_wekt5
  6
CONTINUOUS
 62
     7
 10
364.5175
 20
163.827400000000010
 11
364.5478
 21
163.832600000000010
  0
LINE
  8
PT3-Grafika_wekt5
  6
CONTINUOUS
 62
     7
 10
364.5478
 20
163.832600000000010
 11
364.5938
 21
163.836299999999990
  0
LINE
  8
PT3-Grafika_wekt5
  6
CONTINUOUS
 62
     7
 10
364.5938
 20
163.836299999999990
 11
364.6458
 21
163.837800000000020
  0
LINE
  8
PT3-Grafika_wekt5
  6
CONTINUOUS
 62
     7
 10
364.6458
 20
163.837800000000020
 11
364.6882
 21
163.836299999999990
  0
LINE
  8
PT3-Grafika_wekt5
  6
CONTINUOUS
 62
     7
 10
364.6882
 20
163.836299999999990
 11
364.7094
 21
163.832600000000010
  0
LINE
  8
PT3-Grafika_wekt5
  6
CONTINUOUS
 62
     7
 10
364.7094
 20
163.832600000000010
 11
364.7046
 21
163.827400000000010
  0
LINE
  8
PT3-Grafika_wekt5
  6
CONTINUOUS
 62
     7
 10
364.7046
 20
163.827400000000010
 11
364.6743
 21
163.822100000000010
  0
LINE
  8
PT3-Grafika_wekt5
  6
CONTINUOUS
 62
     7
 10
364.6743
 20
163.822100000000010
 11
364.6282
 21
163.818299999999990
  0
LINE
  8
PT3-Grafika_wekt5
  6
CONTINUOUS
 62
     7
 10
364.6282
 20
163.818299999999990
 11
364.5762
 21
163.816900000000000
  0
LINE
  8
PT3-Grafika_wekt5
  6
CONTINUOUS
 62
     7
 10
364.5762
 20
163.816900000000000
 11
364.5338
 21
163.818299999999990
  0
LINE
  8
PT3-Grafika_wekt5
  6
CONTINUOUS
 62
     7
 10
364.5338
 20
163.818299999999990
 11
364.5127
 21
163.822100000000010
  0
LINE
  8
PT3-Grafika_wekt5
  6
CONTINUOUS
 62
     7
 10
364.5943
 20
163.966999999999980
 11
371.202
 21
165.950899999999990
  0
LINE
  8
PT3-Grafika_wekt5
  6
CONTINUOUS
 62
     7
 10
364.6945
 20
163.776099999999990
 11
371.3937
 21
165.787499999999990
  0
LINE
  8
PT3-Grafika_wekt5
  6
CONTINUOUS
 62
     7
 10
364.7926
 20
163.917399999999990
 11
371.3896
 21
165.898000000000000
  0
LINE
  8
PT3-Grafika_wekt5
  6
CONTINUOUS
 62
     7
 10
364.8099
 20
163.127799999999980
 11
365.2274
 21
163.253199999999990
  0
LINE
  8
PT3-Grafika_wekt5
  6
CONTINUOUS
 62
     7
 10
365.2274
 20
163.253199999999990
 11
335.8446
 21
163.253199999999990
  0
LINE
  8
PT3-Grafika_wekt5
  6
CONTINUOUS
 62
     7
 10
364.8113
 20
163.087999999999990
 11
365.223
 21
163.211700000000010
  0
LINE
  8
PT3-Grafika_wekt5
  6
CONTINUOUS
 62
     7
 10
364.8327
 20
163.847800000000010
 11
371.3926
 21
165.817299999999990
  0
LINE
  8
PT3-Grafika_wekt5
  6
CONTINUOUS
 62
     7
 10
365.2274
 20
163.253199999999990
 11
365.2428
 21
163.217600000000000
  0
LINE
  8
PT3-Grafika_wekt5
  6
CONTINUOUS
 62
     7
 10
365.4501
 20
163.587200000000000
 11
365.4599
 21
163.321500000000010
  0
LINE
  8
PT3-Grafika_wekt5
  6
CONTINUOUS
 62
     7
 10
371.2622
 20
166.003100000000020
 11
371.2692
 21
166.010600000000010
  0
LINE
  8
PT3-Grafika_wekt5
  6
CONTINUOUS
 62
     7
 10
371.2658
 20
165.994500000000020
 11
371.2789
 21
165.994100000000000
  0
LINE
  8
PT3-Grafika_wekt5
  6
CONTINUOUS
 62
     7
 10
371.2789
 20
165.994100000000000
 11
371.2896
 21
165.992200000000000
  0
LINE
  8
PT3-Grafika_wekt5
  6
CONTINUOUS
 62
     7
 10
371.3225
 20
166.045500000000000
 11
371.346
 21
166.047399999999980
  0
LINE
  8
PT3-Grafika_wekt5
  6
CONTINUOUS
 62
     7
 10
371.3492
 20
165.992200000000000
 11
371.3724
 21
165.994100000000000
  0
LINE
  8
PT3-Grafika_wekt5
  6
CONTINUOUS
 62
     7
 10
371.3724
 20
165.994100000000000
 11
371.388
 21
165.994500000000020
  0
LINE
  8
PT3-Grafika_wekt5
  6
CONTINUOUS
 62
     7
 10
371.3543
 20
166.042900000000000
 11
371.3928
 21
166.047399999999980
  0
LINE
  8
PT3-Grafika_wekt5
  6
CONTINUOUS
 62
     7
 10
371.3877
 20
165.950899999999990
 11
371.7356
 21
166.055400000000020
  0
LINE
  8
PT3-Grafika_wekt5
  6
CONTINUOUS
 62
     7
 10
371.7356
 20
166.055400000000020
 11
371.7567
 21
165.480799999999990
  0
LINE
  8
PT3-Grafika_wekt5
  6
CONTINUOUS
 62
     7
 10
371.4035
 20
166.045500000000000
 11
371.4542
 21
166.008399999999990
  0
LINE
  8
PT3-Grafika_wekt5
  6
CONTINUOUS
 62
     7
 10
371.4542
 20
166.008399999999990
 11
371.4494
 21
166.003100000000020
  0
LINE
  8
PT3-Grafika_wekt5
  6
CONTINUOUS
 62
     7
 10
371.4494
 20
166.003100000000020
 11
371.5051
 21
166.012800000000000
  0
LINE
  8
PT3-Grafika_wekt5
  6
CONTINUOUS
 62
     7
 10
371.4542
 20
166.008399999999990
 11
371.4617
 21
166.007099999999980
  0
LINE
  8
PT3-Grafika_wekt5
  6
CONTINUOUS
 62
     7
 10
372.5483
 20
165.718500000000010
 11
365.4501
 21
163.587200000000000
  0
LINE
  8
PT3-Grafika_wekt5
  6
CONTINUOUS
 62
     7
 10
372.6393
 20
165.465500000000020
 11
372.5483
 21
165.718500000000010
  0
LINE
  8
PT3-Grafika_wekt5
  6
CONTINUOUS
 62
     7
 10
436.1504
 20
116.615199999999990
 11
436.1504
 21
116.915100000000000
  0
LINE
  8
PT3-Grafika_wekt5
  6
CONTINUOUS
 62
     7
 10
436.1504
 20
116.915100000000000
 11
446.4445
 21
116.915100000000000
  0
LINE
  8
PT3-Grafika_wekt5
  6
CONTINUOUS
 62
     7
 10
446.4445
 20
116.915100000000000
 11
446.4445
 21
116.615199999999990
  0
LINE
  8
PT3-Grafika_wekt5
  6
CONTINUOUS
 62
     7
 10
446.4445
 20
116.615199999999990
 11
436.1504
 21
116.615199999999990
  0
LINE
  8
PT3-Grafika_wekt5
  6
CONTINUOUS
 62
     7
 10
436.675
 20
116.915100000000000
 11
436.675
 21
126.109800000000010
  0
LINE
  8
PT3-Grafika_wekt5
  6
CONTINUOUS
 62
     7
 10
436.675
 20
126.109800000000010
 11
437.33
 21
125.410200000000000
  0
LINE
  8
PT3-Grafika_wekt5
  6
CONTINUOUS
 62
     7
 10
437.33
 20
125.410200000000000
 11
437.33
 21
117.614700000000000
  0
LINE
  8
PT3-Grafika_wekt5
  6
CONTINUOUS
 62
     7
 10
437.33
 20
117.614700000000000
 11
436.675
 21
116.915100000000000
  0
LINE
  8
PT3-Grafika_wekt5
  6
CONTINUOUS
 62
     7
 10
437.33
 20
117.614700000000000
 11
446.3139
 21
117.614700000000000
  0
LINE
  8
PT3-Grafika_wekt5
  6
CONTINUOUS
 62
     7
 10
446.3139
 20
117.614700000000000
 11
446.3139
 21
125.410200000000000
  0
LINE
  8
PT3-Grafika_wekt5
  6
CONTINUOUS
 62
     7
 10
446.3139
 20
125.410200000000000
 11
437.33
 21
125.410200000000000
  0
LINE
  8
PT3-Grafika_wekt5
  6
CONTINUOUS
 62
     7
 10
437.3913
 20
117.614700000000000
 11
437.3913
 21
125.410200000000000
  0
LINE
  8
PT3-Grafika_wekt5
  6
CONTINUOUS
 62
     7
 10
446.3139
 20
117.614700000000000
 11
446.6193
 21
117.288500000000000
  0
LINE
  8
PT3-Grafika_wekt5
  6
CONTINUOUS
 62
     7
 10
446.3139
 20
125.410200000000000
 11
446.6193
 21
125.736300000000000
  0
LINE
  8
PT3-Grafika_wekt5
  6
CONTINUOUS
 62
     7
 10
446.4445
 20
116.615199999999990
 11
446.6193
 21
116.615199999999990
  0
LINE
  8
PT3-Grafika_wekt5
  6
CONTINUOUS
 62
     7
 10
446.4445
 20
116.915100000000000
 11
446.6193
 21
116.915100000000000
  0
LINE
  8
PT3-Grafika_wekt5
  6
CONTINUOUS
 62
     7
 10
422.1133
 20
116.615199999999990
 11
422.1133
 21
116.915100000000000
  0
LINE
  8
PT3-Grafika_wekt5
  6
CONTINUOUS
 62
     7
 10
422.1133
 20
116.915100000000000
 11
432.4073
 21
116.915100000000000
  0
LINE
  8
PT3-Grafika_wekt5
  6
CONTINUOUS
 62
     7
 10
432.4073
 20
116.915100000000000
 11
432.4073
 21
116.615199999999990
  0
LINE
  8
PT3-Grafika_wekt5
  6
CONTINUOUS
 62
     7
 10
432.4073
 20
116.615199999999990
 11
422.1133
 21
116.615199999999990
  0
LINE
  8
PT3-Grafika_wekt5
  6
CONTINUOUS
 62
     7
 10
422.6379
 20
116.915100000000000
 11
422.6379
 21
126.109800000000010
  0
LINE
  8
PT3-Grafika_wekt5
  6
CONTINUOUS
 62
     7
 10
422.6379
 20
126.109800000000010
 11
423.2929
 21
125.410200000000000
  0
LINE
  8
PT3-Grafika_wekt5
  6
CONTINUOUS
 62
     7
 10
423.2929
 20
125.410200000000000
 11
423.2929
 21
117.614700000000000
  0
LINE
  8
PT3-Grafika_wekt5
  6
CONTINUOUS
 62
     7
 10
423.2929
 20
117.614700000000000
 11
422.6379
 21
116.915100000000000
  0
LINE
  8
PT3-Grafika_wekt5
  6
CONTINUOUS
 62
     7
 10
423.2929
 20
117.614700000000000
 11
432.2768
 21
117.614700000000000
  0
LINE
  8
PT3-Grafika_wekt5
  6
CONTINUOUS
 62
     7
 10
432.2768
 20
117.614700000000000
 11
432.2768
 21
125.410200000000000
  0
LINE
  8
PT3-Grafika_wekt5
  6
CONTINUOUS
 62
     7
 10
432.2768
 20
125.410200000000000
 11
423.2929
 21
125.410200000000000
  0
LINE
  8
PT3-Grafika_wekt5
  6
CONTINUOUS
 62
     7
 10
423.3541
 20
117.614700000000000
 11
423.3541
 21
125.410200000000000
  0
LINE
  8
PT3-Grafika_wekt5
  6
CONTINUOUS
 62
     7
 10
432.2768
 20
117.614700000000000
 11
432.5821
 21
117.288600000000000
  0
LINE
  8
PT3-Grafika_wekt5
  6
CONTINUOUS
 62
     7
 10
432.2768
 20
125.410200000000000
 11
432.5821
 21
125.736300000000000
  0
LINE
  8
PT3-Grafika_wekt5
  6
CONTINUOUS
 62
     7
 10
432.4073
 20
116.615199999999990
 11
432.5821
 21
116.615199999999990
  0
LINE
  8
PT3-Grafika_wekt5
  6
CONTINUOUS
 62
     7
 10
432.4073
 20
116.915100000000000
 11
432.5821
 21
116.915100000000000
  0
LINE
  8
PT3-Grafika_wekt5
  6
CONTINUOUS
 62
     7
 10
274.645
 20
158.833800000000000
 11
274.645
 21
160.233000000000000
  0
LINE
  8
PT3-Grafika_wekt5
  6
CONTINUOUS
 62
     7
 10
274.645
 20
160.233000000000000
 11
276.3835
 21
160.233000000000000
  0
LINE
  8
PT3-Grafika_wekt5
  6
CONTINUOUS
 62
     7
 10
447.801
 20
158.833800000000000
 11
274.645
 21
158.833800000000000
  0
LINE
  8
PT3-Grafika_wekt5
  6
CONTINUOUS
 62
     7
 10
512.9285
 20
156.708200000000010
 11
514.1798
 21
156.708200000000010
  0
LINE
  8
PT3-Grafika_wekt5
  6
CONTINUOUS
 62
     7
 10
514.1798
 20
156.708200000000010
 11
525.384
 21
160.072100000000010
  0
LINE
  8
PT3-Grafika_wekt5
  6
CONTINUOUS
 62
     7
 10
524.4483
 20
158.974400000000000
 11
526.3198
 21
158.974400000000000
  0
LINE
  8
PT3-Grafika_wekt5
  6
CONTINUOUS
 62
     7
 10
526.3198
 20
158.974400000000000
 11
526.3198
 21
160.373500000000010
  0
LINE
  8
PT3-Grafika_wekt5
  6
CONTINUOUS
 62
     7
 10
526.3198
 20
160.373500000000010
 11
525.384
 21
160.373500000000010
  0
LINE
  8
PT3-Grafika_wekt5
  6
CONTINUOUS
 62
     7
 10
526.2805
 20
160.373500000000010
 11
526.2805
 21
160.716999999999980
  0
LINE
  8
PT3-Grafika_wekt5
  6
CONTINUOUS
 62
     7
 10
526.3198
 20
158.974400000000000
 11
526.8096
 21
158.974400000000000
  0
LINE
  8
PT3-Grafika_wekt5
  6
CONTINUOUS
 62
     7
 10
526.8096
 20
158.974400000000000
 11
526.8096
 21
160.373500000000010
  0
LINE
  8
PT3-Grafika_wekt5
  6
CONTINUOUS
 62
     7
 10
526.8096
 20
160.373500000000010
 11
526.3198
 21
160.373500000000010
  0
LINE
  8
PT3-Grafika_wekt5
  6
CONTINUOUS
 62
     7
 10
408.0763
 20
116.615199999999990
 11
408.0763
 21
116.915100000000000
  0
LINE
  8
PT3-Grafika_wekt5
  6
CONTINUOUS
 62
     7
 10
408.0763
 20
116.915100000000000
 11
418.3703
 21
116.915100000000000
  0
LINE
  8
PT3-Grafika_wekt5
  6
CONTINUOUS
 62
     7
 10
418.3703
 20
116.915100000000000
 11
418.3703
 21
116.615199999999990
  0
LINE
  8
PT3-Grafika_wekt5
  6
CONTINUOUS
 62
     7
 10
418.3703
 20
116.615199999999990
 11
408.0763
 21
116.615199999999990
  0
LINE
  8
PT3-Grafika_wekt5
  6
CONTINUOUS
 62
     7
 10
408.6008
 20
116.915100000000000
 11
408.6008
 21
126.109800000000010
  0
LINE
  8
PT3-Grafika_wekt5
  6
CONTINUOUS
 62
     7
 10
408.6008
 20
126.109800000000010
 11
409.2559
 21
125.410200000000000
  0
LINE
  8
PT3-Grafika_wekt5
  6
CONTINUOUS
 62
     7
 10
409.2559
 20
125.410200000000000
 11
409.2559
 21
117.614700000000000
  0
LINE
  8
PT3-Grafika_wekt5
  6
CONTINUOUS
 62
     7
 10
409.2559
 20
117.614700000000000
 11
408.6008
 21
116.915100000000000
  0
LINE
  8
PT3-Grafika_wekt5
  6
CONTINUOUS
 62
     7
 10
409.2559
 20
117.614700000000000
 11
418.2398
 21
117.614700000000000
  0
LINE
  8
PT3-Grafika_wekt5
  6
CONTINUOUS
 62
     7
 10
418.2398
 20
117.614700000000000
 11
418.2398
 21
125.410200000000000
  0
LINE
  8
PT3-Grafika_wekt5
  6
CONTINUOUS
 62
     7
 10
418.2398
 20
125.410200000000000
 11
409.2559
 21
125.410200000000000
  0
LINE
  8
PT3-Grafika_wekt5
  6
CONTINUOUS
 62
     7
 10
409.3171
 20
117.614700000000000
 11
409.3171
 21
125.410200000000000
  0
LINE
  8
PT3-Grafika_wekt5
  6
CONTINUOUS
 62
     7
 10
418.2398
 20
117.614700000000000
 11
418.5451
 21
117.288600000000000
  0
LINE
  8
PT3-Grafika_wekt5
  6
CONTINUOUS
 62
     7
 10
418.2398
 20
125.410200000000000
 11
418.5451
 21
125.736300000000000
  0
LINE
  8
PT3-Grafika_wekt5
  6
CONTINUOUS
 62
     7
 10
418.3703
 20
116.615199999999990
 11
418.5451
 21
116.615199999999990
  0
LINE
  8
PT3-Grafika_wekt5
  6
CONTINUOUS
 62
     7
 10
418.3703
 20
116.915100000000000
 11
418.5451
 21
116.915100000000000
  0
LINE
  8
PT3-Grafika_wekt5
  6
CONTINUOUS
 62
     7
 10
394.0386
 20
116.615199999999990
 11
394.0386
 21
116.915100000000000
  0
LINE
  8
PT3-Grafika_wekt5
  6
CONTINUOUS
 62
     7
 10
394.0386
 20
116.915100000000000
 11
404.3326
 21
116.915100000000000
  0
LINE
  8
PT3-Grafika_wekt5
  6
CONTINUOUS
 62
     7
 10
404.3326
 20
116.915100000000000
 11
404.3326
 21
116.615199999999990
  0
LINE
  8
PT3-Grafika_wekt5
  6
CONTINUOUS
 62
     7
 10
404.3326
 20
116.615199999999990
 11
394.0386
 21
116.615199999999990
  0
LINE
  8
PT3-Grafika_wekt5
  6
CONTINUOUS
 62
     7
 10
394.5631
 20
116.915100000000000
 11
394.5631
 21
126.109800000000010
  0
LINE
  8
PT3-Grafika_wekt5
  6
CONTINUOUS
 62
     7
 10
394.5631
 20
126.109800000000010
 11
395.2182
 21
125.410200000000000
  0
LINE
  8
PT3-Grafika_wekt5
  6
CONTINUOUS
 62
     7
 10
395.2182
 20
125.410200000000000
 11
395.2182
 21
117.614700000000000
  0
LINE
  8
PT3-Grafika_wekt5
  6
CONTINUOUS
 62
     7
 10
395.2182
 20
117.614700000000000
 11
394.5631
 21
116.915100000000000
  0
LINE
  8
PT3-Grafika_wekt5
  6
CONTINUOUS
 62
     7
 10
395.2182
 20
117.614700000000000
 11
404.202
 21
117.614700000000000
  0
LINE
  8
PT3-Grafika_wekt5
  6
CONTINUOUS
 62
     7
 10
404.202
 20
117.614700000000000
 11
404.202
 21
125.410200000000000
  0
LINE
  8
PT3-Grafika_wekt5
  6
CONTINUOUS
 62
     7
 10
404.202
 20
125.410200000000000
 11
395.2182
 21
125.410200000000000
  0
LINE
  8
PT3-Grafika_wekt5
  6
CONTINUOUS
 62
     7
 10
395.2794
 20
117.614700000000000
 11
395.2794
 21
125.410200000000000
  0
LINE
  8
PT3-Grafika_wekt5
  6
CONTINUOUS
 62
     7
 10
404.202
 20
117.614700000000000
 11
404.5074
 21
117.288600000000000
  0
LINE
  8
PT3-Grafika_wekt5
  6
CONTINUOUS
 62
     7
 10
404.202
 20
125.410200000000000
 11
404.5074
 21
125.736300000000000
  0
LINE
  8
PT3-Grafika_wekt5
  6
CONTINUOUS
 62
     7
 10
404.3326
 20
116.615199999999990
 11
404.5074
 21
116.615199999999990
  0
LINE
  8
PT3-Grafika_wekt5
  6
CONTINUOUS
 62
     7
 10
404.3326
 20
116.915100000000000
 11
404.5074
 21
116.915100000000000
  0
LINE
  8
PT3-Grafika_wekt5
  6
CONTINUOUS
 62
     7
 10
387.3574
 20
98.625599999999991
 11
387.3574
 21
114.616400000000000
  0
LINE
  8
PT3-Grafika_wekt5
  6
CONTINUOUS
 62
     7
 10
387.3574
 20
114.616400000000000
 11
388.0125
 21
113.916799999999990
  0
LINE
  8
PT3-Grafika_wekt5
  6
CONTINUOUS
 62
     7
 10
388.0125
 20
113.916799999999990
 11
388.0125
 21
94.987200000000001
  0
LINE
  8
PT3-Grafika_wekt5
  6
CONTINUOUS
 62
     7
 10
387.3574
 20
114.616400000000000
 11
391.5932
 21
114.616400000000000
  0
LINE
  8
PT3-Grafika_wekt5
  6
CONTINUOUS
 62
     7
 10
388.0125
 20
113.916799999999990
 11
391.2878
 21
113.916799999999990
  0
LINE
  8
PT3-Grafika_wekt5
  6
CONTINUOUS
 62
     7
 10
391.2878
 20
113.916799999999990
 11
391.2878
 21
95.007900000000006
  0
LINE
  8
PT3-Grafika_wekt5
  6
CONTINUOUS
 62
     7
 10
391.2878
 20
113.916799999999990
 11
391.5932
 21
114.242899999999990
  0
LINE
  8
PT3-Grafika_wekt5
  6
CONTINUOUS
 62
     7
 10
382.5847
 20
114.616400000000000
 11
382.5847
 21
119.413700000000010
  0
LINE
  8
PT3-Grafika_wekt5
  6
CONTINUOUS
 62
     7
 10
382.5847
 20
119.413700000000010
 11
383.2398
 21
118.714100000000000
  0
LINE
  8
PT3-Grafika_wekt5
  6
CONTINUOUS
 62
     7
 10
383.2398
 20
118.714100000000000
 11
383.2398
 21
115.315900000000000
  0
LINE
  8
PT3-Grafika_wekt5
  6
CONTINUOUS
 62
     7
 10
383.2398
 20
115.315900000000000
 11
382.5847
 21
114.616400000000000
  0
LINE
  8
PT3-Grafika_wekt5
  6
CONTINUOUS
 62
     7
 10
382.5847
 20
114.616400000000000
 11
391.5932
 21
114.616400000000000
  0
LINE
  8
PT3-Grafika_wekt5
  6
CONTINUOUS
 62
     7
 10
383.2398
 20
115.315900000000000
 11
391.2878
 21
115.315900000000000
  0
LINE
  8
PT3-Grafika_wekt5
  6
CONTINUOUS
 62
     7
 10
391.2878
 20
115.315900000000000
 11
391.2878
 21
118.714100000000000
  0
LINE
  8
PT3-Grafika_wekt5
  6
CONTINUOUS
 62
     7
 10
391.2878
 20
118.714100000000000
 11
383.2398
 21
118.714100000000000
  0
LINE
  8
PT3-Grafika_wekt5
  6
CONTINUOUS
 62
     7
 10
383.301
 20
115.315900000000000
 11
383.301
 21
118.714100000000000
  0
LINE
  8
PT3-Grafika_wekt5
  6
CONTINUOUS
 62
     7
 10
391.2878
 20
115.315900000000000
 11
391.5932
 21
114.989900000000010
  0
LINE
  8
PT3-Grafika_wekt5
  6
CONTINUOUS
 62
     7
 10
391.2878
 20
118.714100000000000
 11
391.5932
 21
119.040100000000000
  0
LINE
  8
PT3-Grafika_wekt5
  6
CONTINUOUS
 62
     7
 10
379.4029
 20
94.932799999999986
 11
379.4029
 21
114.616400000000000
  0
LINE
  8
PT3-Grafika_wekt5
  6
CONTINUOUS
 62
     7
 10
379.4029
 20
114.616400000000000
 11
380.058
 21
113.916799999999990
  0
LINE
  8
PT3-Grafika_wekt5
  6
CONTINUOUS
 62
     7
 10
380.058
 20
113.916799999999990
 11
380.058
 21
94.936900000000009
  0
LINE
  8
PT3-Grafika_wekt5
  6
CONTINUOUS
 62
     7
 10
380.058
 20
113.916799999999990
 11
386.7023
 21
113.916799999999990
  0
LINE
  8
PT3-Grafika_wekt5
  6
CONTINUOUS
 62
     7
 10
386.7023
 20
113.916799999999990
 11
386.7023
 21
94.978900000000010
  0
LINE
  8
PT3-Grafika_wekt5
  6
CONTINUOUS
 62
     7
 10
382.235
 20
114.616400000000000
 11
387.3574
 21
114.616400000000000
  0
LINE
  8
PT3-Grafika_wekt5
  6
CONTINUOUS
 62
     7
 10
387.3574
 20
114.616400000000000
 11
386.7023
 21
113.916799999999990
  0
LINE
  8
PT3-Grafika_wekt5
  6
CONTINUOUS
 62
     7
 10
387.3574
 20
94.983100000000007
 11
387.3574
 21
114.616400000000000
  0
LINE
  8
PT3-Grafika_wekt5
  6
CONTINUOUS
 62
     7
 10
387.3574
 20
114.616400000000000
 11
387.3574
 21
114.616400000000000
  0
LINE
  8
PT3-Grafika_wekt5
  6
CONTINUOUS
 62
     7
 10
365.9641
 20
116.615199999999990
 11
365.9641
 21
116.915100000000000
  0
LINE
  8
PT3-Grafika_wekt5
  6
CONTINUOUS
 62
     7
 10
365.9641
 20
116.915100000000000
 11
376.2581
 21
116.915100000000000
  0
LINE
  8
PT3-Grafika_wekt5
  6
CONTINUOUS
 62
     7
 10
376.2581
 20
116.915100000000000
 11
376.2581
 21
116.615199999999990
  0
LINE
  8
PT3-Grafika_wekt5
  6
CONTINUOUS
 62
     7
 10
376.2581
 20
116.615199999999990
 11
365.9641
 21
116.615199999999990
  0
LINE
  8
PT3-Grafika_wekt5
  6
CONTINUOUS
 62
     7
 10
366.4886
 20
116.915100000000000
 11
366.4886
 21
126.109800000000010
  0
LINE
  8
PT3-Grafika_wekt5
  6
CONTINUOUS
 62
     7
 10
366.4886
 20
126.109800000000010
 11
367.1437
 21
125.410200000000000
  0
LINE
  8
PT3-Grafika_wekt5
  6
CONTINUOUS
 62
     7
 10
367.1437
 20
125.410200000000000
 11
367.1437
 21
117.614700000000000
  0
LINE
  8
PT3-Grafika_wekt5
  6
CONTINUOUS
 62
     7
 10
367.1437
 20
117.614700000000000
 11
366.4886
 21
116.915100000000000
  0
LINE
  8
PT3-Grafika_wekt5
  6
CONTINUOUS
 62
     7
 10
367.1437
 20
117.614700000000000
 11
376.1276
 21
117.614700000000000
  0
LINE
  8
PT3-Grafika_wekt5
  6
CONTINUOUS
 62
     7
 10
376.1276
 20
117.614700000000000
 11
376.1276
 21
125.410200000000000
  0
LINE
  8
PT3-Grafika_wekt5
  6
CONTINUOUS
 62
     7
 10
376.1276
 20
125.410200000000000
 11
367.1437
 21
125.410200000000000
  0
LINE
  8
PT3-Grafika_wekt5
  6
CONTINUOUS
 62
     7
 10
367.2049
 20
117.614700000000000
 11
367.2049
 21
125.410200000000000
  0
LINE
  8
PT3-Grafika_wekt5
  6
CONTINUOUS
 62
     7
 10
376.1276
 20
117.614700000000000
 11
376.4329
 21
117.288600000000000
  0
LINE
  8
PT3-Grafika_wekt5
  6
CONTINUOUS
 62
     7
 10
376.1276
 20
125.410200000000000
 11
376.4329
 21
125.736300000000000
  0
LINE
  8
PT3-Grafika_wekt5
  6
CONTINUOUS
 62
     7
 10
376.2581
 20
116.615199999999990
 11
376.4329
 21
116.615199999999990
  0
LINE
  8
PT3-Grafika_wekt5
  6
CONTINUOUS
 62
     7
 10
376.2581
 20
116.915100000000000
 11
376.4329
 21
116.915100000000000
  0
LINE
  8
PT3-Grafika_wekt5
  6
CONTINUOUS
 62
     7
 10
351.9268
 20
116.615199999999990
 11
351.9268
 21
116.915100000000000
  0
LINE
  8
PT3-Grafika_wekt5
  6
CONTINUOUS
 62
     7
 10
351.9268
 20
116.915100000000000
 11
362.2208
 21
116.915100000000000
  0
LINE
  8
PT3-Grafika_wekt5
  6
CONTINUOUS
 62
     7
 10
362.2208
 20
116.915100000000000
 11
362.2208
 21
116.615199999999990
  0
LINE
  8
PT3-Grafika_wekt5
  6
CONTINUOUS
 62
     7
 10
362.2208
 20
116.615199999999990
 11
351.9268
 21
116.615199999999990
  0
LINE
  8
PT3-Grafika_wekt5
  6
CONTINUOUS
 62
     7
 10
352.4514
 20
116.915100000000000
 11
352.4514
 21
126.109800000000010
  0
LINE
  8
PT3-Grafika_wekt5
  6
CONTINUOUS
 62
     7
 10
352.4514
 20
126.109800000000010
 11
353.1065
 21
125.410200000000000
  0
LINE
  8
PT3-Grafika_wekt5
  6
CONTINUOUS
 62
     7
 10
353.1065
 20
125.410200000000000
 11
353.1065
 21
117.614700000000000
  0
LINE
  8
PT3-Grafika_wekt5
  6
CONTINUOUS
 62
     7
 10
353.1065
 20
117.614700000000000
 11
352.4514
 21
116.915100000000000
  0
LINE
  8
PT3-Grafika_wekt5
  6
CONTINUOUS
 62
     7
 10
353.1065
 20
117.614700000000000
 11
362.0903
 21
117.614700000000000
  0
LINE
  8
PT3-Grafika_wekt5
  6
CONTINUOUS
 62
     7
 10
362.0903
 20
117.614700000000000
 11
362.0903
 21
125.410200000000000
  0
LINE
  8
PT3-Grafika_wekt5
  6
CONTINUOUS
 62
     7
 10
362.0903
 20
125.410200000000000
 11
353.1065
 21
125.410200000000000
  0
LINE
  8
PT3-Grafika_wekt5
  6
CONTINUOUS
 62
     7
 10
353.1676
 20
117.614700000000000
 11
353.1676
 21
125.410200000000000
  0
LINE
  8
PT3-Grafika_wekt5
  6
CONTINUOUS
 62
     7
 10
362.0903
 20
117.614700000000000
 11
362.3957
 21
117.288600000000000
  0
LINE
  8
PT3-Grafika_wekt5
  6
CONTINUOUS
 62
     7
 10
362.0903
 20
125.410200000000000
 11
362.3957
 21
125.736300000000000
  0
LINE
  8
PT3-Grafika_wekt5
  6
CONTINUOUS
 62
     7
 10
362.2208
 20
116.615199999999990
 11
362.3957
 21
116.615199999999990
  0
LINE
  8
PT3-Grafika_wekt5
  6
CONTINUOUS
 62
     7
 10
362.2208
 20
116.915100000000000
 11
362.3957
 21
116.915100000000000
  0
LINE
  8
PT3-Grafika_wekt5
  6
CONTINUOUS
 62
     7
 10
524.6418
 20
118.574000000000010
 11
568.4341
 21
118.574000000000010
  0
LINE
  8
PT3-Grafika_wekt5
  6
CONTINUOUS
 62
     7
 10
568.4341
 20
118.574000000000010
 11
570.4493
 21
119.238699999999990
  0
LINE
  8
PT3-Grafika_wekt5
  6
CONTINUOUS
 62
     7
 10
570.4493
 20
119.238699999999990
 11
524.6418
 21
119.238699999999990
  0
LINE
  8
PT3-Grafika_wekt5
  6
CONTINUOUS
 62
     7
 10
524.6418
 20
119.586999999999990
 11
572.6075
 21
119.586999999999990
  0
LINE
  8
PT3-Grafika_wekt5
  6
CONTINUOUS
 62
     7
 10
572.6075
 20
119.586999999999990
 11
573.0046
 21
119.762700000000000
  0
LINE
  8
PT3-Grafika_wekt5
  6
CONTINUOUS
 62
     7
 10
573.0046
 20
119.762700000000000
 11
572.9871
 21
119.762700000000000
  0
LINE
  8
PT3-Grafika_wekt5
  6
CONTINUOUS
 62
     7
 10
572.9871
 20
119.762700000000000
 11
572.5901
 21
119.586999999999990
  0
LINE
  8
PT3-Grafika_wekt5
  6
CONTINUOUS
 62
     7
 10
572.5901
 20
119.586999999999990
 11
572.5806
 21
119.586999999999990
  0
LINE
  8
PT3-Grafika_wekt5
  6
CONTINUOUS
 62
     7
 10
524.6418
 20
120.186600000000000
 11
572.1222
 21
120.186600000000000
  0
LINE
  8
PT3-Grafika_wekt5
  6
CONTINUOUS
 62
     7
 10
524.6418
 20
120.286599999999990
 11
571.9438
 21
120.286599999999990
  0
LINE
  8
PT3-Grafika_wekt5
  6
CONTINUOUS
 62
     7
 10
571.9438
 20
120.286599999999990
 11
571.9438
 21
120.186600000000000
  0
LINE
  8
PT3-Grafika_wekt5
  6
CONTINUOUS
 62
     7
 10
524.6418
 20
120.586400000000000
 11
571.9438
 21
120.586400000000000
  0
LINE
  8
PT3-Grafika_wekt5
  6
CONTINUOUS
 62
     7
 10
571.9438
 20
120.586400000000000
 11
539.6057
 21
122.696800000000000
  0
LINE
  8
PT3-Grafika_wekt5
  6
CONTINUOUS
 62
     7
 10
570.4493
 20
119.238699999999990
 11
570.4501
 21
119.238699999999990
  0
LINE
  8
PT3-Grafika_wekt5
  6
CONTINUOUS
 62
     7
 10
570.4501
 20
119.238699999999990
 11
570.4496
 21
119.239100000000010
  0
LINE
  8
PT3-Grafika_wekt5
  6
CONTINUOUS
 62
     7
 10
570.4501
 20
119.238699999999990
 11
570.7762
 21
119.586999999999990
  0
LINE
  8
PT3-Grafika_wekt5
  6
CONTINUOUS
 62
     7
 10
570.7758
 20
119.586999999999990
 11
570.4493
 21
119.238699999999990
  0
LINE
  8
PT3-Grafika_wekt5
  6
CONTINUOUS
 62
     7
 10
571.1324
 20
119.238699999999990
 11
570.4501
 21
119.238699999999990
  0
LINE
  8
PT3-Grafika_wekt5
  6
CONTINUOUS
 62
     7
 10
571.1325
 20
119.238699999999990
 11
571.4585
 21
119.586999999999990
  0
LINE
  8
PT3-Grafika_wekt5
  6
CONTINUOUS
 62
     7
 10
571.1458
 20
119.238699999999990
 11
571.1672
 21
119.238699999999990
  0
LINE
  8
PT3-Grafika_wekt5
  6
CONTINUOUS
 62
     7
 10
571.1672
 20
119.238699999999990
 11
571.4933
 21
119.586999999999990
  0
LINE
  8
PT3-Grafika_wekt5
  6
CONTINUOUS
 62
     7
 10
571.1498
 20
119.238699999999990
 11
571.476
 21
119.586999999999990
  0
LINE
  8
PT3-Grafika_wekt5
  6
CONTINUOUS
 62
     7
 10
571.9438
 20
120.286599999999990
 11
571.9438
 21
120.586400000000000
  0
LINE
  8
PT3-Grafika_wekt5
  6
CONTINUOUS
 62
     7
 10
572.5989
 20
119.586999999999990
 11
572.9958
 21
119.762700000000000
  0
LINE
  8
PT3-Grafika_wekt5
  6
CONTINUOUS
 62
     7
 10
572.9958
 20
119.762700000000000
 11
573.1603
 21
120.186600000000000
  0
LINE
  8
PT3-Grafika_wekt5
  6
CONTINUOUS
 62
     7
 10
573.1603
 20
120.186600000000000
 11
524.6418
 21
120.186600000000000
  0
LINE
  8
PT3-Grafika_wekt5
  6
CONTINUOUS
 62
     7
 10
572.9871
 20
119.762700000000000
 11
573.1515
 21
120.186600000000000
  0
LINE
  8
PT3-Grafika_wekt5
  6
CONTINUOUS
 62
     7
 10
573.1515
 20
120.186600000000000
 11
573.169
 21
120.186600000000000
  0
LINE
  8
PT3-Grafika_wekt5
  6
CONTINUOUS
 62
     7
 10
573.169
 20
120.186600000000000
 11
573.0046
 21
119.762700000000000
  0
LINE
  8
PT3-Grafika_wekt5
  6
CONTINUOUS
 62
     7
 10
281.7405
 20
116.615199999999990
 11
281.7405
 21
116.915100000000000
  0
LINE
  8
PT3-Grafika_wekt5
  6
CONTINUOUS
 62
     7
 10
281.7405
 20
116.915100000000000
 11
292.0344
 21
116.915100000000000
  0
LINE
  8
PT3-Grafika_wekt5
  6
CONTINUOUS
 62
     7
 10
292.0344
 20
116.915100000000000
 11
292.0344
 21
116.615199999999990
  0
LINE
  8
PT3-Grafika_wekt5
  6
CONTINUOUS
 62
     7
 10
292.0344
 20
116.615199999999990
 11
281.7405
 21
116.615199999999990
  0
LINE
  8
PT3-Grafika_wekt5
  6
CONTINUOUS
 62
     7
 10
282.265
 20
116.915100000000000
 11
282.265
 21
126.109800000000010
  0
LINE
  8
PT3-Grafika_wekt5
  6
CONTINUOUS
 62
     7
 10
282.265
 20
126.109800000000010
 11
282.9201
 21
125.410200000000000
  0
LINE
  8
PT3-Grafika_wekt5
  6
CONTINUOUS
 62
     7
 10
282.9201
 20
125.410200000000000
 11
282.9201
 21
117.614700000000000
  0
LINE
  8
PT3-Grafika_wekt5
  6
CONTINUOUS
 62
     7
 10
282.9201
 20
117.614700000000000
 11
282.265
 21
116.915100000000000
  0
LINE
  8
PT3-Grafika_wekt5
  6
CONTINUOUS
 62
     7
 10
282.9201
 20
117.614700000000000
 11
291.9039
 21
117.614700000000000
  0
LINE
  8
PT3-Grafika_wekt5
  6
CONTINUOUS
 62
     7
 10
291.9039
 20
117.614700000000000
 11
291.9039
 21
125.410200000000000
  0
LINE
  8
PT3-Grafika_wekt5
  6
CONTINUOUS
 62
     7
 10
291.9039
 20
125.410200000000000
 11
282.9201
 21
125.410200000000000
  0
LINE
  8
PT3-Grafika_wekt5
  6
CONTINUOUS
 62
     7
 10
282.9812
 20
117.614700000000000
 11
282.9812
 21
125.410200000000000
  0
LINE
  8
PT3-Grafika_wekt5
  6
CONTINUOUS
 62
     7
 10
291.9039
 20
117.614700000000000
 11
292.2093
 21
117.288600000000000
  0
LINE
  8
PT3-Grafika_wekt5
  6
CONTINUOUS
 62
     7
 10
291.9039
 20
125.410200000000000
 11
292.2093
 21
125.736300000000000
  0
LINE
  8
PT3-Grafika_wekt5
  6
CONTINUOUS
 62
     7
 10
292.0344
 20
116.615199999999990
 11
292.2093
 21
116.615199999999990
  0
LINE
  8
PT3-Grafika_wekt5
  6
CONTINUOUS
 62
     7
 10
292.0344
 20
116.915100000000000
 11
292.2093
 21
116.915100000000000
  0
LINE
  8
PT3-Grafika_wekt5
  6
CONTINUOUS
 62
     7
 10
309.815
 20
116.615199999999990
 11
309.815
 21
116.915100000000000
  0
LINE
  8
PT3-Grafika_wekt5
  6
CONTINUOUS
 62
     7
 10
309.815
 20
116.915100000000000
 11
320.109
 21
116.915100000000000
  0
LINE
  8
PT3-Grafika_wekt5
  6
CONTINUOUS
 62
     7
 10
320.109
 20
116.915100000000000
 11
320.109
 21
116.615199999999990
  0
LINE
  8
PT3-Grafika_wekt5
  6
CONTINUOUS
 62
     7
 10
320.109
 20
116.615199999999990
 11
309.815
 21
116.615199999999990
  0
LINE
  8
PT3-Grafika_wekt5
  6
CONTINUOUS
 62
     7
 10
310.3395
 20
116.915100000000000
 11
310.3395
 21
126.109800000000010
  0
LINE
  8
PT3-Grafika_wekt5
  6
CONTINUOUS
 62
     7
 10
310.3395
 20
126.109800000000010
 11
310.9946
 21
125.410200000000000
  0
LINE
  8
PT3-Grafika_wekt5
  6
CONTINUOUS
 62
     7
 10
310.9946
 20
125.410200000000000
 11
310.9946
 21
117.614700000000000
  0
LINE
  8
PT3-Grafika_wekt5
  6
CONTINUOUS
 62
     7
 10
310.9946
 20
117.614700000000000
 11
310.3395
 21
116.915100000000000
  0
LINE
  8
PT3-Grafika_wekt5
  6
CONTINUOUS
 62
     7
 10
310.9946
 20
117.614700000000000
 11
319.9785
 21
117.614700000000000
  0
LINE
  8
PT3-Grafika_wekt5
  6
CONTINUOUS
 62
     7
 10
319.9785
 20
117.614700000000000
 11
319.9785
 21
125.410200000000000
  0
LINE
  8
PT3-Grafika_wekt5
  6
CONTINUOUS
 62
     7
 10
319.9785
 20
125.410200000000000
 11
310.9946
 21
125.410200000000000
  0
LINE
  8
PT3-Grafika_wekt5
  6
CONTINUOUS
 62
     7
 10
311.0558
 20
117.614700000000000
 11
311.0558
 21
125.410200000000000
  0
LINE
  8
PT3-Grafika_wekt5
  6
CONTINUOUS
 62
     7
 10
319.9785
 20
117.614700000000000
 11
320.2838
 21
117.288600000000000
  0
LINE
  8
PT3-Grafika_wekt5
  6
CONTINUOUS
 62
     7
 10
319.9785
 20
125.410200000000000
 11
320.2838
 21
125.736300000000000
  0
LINE
  8
PT3-Grafika_wekt5
  6
CONTINUOUS
 62
     7
 10
320.109
 20
116.615199999999990
 11
320.2838
 21
116.615199999999990
  0
LINE
  8
PT3-Grafika_wekt5
  6
CONTINUOUS
 62
     7
 10
320.109
 20
116.915100000000000
 11
320.2838
 21
116.915100000000000
  0
LINE
  8
PT3-Grafika_wekt5
  6
CONTINUOUS
 62
     7
 10
295.7777
 20
116.615199999999990
 11
295.7777
 21
116.915100000000000
  0
LINE
  8
PT3-Grafika_wekt5
  6
CONTINUOUS
 62
     7
 10
295.7777
 20
116.915100000000000
 11
306.0717
 21
116.915100000000000
  0
LINE
  8
PT3-Grafika_wekt5
  6
CONTINUOUS
 62
     7
 10
306.0717
 20
116.915100000000000
 11
306.0717
 21
116.615199999999990
  0
LINE
  8
PT3-Grafika_wekt5
  6
CONTINUOUS
 62
     7
 10
306.0717
 20
116.615199999999990
 11
295.7777
 21
116.615199999999990
  0
LINE
  8
PT3-Grafika_wekt5
  6
CONTINUOUS
 62
     7
 10
296.3022
 20
116.915100000000000
 11
296.3022
 21
126.109800000000010
  0
LINE
  8
PT3-Grafika_wekt5
  6
CONTINUOUS
 62
     7
 10
296.3022
 20
126.109800000000010
 11
296.9574
 21
125.410200000000000
  0
LINE
  8
PT3-Grafika_wekt5
  6
CONTINUOUS
 62
     7
 10
296.9574
 20
125.410200000000000
 11
296.9574
 21
117.614700000000000
  0
LINE
  8
PT3-Grafika_wekt5
  6
CONTINUOUS
 62
     7
 10
296.9574
 20
117.614700000000000
 11
296.3022
 21
116.915100000000000
  0
LINE
  8
PT3-Grafika_wekt5
  6
CONTINUOUS
 62
     7
 10
296.9574
 20
117.614700000000000
 11
305.9412
 21
117.614700000000000
  0
LINE
  8
PT3-Grafika_wekt5
  6
CONTINUOUS
 62
     7
 10
305.9412
 20
117.614700000000000
 11
305.9412
 21
125.410200000000000
  0
LINE
  8
PT3-Grafika_wekt5
  6
CONTINUOUS
 62
     7
 10
305.9412
 20
125.410200000000000
 11
296.9574
 21
125.410200000000000
  0
LINE
  8
PT3-Grafika_wekt5
  6
CONTINUOUS
 62
     7
 10
297.0186
 20
117.614700000000000
 11
297.0186
 21
125.410200000000000
  0
LINE
  8
PT3-Grafika_wekt5
  6
CONTINUOUS
 62
     7
 10
305.9412
 20
117.614700000000000
 11
306.2466
 21
117.288600000000000
  0
LINE
  8
PT3-Grafika_wekt5
  6
CONTINUOUS
 62
     7
 10
305.9412
 20
125.410200000000000
 11
306.2466
 21
125.736300000000000
  0
LINE
  8
PT3-Grafika_wekt5
  6
CONTINUOUS
 62
     7
 10
306.0717
 20
116.615199999999990
 11
306.2466
 21
116.615199999999990
  0
LINE
  8
PT3-Grafika_wekt5
  6
CONTINUOUS
 62
     7
 10
306.0717
 20
116.915100000000000
 11
306.2466
 21
116.915100000000000
  0
LINE
  8
PT3-Grafika_wekt5
  6
CONTINUOUS
 62
     7
 10
337.8896
 20
116.615199999999990
 11
337.8896
 21
116.915100000000000
  0
LINE
  8
PT3-Grafika_wekt5
  6
CONTINUOUS
 62
     7
 10
337.8896
 20
116.915100000000000
 11
348.1836
 21
116.915100000000000
  0
LINE
  8
PT3-Grafika_wekt5
  6
CONTINUOUS
 62
     7
 10
348.1836
 20
116.915100000000000
 11
348.1836
 21
116.615199999999990
  0
LINE
  8
PT3-Grafika_wekt5
  6
CONTINUOUS
 62
     7
 10
348.1836
 20
116.615199999999990
 11
337.8896
 21
116.615199999999990
  0
LINE
  8
PT3-Grafika_wekt5
  6
CONTINUOUS
 62
     7
 10
338.4141
 20
116.915100000000000
 11
338.4141
 21
126.109800000000010
  0
LINE
  8
PT3-Grafika_wekt5
  6
CONTINUOUS
 62
     7
 10
338.4141
 20
126.109800000000010
 11
339.0691
 21
125.410200000000000
  0
LINE
  8
PT3-Grafika_wekt5
  6
CONTINUOUS
 62
     7
 10
339.0691
 20
125.410200000000000
 11
339.0691
 21
117.614700000000000
  0
LINE
  8
PT3-Grafika_wekt5
  6
CONTINUOUS
 62
     7
 10
339.0691
 20
117.614700000000000
 11
338.4141
 21
116.915100000000000
  0
LINE
  8
PT3-Grafika_wekt5
  6
CONTINUOUS
 62
     7
 10
339.0691
 20
117.614700000000000
 11
348.053
 21
117.614700000000000
  0
LINE
  8
PT3-Grafika_wekt5
  6
CONTINUOUS
 62
     7
 10
348.053
 20
117.614700000000000
 11
348.053
 21
125.410200000000000
  0
LINE
  8
PT3-Grafika_wekt5
  6
CONTINUOUS
 62
     7
 10
348.053
 20
125.410200000000000
 11
339.0691
 21
125.410200000000000
  0
LINE
  8
PT3-Grafika_wekt5
  6
CONTINUOUS
 62
     7
 10
339.1303
 20
117.614700000000000
 11
339.1303
 21
125.410200000000000
  0
LINE
  8
PT3-Grafika_wekt5
  6
CONTINUOUS
 62
     7
 10
348.053
 20
117.614700000000000
 11
348.3583
 21
117.288600000000000
  0
LINE
  8
PT3-Grafika_wekt5
  6
CONTINUOUS
 62
     7
 10
348.053
 20
125.410200000000000
 11
348.3583
 21
125.736300000000000
  0
LINE
  8
PT3-Grafika_wekt5
  6
CONTINUOUS
 62
     7
 10
348.1836
 20
116.615199999999990
 11
348.3583
 21
116.615199999999990
  0
LINE
  8
PT3-Grafika_wekt5
  6
CONTINUOUS
 62
     7
 10
348.1836
 20
116.915100000000000
 11
348.3583
 21
116.915100000000000
  0
LINE
  8
PT3-Grafika_wekt5
  6
CONTINUOUS
 62
     7
 10
323.8522
 20
116.615199999999990
 11
323.8522
 21
116.915100000000000
  0
LINE
  8
PT3-Grafika_wekt5
  6
CONTINUOUS
 62
     7
 10
323.8522
 20
116.915100000000000
 11
334.1462
 21
116.915100000000000
  0
LINE
  8
PT3-Grafika_wekt5
  6
CONTINUOUS
 62
     7
 10
334.1462
 20
116.915100000000000
 11
334.1462
 21
116.615199999999990
  0
LINE
  8
PT3-Grafika_wekt5
  6
CONTINUOUS
 62
     7
 10
334.1462
 20
116.615199999999990
 11
323.8522
 21
116.615199999999990
  0
LINE
  8
PT3-Grafika_wekt5
  6
CONTINUOUS
 62
     7
 10
324.3768
 20
116.915100000000000
 11
324.3768
 21
126.109800000000010
  0
LINE
  8
PT3-Grafika_wekt5
  6
CONTINUOUS
 62
     7
 10
324.3768
 20
126.109800000000010
 11
325.0319
 21
125.410200000000000
  0
LINE
  8
PT3-Grafika_wekt5
  6
CONTINUOUS
 62
     7
 10
325.0319
 20
125.410200000000000
 11
325.0319
 21
117.614700000000000
  0
LINE
  8
PT3-Grafika_wekt5
  6
CONTINUOUS
 62
     7
 10
325.0319
 20
117.614700000000000
 11
324.3768
 21
116.915100000000000
  0
LINE
  8
PT3-Grafika_wekt5
  6
CONTINUOUS
 62
     7
 10
325.0319
 20
117.614700000000000
 11
334.0158
 21
117.614700000000000
  0
LINE
  8
PT3-Grafika_wekt5
  6
CONTINUOUS
 62
     7
 10
334.0158
 20
117.614700000000000
 11
334.0158
 21
125.410200000000000
  0
LINE
  8
PT3-Grafika_wekt5
  6
CONTINUOUS
 62
     7
 10
334.0158
 20
125.410200000000000
 11
325.0319
 21
125.410200000000000
  0
LINE
  8
PT3-Grafika_wekt5
  6
CONTINUOUS
 62
     7
 10
325.0931
 20
117.614700000000000
 11
325.0931
 21
125.410200000000000
  0
LINE
  8
PT3-Grafika_wekt5
  6
CONTINUOUS
 62
     7
 10
334.0158
 20
117.614700000000000
 11
334.3211
 21
117.288600000000000
  0
LINE
  8
PT3-Grafika_wekt5
  6
CONTINUOUS
 62
     7
 10
334.0158
 20
125.410200000000000
 11
334.3211
 21
125.736300000000000
  0
LINE
  8
PT3-Grafika_wekt5
  6
CONTINUOUS
 62
     7
 10
334.1462
 20
116.615199999999990
 11
334.3211
 21
116.615199999999990
  0
LINE
  8
PT3-Grafika_wekt5
  6
CONTINUOUS
 62
     7
 10
334.1462
 20
116.915100000000000
 11
334.3211
 21
116.915100000000000
  0
LINE
  8
PT3-Grafika_wekt5
  6
CONTINUOUS
 62
     7
 10
282.265
 20
132.106300000000000
 11
282.265
 21
157.091999999999980
  0
LINE
  8
PT3-Grafika_wekt5
  6
CONTINUOUS
 62
     7
 10
282.265
 20
157.091999999999980
 11
282.9201
 21
156.392400000000010
  0
LINE
  8
PT3-Grafika_wekt5
  6
CONTINUOUS
 62
     7
 10
282.9201
 20
156.392400000000010
 11
282.9201
 21
132.805900000000010
  0
LINE
  8
PT3-Grafika_wekt5
  6
CONTINUOUS
 62
     7
 10
282.9201
 20
132.805900000000010
 11
282.265
 21
132.106300000000000
  0
LINE
  8
PT3-Grafika_wekt5
  6
CONTINUOUS
 62
     7
 10
282.265
 20
132.106300000000000
 11
292.2093
 21
132.106300000000000
  0
LINE
  8
PT3-Grafika_wekt5
  6
CONTINUOUS
 62
     7
 10
282.9201
 20
132.805900000000010
 11
291.9039
 21
132.805900000000010
  0
LINE
  8
PT3-Grafika_wekt5
  6
CONTINUOUS
 62
     7
 10
291.9039
 20
132.805900000000010
 11
291.9039
 21
156.392400000000010
  0
LINE
  8
PT3-Grafika_wekt5
  6
CONTINUOUS
 62
     7
 10
291.9039
 20
156.392400000000010
 11
282.9201
 21
156.392400000000010
  0
LINE
  8
PT3-Grafika_wekt5
  6
CONTINUOUS
 62
     7
 10
282.9375
 20
138.402800000000010
 11
291.9039
 21
138.402800000000010
  0
LINE
  8
PT3-Grafika_wekt5
  6
CONTINUOUS
 62
     7
 10
282.9375
 20
138.802400000000010
 11
291.9039
 21
138.802400000000010
  0
LINE
  8
PT3-Grafika_wekt5
  6
CONTINUOUS
 62
     7
 10
282.9375
 20
144.399299999999980
 11
291.9039
 21
144.399299999999980
  0
LINE
  8
PT3-Grafika_wekt5
  6
CONTINUOUS
 62
     7
 10
282.9375
 20
144.799100000000010
 11
291.9039
 21
144.799100000000010
  0
LINE
  8
PT3-Grafika_wekt5
  6
CONTINUOUS
 62
     7
 10
282.9375
 20
150.395899999999980
 11
291.9039
 21
150.395899999999980
  0
LINE
  8
PT3-Grafika_wekt5
  6
CONTINUOUS
 62
     7
 10
282.9375
 20
150.795599999999980
 11
291.9039
 21
150.795599999999980
  0
LINE
  8
PT3-Grafika_wekt5
  6
CONTINUOUS
 62
     7
 10
282.9812
 20
132.805900000000010
 11
282.9812
 21
138.402800000000010
  0
LINE
  8
PT3-Grafika_wekt5
  6
CONTINUOUS
 62
     7
 10
282.9812
 20
138.802400000000010
 11
282.9812
 21
144.399299999999980
  0
LINE
  8
PT3-Grafika_wekt5
  6
CONTINUOUS
 62
     7
 10
282.9812
 20
144.799100000000010
 11
282.9812
 21
150.395899999999980
  0
LINE
  8
PT3-Grafika_wekt5
  6
CONTINUOUS
 62
     7
 10
282.9812
 20
150.795599999999980
 11
282.9812
 21
156.392400000000010
  0
LINE
  8
PT3-Grafika_wekt5
  6
CONTINUOUS
 62
     7
 10
291.9039
 20
132.805900000000010
 11
292.2093
 21
132.479800000000010
  0
LINE
  8
PT3-Grafika_wekt5
  6
CONTINUOUS
 62
     7
 10
291.9039
 20
156.392400000000010
 11
292.2093
 21
156.718500000000010
  0
LINE
  8
PT3-Grafika_wekt5
  6
CONTINUOUS
 62
     7
 10
324.3768
 20
132.106300000000000
 11
324.3768
 21
157.091999999999980
  0
LINE
  8
PT3-Grafika_wekt5
  6
CONTINUOUS
 62
     7
 10
324.3768
 20
157.091999999999980
 11
325.0319
 21
156.392400000000010
  0
LINE
  8
PT3-Grafika_wekt5
  6
CONTINUOUS
 62
     7
 10
325.0319
 20
156.392400000000010
 11
325.0319
 21
132.805900000000010
  0
LINE
  8
PT3-Grafika_wekt5
  6
CONTINUOUS
 62
     7
 10
325.0319
 20
132.805900000000010
 11
324.3768
 21
132.106300000000000
  0
LINE
  8
PT3-Grafika_wekt5
  6
CONTINUOUS
 62
     7
 10
324.3768
 20
132.106300000000000
 11
334.3211
 21
132.106300000000000
  0
LINE
  8
PT3-Grafika_wekt5
  6
CONTINUOUS
 62
     7
 10
325.0319
 20
132.805900000000010
 11
334.0158
 21
132.805900000000010
  0
LINE
  8
PT3-Grafika_wekt5
  6
CONTINUOUS
 62
     7
 10
334.0158
 20
132.805900000000010
 11
334.0158
 21
156.392400000000010
  0
LINE
  8
PT3-Grafika_wekt5
  6
CONTINUOUS
 62
     7
 10
334.0158
 20
156.392400000000010
 11
325.0319
 21
156.392400000000010
  0
LINE
  8
PT3-Grafika_wekt5
  6
CONTINUOUS
 62
     7
 10
325.0494
 20
138.402800000000010
 11
334.0158
 21
138.402800000000010
  0
LINE
  8
PT3-Grafika_wekt5
  6
CONTINUOUS
 62
     7
 10
325.0494
 20
138.802400000000010
 11
334.0158
 21
138.802400000000010
  0
LINE
  8
PT3-Grafika_wekt5
  6
CONTINUOUS
 62
     7
 10
325.0494
 20
144.399299999999980
 11
334.0158
 21
144.399299999999980
  0
LINE
  8
PT3-Grafika_wekt5
  6
CONTINUOUS
 62
     7
 10
325.0494
 20
144.799100000000010
 11
334.0158
 21
144.799100000000010
  0
LINE
  8
PT3-Grafika_wekt5
  6
CONTINUOUS
 62
     7
 10
325.0494
 20
150.395899999999980
 11
334.0158
 21
150.395899999999980
  0
LINE
  8
PT3-Grafika_wekt5
  6
CONTINUOUS
 62
     7
 10
325.0494
 20
150.795599999999980
 11
334.0158
 21
150.795599999999980
  0
LINE
  8
PT3-Grafika_wekt5
  6
CONTINUOUS
 62
     7
 10
325.0931
 20
132.805900000000010
 11
325.0931
 21
138.402800000000010
  0
LINE
  8
PT3-Grafika_wekt5
  6
CONTINUOUS
 62
     7
 10
325.0931
 20
138.802400000000010
 11
325.0931
 21
144.399299999999980
  0
LINE
  8
PT3-Grafika_wekt5
  6
CONTINUOUS
 62
     7
 10
325.0931
 20
144.799100000000010
 11
325.0931
 21
150.395899999999980
  0
LINE
  8
PT3-Grafika_wekt5
  6
CONTINUOUS
 62
     7
 10
325.0931
 20
150.795599999999980
 11
325.0931
 21
156.392400000000010
  0
LINE
  8
PT3-Grafika_wekt5
  6
CONTINUOUS
 62
     7
 10
334.0158
 20
132.805900000000010
 11
334.3211
 21
132.479800000000010
  0
LINE
  8
PT3-Grafika_wekt5
  6
CONTINUOUS
 62
     7
 10
334.0158
 20
156.392400000000010
 11
334.3211
 21
156.718500000000010
  0
LINE
  8
PT3-Grafika_wekt5
  6
CONTINUOUS
 62
     7
 10
310.3395
 20
132.106300000000000
 11
310.3395
 21
157.091999999999980
  0
LINE
  8
PT3-Grafika_wekt5
  6
CONTINUOUS
 62
     7
 10
310.3395
 20
157.091999999999980
 11
310.9946
 21
156.392400000000010
  0
LINE
  8
PT3-Grafika_wekt5
  6
CONTINUOUS
 62
     7
 10
310.9946
 20
156.392400000000010
 11
310.9946
 21
132.805900000000010
  0
LINE
  8
PT3-Grafika_wekt5
  6
CONTINUOUS
 62
     7
 10
310.9946
 20
132.805900000000010
 11
310.3395
 21
132.106300000000000
  0
LINE
  8
PT3-Grafika_wekt5
  6
CONTINUOUS
 62
     7
 10
310.3395
 20
132.106300000000000
 11
320.2838
 21
132.106300000000000
  0
LINE
  8
PT3-Grafika_wekt5
  6
CONTINUOUS
 62
     7
 10
310.9946
 20
132.805900000000010
 11
319.9785
 21
132.805900000000010
  0
LINE
  8
PT3-Grafika_wekt5
  6
CONTINUOUS
 62
     7
 10
319.9785
 20
132.805900000000010
 11
319.9785
 21
156.392400000000010
  0
LINE
  8
PT3-Grafika_wekt5
  6
CONTINUOUS
 62
     7
 10
319.9785
 20
156.392400000000010
 11
310.9946
 21
156.392400000000010
  0
LINE
  8
PT3-Grafika_wekt5
  6
CONTINUOUS
 62
     7
 10
311.0121
 20
138.402800000000010
 11
319.9785
 21
138.402800000000010
  0
LINE
  8
PT3-Grafika_wekt5
  6
CONTINUOUS
 62
     7
 10
311.0121
 20
138.802400000000010
 11
319.9785
 21
138.802400000000010
  0
LINE
  8
PT3-Grafika_wekt5
  6
CONTINUOUS
 62
     7
 10
311.0121
 20
144.399299999999980
 11
319.9785
 21
144.399299999999980
  0
LINE
  8
PT3-Grafika_wekt5
  6
CONTINUOUS
 62
     7
 10
311.0121
 20
144.799100000000010
 11
319.9785
 21
144.799100000000010
  0
LINE
  8
PT3-Grafika_wekt5
  6
CONTINUOUS
 62
     7
 10
311.0121
 20
150.395899999999980
 11
319.9785
 21
150.395899999999980
  0
LINE
  8
PT3-Grafika_wekt5
  6
CONTINUOUS
 62
     7
 10
311.0121
 20
150.795599999999980
 11
319.9785
 21
150.795599999999980
  0
LINE
  8
PT3-Grafika_wekt5
  6
CONTINUOUS
 62
     7
 10
311.0558
 20
132.805900000000010
 11
311.0558
 21
138.402800000000010
  0
LINE
  8
PT3-Grafika_wekt5
  6
CONTINUOUS
 62
     7
 10
311.0558
 20
138.802400000000010
 11
311.0558
 21
144.399299999999980
  0
LINE
  8
PT3-Grafika_wekt5
  6
CONTINUOUS
 62
     7
 10
311.0558
 20
144.799100000000010
 11
311.0558
 21
150.395899999999980
  0
LINE
  8
PT3-Grafika_wekt5
  6
CONTINUOUS
 62
     7
 10
311.0558
 20
150.795599999999980
 11
311.0558
 21
156.392400000000010
  0
LINE
  8
PT3-Grafika_wekt5
  6
CONTINUOUS
 62
     7
 10
319.9785
 20
132.805900000000010
 11
320.2838
 21
132.479800000000010
  0
LINE
  8
PT3-Grafika_wekt5
  6
CONTINUOUS
 62
     7
 10
319.9785
 20
156.392400000000010
 11
320.2838
 21
156.718500000000010
  0
LINE
  8
PT3-Grafika_wekt5
  6
CONTINUOUS
 62
     7
 10
296.3022
 20
132.106300000000000
 11
296.3022
 21
157.091999999999980
  0
LINE
  8
PT3-Grafika_wekt5
  6
CONTINUOUS
 62
     7
 10
296.3022
 20
157.091999999999980
 11
296.9574
 21
156.392400000000010
  0
LINE
  8
PT3-Grafika_wekt5
  6
CONTINUOUS
 62
     7
 10
296.9574
 20
156.392400000000010
 11
296.9574
 21
132.805900000000010
  0
LINE
  8
PT3-Grafika_wekt5
  6
CONTINUOUS
 62
     7
 10
296.9574
 20
132.805900000000010
 11
296.3022
 21
132.106300000000000
  0
LINE
  8
PT3-Grafika_wekt5
  6
CONTINUOUS
 62
     7
 10
296.3022
 20
132.106300000000000
 11
306.2466
 21
132.106300000000000
  0
LINE
  8
PT3-Grafika_wekt5
  6
CONTINUOUS
 62
     7
 10
296.9574
 20
132.805900000000010
 11
305.9412
 21
132.805900000000010
  0
LINE
  8
PT3-Grafika_wekt5
  6
CONTINUOUS
 62
     7
 10
305.9412
 20
132.805900000000010
 11
305.9412
 21
156.392400000000010
  0
LINE
  8
PT3-Grafika_wekt5
  6
CONTINUOUS
 62
     7
 10
305.9412
 20
156.392400000000010
 11
296.9574
 21
156.392400000000010
  0
LINE
  8
PT3-Grafika_wekt5
  6
CONTINUOUS
 62
     7
 10
296.9748
 20
138.402800000000010
 11
305.9412
 21
138.402800000000010
  0
LINE
  8
PT3-Grafika_wekt5
  6
CONTINUOUS
 62
     7
 10
296.9748
 20
138.802400000000010
 11
305.9412
 21
138.802400000000010
  0
LINE
  8
PT3-Grafika_wekt5
  6
CONTINUOUS
 62
     7
 10
296.9748
 20
144.399299999999980
 11
305.9412
 21
144.399299999999980
  0
LINE
  8
PT3-Grafika_wekt5
  6
CONTINUOUS
 62
     7
 10
296.9748
 20
144.799100000000010
 11
305.9412
 21
144.799100000000010
  0
LINE
  8
PT3-Grafika_wekt5
  6
CONTINUOUS
 62
     7
 10
296.9748
 20
150.395899999999980
 11
305.9412
 21
150.395899999999980
  0
LINE
  8
PT3-Grafika_wekt5
  6
CONTINUOUS
 62
     7
 10
296.9748
 20
150.795599999999980
 11
305.9412
 21
150.795599999999980
  0
LINE
  8
PT3-Grafika_wekt5
  6
CONTINUOUS
 62
     7
 10
297.0186
 20
132.805900000000010
 11
297.0186
 21
138.402800000000010
  0
LINE
  8
PT3-Grafika_wekt5
  6
CONTINUOUS
 62
     7
 10
297.0186
 20
138.802400000000010
 11
297.0186
 21
144.399299999999980
  0
LINE
  8
PT3-Grafika_wekt5
  6
CONTINUOUS
 62
     7
 10
297.0186
 20
144.799100000000010
 11
297.0186
 21
150.395899999999980
  0
LINE
  8
PT3-Grafika_wekt5
  6
CONTINUOUS
 62
     7
 10
297.0186
 20
150.795599999999980
 11
297.0186
 21
156.392400000000010
  0
LINE
  8
PT3-Grafika_wekt5
  6
CONTINUOUS
 62
     7
 10
305.9412
 20
132.805900000000010
 11
306.2466
 21
132.479800000000010
  0
LINE
  8
PT3-Grafika_wekt5
  6
CONTINUOUS
 62
     7
 10
305.9412
 20
156.392400000000010
 11
306.2466
 21
156.718500000000010
  0
LINE
  8
PT3-Grafika_wekt5
  6
CONTINUOUS
 62
     7
 10
366.4887
 20
132.106300000000000
 11
366.4887
 21
157.091999999999980
  0
LINE
  8
PT3-Grafika_wekt5
  6
CONTINUOUS
 62
     7
 10
366.4887
 20
157.091999999999980
 11
367.1437
 21
156.392400000000010
  0
LINE
  8
PT3-Grafika_wekt5
  6
CONTINUOUS
 62
     7
 10
367.1437
 20
156.392400000000010
 11
367.1437
 21
132.805900000000010
  0
LINE
  8
PT3-Grafika_wekt5
  6
CONTINUOUS
 62
     7
 10
367.1437
 20
132.805900000000010
 11
366.4887
 21
132.106300000000000
  0
LINE
  8
PT3-Grafika_wekt5
  6
CONTINUOUS
 62
     7
 10
366.4887
 20
132.106300000000000
 11
376.433
 21
132.106300000000000
  0
LINE
  8
PT3-Grafika_wekt5
  6
CONTINUOUS
 62
     7
 10
367.1437
 20
132.805900000000010
 11
376.1276
 21
132.805900000000010
  0
LINE
  8
PT3-Grafika_wekt5
  6
CONTINUOUS
 62
     7
 10
376.1276
 20
132.805900000000010
 11
376.1276
 21
156.392400000000010
  0
LINE
  8
PT3-Grafika_wekt5
  6
CONTINUOUS
 62
     7
 10
376.1276
 20
156.392400000000010
 11
367.1437
 21
156.392400000000010
  0
LINE
  8
PT3-Grafika_wekt5
  6
CONTINUOUS
 62
     7
 10
367.1612
 20
138.402800000000010
 11
376.1276
 21
138.402800000000010
  0
LINE
  8
PT3-Grafika_wekt5
  6
CONTINUOUS
 62
     7
 10
367.1612
 20
138.802400000000010
 11
376.1276
 21
138.802400000000010
  0
LINE
  8
PT3-Grafika_wekt5
  6
CONTINUOUS
 62
     7
 10
367.1612
 20
144.399299999999980
 11
376.1276
 21
144.399299999999980
  0
LINE
  8
PT3-Grafika_wekt5
  6
CONTINUOUS
 62
     7
 10
367.1612
 20
144.799100000000010
 11
376.1276
 21
144.799100000000010
  0
LINE
  8
PT3-Grafika_wekt5
  6
CONTINUOUS
 62
     7
 10
367.1612
 20
150.395899999999980
 11
376.1276
 21
150.395899999999980
  0
LINE
  8
PT3-Grafika_wekt5
  6
CONTINUOUS
 62
     7
 10
367.1612
 20
150.795599999999980
 11
376.1276
 21
150.795599999999980
  0
LINE
  8
PT3-Grafika_wekt5
  6
CONTINUOUS
 62
     7
 10
367.2049
 20
132.805900000000010
 11
367.2049
 21
138.402800000000010
  0
LINE
  8
PT3-Grafika_wekt5
  6
CONTINUOUS
 62
     7
 10
367.2049
 20
138.802400000000010
 11
367.2049
 21
144.399299999999980
  0
LINE
  8
PT3-Grafika_wekt5
  6
CONTINUOUS
 62
     7
 10
367.2049
 20
144.799100000000010
 11
367.2049
 21
150.395899999999980
  0
LINE
  8
PT3-Grafika_wekt5
  6
CONTINUOUS
 62
     7
 10
367.2049
 20
150.795599999999980
 11
367.2049
 21
156.392400000000010
  0
LINE
  8
PT3-Grafika_wekt5
  6
CONTINUOUS
 62
     7
 10
376.1276
 20
132.805900000000010
 11
376.433
 21
132.479800000000010
  0
LINE
  8
PT3-Grafika_wekt5
  6
CONTINUOUS
 62
     7
 10
376.1276
 20
156.392400000000010
 11
376.433
 21
156.718500000000010
  0
LINE
  8
PT3-Grafika_wekt5
  6
CONTINUOUS
 62
     7
 10
352.4514
 20
132.106300000000000
 11
352.4514
 21
157.091999999999980
  0
LINE
  8
PT3-Grafika_wekt5
  6
CONTINUOUS
 62
     7
 10
352.4514
 20
157.091999999999980
 11
353.1065
 21
156.392400000000010
  0
LINE
  8
PT3-Grafika_wekt5
  6
CONTINUOUS
 62
     7
 10
353.1065
 20
156.392400000000010
 11
353.1065
 21
132.805900000000010
  0
LINE
  8
PT3-Grafika_wekt5
  6
CONTINUOUS
 62
     7
 10
353.1065
 20
132.805900000000010
 11
352.4514
 21
132.106300000000000
  0
LINE
  8
PT3-Grafika_wekt5
  6
CONTINUOUS
 62
     7
 10
352.4514
 20
132.106300000000000
 11
362.3957
 21
132.106300000000000
  0
LINE
  8
PT3-Grafika_wekt5
  6
CONTINUOUS
 62
     7
 10
353.1065
 20
132.805900000000010
 11
362.0903
 21
132.805900000000010
  0
LINE
  8
PT3-Grafika_wekt5
  6
CONTINUOUS
 62
     7
 10
362.0903
 20
132.805900000000010
 11
362.0903
 21
156.392400000000010
  0
LINE
  8
PT3-Grafika_wekt5
  6
CONTINUOUS
 62
     7
 10
362.0903
 20
156.392400000000010
 11
353.1065
 21
156.392400000000010
  0
LINE
  8
PT3-Grafika_wekt5
  6
CONTINUOUS
 62
     7
 10
353.1239
 20
138.402800000000010
 11
362.0903
 21
138.402800000000010
  0
LINE
  8
PT3-Grafika_wekt5
  6
CONTINUOUS
 62
     7
 10
353.1239
 20
138.802400000000010
 11
362.0903
 21
138.802400000000010
  0
LINE
  8
PT3-Grafika_wekt5
  6
CONTINUOUS
 62
     7
 10
353.1239
 20
144.399299999999980
 11
362.0903
 21
144.399299999999980
  0
LINE
  8
PT3-Grafika_wekt5
  6
CONTINUOUS
 62
     7
 10
353.1239
 20
144.799100000000010
 11
362.0903
 21
144.799100000000010
  0
LINE
  8
PT3-Grafika_wekt5
  6
CONTINUOUS
 62
     7
 10
353.1239
 20
150.395899999999980
 11
362.0903
 21
150.395899999999980
  0
LINE
  8
PT3-Grafika_wekt5
  6
CONTINUOUS
 62
     7
 10
353.1239
 20
150.795599999999980
 11
362.0903
 21
150.795599999999980
  0
LINE
  8
PT3-Grafika_wekt5
  6
CONTINUOUS
 62
     7
 10
353.1676
 20
132.805900000000010
 11
353.1676
 21
138.402800000000010
  0
LINE
  8
PT3-Grafika_wekt5
  6
CONTINUOUS
 62
     7
 10
353.1676
 20
138.802400000000010
 11
353.1676
 21
144.399299999999980
  0
LINE
  8
PT3-Grafika_wekt5
  6
CONTINUOUS
 62
     7
 10
353.1676
 20
144.799100000000010
 11
353.1676
 21
150.395899999999980
  0
LINE
  8
PT3-Grafika_wekt5
  6
CONTINUOUS
 62
     7
 10
353.1676
 20
150.795599999999980
 11
353.1676
 21
156.392400000000010
  0
LINE
  8
PT3-Grafika_wekt5
  6
CONTINUOUS
 62
     7
 10
362.0903
 20
132.805900000000010
 11
362.3957
 21
132.479800000000010
  0
LINE
  8
PT3-Grafika_wekt5
  6
CONTINUOUS
 62
     7
 10
362.0903
 20
156.392400000000010
 11
362.3957
 21
156.718500000000010
  0
LINE
  8
PT3-Grafika_wekt5
  6
CONTINUOUS
 62
     7
 10
338.4141
 20
132.106300000000000
 11
338.4141
 21
157.091999999999980
  0
LINE
  8
PT3-Grafika_wekt5
  6
CONTINUOUS
 62
     7
 10
338.4141
 20
157.091999999999980
 11
339.0691
 21
156.392400000000010
  0
LINE
  8
PT3-Grafika_wekt5
  6
CONTINUOUS
 62
     7
 10
339.0691
 20
156.392400000000010
 11
339.0691
 21
132.805900000000010
  0
LINE
  8
PT3-Grafika_wekt5
  6
CONTINUOUS
 62
     7
 10
339.0691
 20
132.805900000000010
 11
338.4141
 21
132.106300000000000
  0
LINE
  8
PT3-Grafika_wekt5
  6
CONTINUOUS
 62
     7
 10
338.4141
 20
132.106300000000000
 11
348.3583
 21
132.106300000000000
  0
LINE
  8
PT3-Grafika_wekt5
  6
CONTINUOUS
 62
     7
 10
339.0691
 20
132.805900000000010
 11
348.053
 21
132.805900000000010
  0
LINE
  8
PT3-Grafika_wekt5
  6
CONTINUOUS
 62
     7
 10
348.053
 20
132.805900000000010
 11
348.053
 21
156.392400000000010
  0
LINE
  8
PT3-Grafika_wekt5
  6
CONTINUOUS
 62
     7
 10
348.053
 20
156.392400000000010
 11
339.0691
 21
156.392400000000010
  0
LINE
  8
PT3-Grafika_wekt5
  6
CONTINUOUS
 62
     7
 10
339.0867
 20
138.402800000000010
 11
348.053
 21
138.402800000000010
  0
LINE
  8
PT3-Grafika_wekt5
  6
CONTINUOUS
 62
     7
 10
339.0867
 20
138.802400000000010
 11
348.053
 21
138.802400000000010
  0
LINE
  8
PT3-Grafika_wekt5
  6
CONTINUOUS
 62
     7
 10
339.0867
 20
144.399299999999980
 11
348.053
 21
144.399299999999980
  0
LINE
  8
PT3-Grafika_wekt5
  6
CONTINUOUS
 62
     7
 10
339.0867
 20
144.799100000000010
 11
348.053
 21
144.799100000000010
  0
LINE
  8
PT3-Grafika_wekt5
  6
CONTINUOUS
 62
     7
 10
339.0867
 20
150.395899999999980
 11
348.053
 21
150.395899999999980
  0
LINE
  8
PT3-Grafika_wekt5
  6
CONTINUOUS
 62
     7
 10
339.0867
 20
150.795599999999980
 11
348.053
 21
150.795599999999980
  0
LINE
  8
PT3-Grafika_wekt5
  6
CONTINUOUS
 62
     7
 10
339.1303
 20
132.805900000000010
 11
339.1303
 21
138.402800000000010
  0
LINE
  8
PT3-Grafika_wekt5
  6
CONTINUOUS
 62
     7
 10
339.1303
 20
138.802400000000010
 11
339.1303
 21
144.399299999999980
  0
LINE
  8
PT3-Grafika_wekt5
  6
CONTINUOUS
 62
     7
 10
339.1303
 20
144.799100000000010
 11
339.1303
 21
150.395899999999980
  0
LINE
  8
PT3-Grafika_wekt5
  6
CONTINUOUS
 62
     7
 10
339.1303
 20
150.795599999999980
 11
339.1303
 21
156.392400000000010
  0
LINE
  8
PT3-Grafika_wekt5
  6
CONTINUOUS
 62
     7
 10
348.053
 20
132.805900000000010
 11
348.3583
 21
132.479800000000010
  0
LINE
  8
PT3-Grafika_wekt5
  6
CONTINUOUS
 62
     7
 10
348.053
 20
156.392400000000010
 11
348.3583
 21
156.718500000000010
  0
LINE
  8
PT3-Grafika_wekt5
  6
CONTINUOUS
 62
     7
 10
408.6008
 20
132.106300000000000
 11
408.6008
 21
157.091999999999980
  0
LINE
  8
PT3-Grafika_wekt5
  6
CONTINUOUS
 62
     7
 10
408.6008
 20
157.091999999999980
 11
409.2559
 21
156.392400000000010
  0
LINE
  8
PT3-Grafika_wekt5
  6
CONTINUOUS
 62
     7
 10
409.2559
 20
156.392400000000010
 11
409.2559
 21
132.805900000000010
  0
LINE
  8
PT3-Grafika_wekt5
  6
CONTINUOUS
 62
     7
 10
409.2559
 20
132.805900000000010
 11
408.6008
 21
132.106300000000000
  0
LINE
  8
PT3-Grafika_wekt5
  6
CONTINUOUS
 62
     7
 10
409.2559
 20
132.805900000000010
 11
418.2398
 21
132.805900000000010
  0
LINE
  8
PT3-Grafika_wekt5
  6
CONTINUOUS
 62
     7
 10
418.2398
 20
132.805900000000010
 11
418.2398
 21
156.392400000000010
  0
LINE
  8
PT3-Grafika_wekt5
  6
CONTINUOUS
 62
     7
 10
418.2398
 20
156.392400000000010
 11
409.2559
 21
156.392400000000010
  0
LINE
  8
PT3-Grafika_wekt5
  6
CONTINUOUS
 62
     7
 10
409.2734
 20
138.402800000000010
 11
418.2398
 21
138.402800000000010
  0
LINE
  8
PT3-Grafika_wekt5
  6
CONTINUOUS
 62
     7
 10
409.2734
 20
138.802400000000010
 11
418.2398
 21
138.802400000000010
  0
LINE
  8
PT3-Grafika_wekt5
  6
CONTINUOUS
 62
     7
 10
409.2734
 20
144.399299999999980
 11
418.2398
 21
144.399299999999980
  0
LINE
  8
PT3-Grafika_wekt5
  6
CONTINUOUS
 62
     7
 10
409.2734
 20
144.799100000000010
 11
418.2398
 21
144.799100000000010
  0
LINE
  8
PT3-Grafika_wekt5
  6
CONTINUOUS
 62
     7
 10
409.2734
 20
150.395899999999980
 11
418.2398
 21
150.395899999999980
  0
LINE
  8
PT3-Grafika_wekt5
  6
CONTINUOUS
 62
     7
 10
409.2734
 20
150.795599999999980
 11
418.2398
 21
150.795599999999980
  0
LINE
  8
PT3-Grafika_wekt5
  6
CONTINUOUS
 62
     7
 10
409.3171
 20
132.805900000000010
 11
409.3171
 21
138.402800000000010
  0
LINE
  8
PT3-Grafika_wekt5
  6
CONTINUOUS
 62
     7
 10
409.3171
 20
138.802400000000010
 11
409.3171
 21
144.399299999999980
  0
LINE
  8
PT3-Grafika_wekt5
  6
CONTINUOUS
 62
     7
 10
409.3171
 20
144.799100000000010
 11
409.3171
 21
150.395899999999980
  0
LINE
  8
PT3-Grafika_wekt5
  6
CONTINUOUS
 62
     7
 10
409.3171
 20
150.795599999999980
 11
409.3171
 21
156.392400000000010
  0
LINE
  8
PT3-Grafika_wekt5
  6
CONTINUOUS
 62
     7
 10
418.2398
 20
132.805900000000010
 11
418.5451
 21
132.479899999999990
  0
LINE
  8
PT3-Grafika_wekt5
  6
CONTINUOUS
 62
     7
 10
418.2398
 20
156.392400000000010
 11
418.5451
 21
156.718500000000010
  0
LINE
  8
PT3-Grafika_wekt5
  6
CONTINUOUS
 62
     7
 10
394.5632
 20
132.106300000000000
 11
394.5632
 21
157.091999999999980
  0
LINE
  8
PT3-Grafika_wekt5
  6
CONTINUOUS
 62
     7
 10
394.5632
 20
157.091999999999980
 11
395.2183
 21
156.392400000000010
  0
LINE
  8
PT3-Grafika_wekt5
  6
CONTINUOUS
 62
     7
 10
395.2183
 20
156.392400000000010
 11
395.2183
 21
132.805900000000010
  0
LINE
  8
PT3-Grafika_wekt5
  6
CONTINUOUS
 62
     7
 10
395.2183
 20
132.805900000000010
 11
394.5632
 21
132.106300000000000
  0
LINE
  8
PT3-Grafika_wekt5
  6
CONTINUOUS
 62
     7
 10
395.2183
 20
132.805900000000010
 11
404.2022
 21
132.805900000000010
  0
LINE
  8
PT3-Grafika_wekt5
  6
CONTINUOUS
 62
     7
 10
404.2022
 20
132.805900000000010
 11
404.2022
 21
156.392400000000010
  0
LINE
  8
PT3-Grafika_wekt5
  6
CONTINUOUS
 62
     7
 10
404.2022
 20
156.392400000000010
 11
395.2183
 21
156.392400000000010
  0
LINE
  8
PT3-Grafika_wekt5
  6
CONTINUOUS
 62
     7
 10
395.2358
 20
138.402800000000010
 11
404.2022
 21
138.402800000000010
  0
LINE
  8
PT3-Grafika_wekt5
  6
CONTINUOUS
 62
     7
 10
395.2358
 20
138.802400000000010
 11
404.2022
 21
138.802400000000010
  0
LINE
  8
PT3-Grafika_wekt5
  6
CONTINUOUS
 62
     7
 10
395.2358
 20
144.399299999999980
 11
404.2022
 21
144.399299999999980
  0
LINE
  8
PT3-Grafika_wekt5
  6
CONTINUOUS
 62
     7
 10
395.2358
 20
144.799100000000010
 11
404.2022
 21
144.799100000000010
  0
LINE
  8
PT3-Grafika_wekt5
  6
CONTINUOUS
 62
     7
 10
395.2358
 20
150.395899999999980
 11
404.2022
 21
150.395899999999980
  0
LINE
  8
PT3-Grafika_wekt5
  6
CONTINUOUS
 62
     7
 10
395.2358
 20
150.795599999999980
 11
404.2022
 21
150.795599999999980
  0
LINE
  8
PT3-Grafika_wekt5
  6
CONTINUOUS
 62
     7
 10
395.2795
 20
132.805900000000010
 11
395.2795
 21
138.402800000000010
  0
LINE
  8
PT3-Grafika_wekt5
  6
CONTINUOUS
 62
     7
 10
395.2795
 20
138.802400000000010
 11
395.2795
 21
144.399299999999980
  0
LINE
  8
PT3-Grafika_wekt5
  6
CONTINUOUS
 62
     7
 10
395.2795
 20
144.799100000000010
 11
395.2795
 21
150.395899999999980
  0
LINE
  8
PT3-Grafika_wekt5
  6
CONTINUOUS
 62
     7
 10
395.2795
 20
150.795599999999980
 11
395.2795
 21
156.392400000000010
  0
LINE
  8
PT3-Grafika_wekt5
  6
CONTINUOUS
 62
     7
 10
404.2022
 20
132.805900000000010
 11
404.5075
 21
132.479800000000010
  0
LINE
  8
PT3-Grafika_wekt5
  6
CONTINUOUS
 62
     7
 10
404.2022
 20
156.392400000000010
 11
404.5075
 21
156.718500000000010
  0
LINE
  8
PT3-Grafika_wekt5
  6
CONTINUOUS
 62
     7
 10
380.526
 20
132.106300000000000
 11
380.526
 21
157.091999999999980
  0
LINE
  8
PT3-Grafika_wekt5
  6
CONTINUOUS
 62
     7
 10
380.526
 20
157.091999999999980
 11
381.1811
 21
156.392400000000010
  0
LINE
  8
PT3-Grafika_wekt5
  6
CONTINUOUS
 62
     7
 10
381.1811
 20
156.392400000000010
 11
381.1811
 21
132.805900000000010
  0
LINE
  8
PT3-Grafika_wekt5
  6
CONTINUOUS
 62
     7
 10
381.1811
 20
132.805900000000010
 11
380.526
 21
132.106300000000000
  0
LINE
  8
PT3-Grafika_wekt5
  6
CONTINUOUS
 62
     7
 10
381.1811
 20
132.805900000000010
 11
390.1649
 21
132.805900000000010
  0
LINE
  8
PT3-Grafika_wekt5
  6
CONTINUOUS
 62
     7
 10
390.1649
 20
132.805900000000010
 11
390.1649
 21
156.392400000000010
  0
LINE
  8
PT3-Grafika_wekt5
  6
CONTINUOUS
 62
     7
 10
390.1649
 20
156.392400000000010
 11
381.1811
 21
156.392400000000010
  0
LINE
  8
PT3-Grafika_wekt5
  6
CONTINUOUS
 62
     7
 10
381.1986
 20
138.402800000000010
 11
390.1649
 21
138.402800000000010
  0
LINE
  8
PT3-Grafika_wekt5
  6
CONTINUOUS
 62
     7
 10
381.1986
 20
138.802400000000010
 11
390.1649
 21
138.802400000000010
  0
LINE
  8
PT3-Grafika_wekt5
  6
CONTINUOUS
 62
     7
 10
381.1986
 20
144.399299999999980
 11
390.1649
 21
144.399299999999980
  0
LINE
  8
PT3-Grafika_wekt5
  6
CONTINUOUS
 62
     7
 10
381.1986
 20
144.799100000000010
 11
390.1649
 21
144.799100000000010
  0
LINE
  8
PT3-Grafika_wekt5
  6
CONTINUOUS
 62
     7
 10
381.1986
 20
150.395899999999980
 11
390.1649
 21
150.395899999999980
  0
LINE
  8
PT3-Grafika_wekt5
  6
CONTINUOUS
 62
     7
 10
381.1986
 20
150.795599999999980
 11
390.1649
 21
150.795599999999980
  0
LINE
  8
PT3-Grafika_wekt5
  6
CONTINUOUS
 62
     7
 10
381.2423
 20
132.805900000000010
 11
381.2423
 21
138.402800000000010
  0
LINE
  8
PT3-Grafika_wekt5
  6
CONTINUOUS
 62
     7
 10
381.2423
 20
138.802400000000010
 11
381.2423
 21
144.399299999999980
  0
LINE
  8
PT3-Grafika_wekt5
  6
CONTINUOUS
 62
     7
 10
381.2423
 20
144.799100000000010
 11
381.2423
 21
150.395899999999980
  0
LINE
  8
PT3-Grafika_wekt5
  6
CONTINUOUS
 62
     7
 10
381.2423
 20
150.795599999999980
 11
381.2423
 21
156.392400000000010
  0
LINE
  8
PT3-Grafika_wekt5
  6
CONTINUOUS
 62
     7
 10
390.1649
 20
132.805900000000010
 11
390.4703
 21
132.479800000000010
  0
LINE
  8
PT3-Grafika_wekt5
  6
CONTINUOUS
 62
     7
 10
390.1649
 20
156.392400000000010
 11
390.4703
 21
156.718500000000010
  0
LINE
  8
PT3-Grafika_wekt5
  6
CONTINUOUS
 62
     7
 10
436.675
 20
132.106300000000000
 11
436.675
 21
157.091999999999980
  0
LINE
  8
PT3-Grafika_wekt5
  6
CONTINUOUS
 62
     7
 10
436.675
 20
157.091999999999980
 11
437.33
 21
156.392400000000010
  0
LINE
  8
PT3-Grafika_wekt5
  6
CONTINUOUS
 62
     7
 10
437.33
 20
156.392400000000010
 11
437.33
 21
132.805900000000010
  0
LINE
  8
PT3-Grafika_wekt5
  6
CONTINUOUS
 62
     7
 10
437.33
 20
132.805900000000010
 11
436.675
 21
132.106300000000000
  0
LINE
  8
PT3-Grafika_wekt5
  6
CONTINUOUS
 62
     7
 10
437.33
 20
132.805900000000010
 11
446.3139
 21
132.805900000000010
  0
LINE
  8
PT3-Grafika_wekt5
  6
CONTINUOUS
 62
     7
 10
446.3139
 20
132.805900000000010
 11
446.3139
 21
156.392400000000010
  0
LINE
  8
PT3-Grafika_wekt5
  6
CONTINUOUS
 62
     7
 10
446.3139
 20
156.392400000000010
 11
437.33
 21
156.392400000000010
  0
LINE
  8
PT3-Grafika_wekt5
  6
CONTINUOUS
 62
     7
 10
437.3476
 20
138.402800000000010
 11
446.3139
 21
138.402800000000010
  0
LINE
  8
PT3-Grafika_wekt5
  6
CONTINUOUS
 62
     7
 10
437.3476
 20
138.802400000000010
 11
446.3139
 21
138.802400000000010
  0
LINE
  8
PT3-Grafika_wekt5
  6
CONTINUOUS
 62
     7
 10
437.3476
 20
144.399299999999980
 11
446.3139
 21
144.399299999999980
  0
LINE
  8
PT3-Grafika_wekt5
  6
CONTINUOUS
 62
     7
 10
437.3476
 20
144.799100000000010
 11
446.3139
 21
144.799100000000010
  0
LINE
  8
PT3-Grafika_wekt5
  6
CONTINUOUS
 62
     7
 10
437.3476
 20
150.395899999999980
 11
446.3139
 21
150.395899999999980
  0
LINE
  8
PT3-Grafika_wekt5
  6
CONTINUOUS
 62
     7
 10
437.3476
 20
150.795599999999980
 11
446.3139
 21
150.795599999999980
  0
LINE
  8
PT3-Grafika_wekt5
  6
CONTINUOUS
 62
     7
 10
437.3913
 20
132.805900000000010
 11
437.3913
 21
138.402800000000010
  0
LINE
  8
PT3-Grafika_wekt5
  6
CONTINUOUS
 62
     7
 10
437.3913
 20
138.802400000000010
 11
437.3913
 21
144.399299999999980
  0
LINE
  8
PT3-Grafika_wekt5
  6
CONTINUOUS
 62
     7
 10
437.3913
 20
144.799100000000010
 11
437.3913
 21
150.395899999999980
  0
LINE
  8
PT3-Grafika_wekt5
  6
CONTINUOUS
 62
     7
 10
437.3913
 20
150.795599999999980
 11
437.3913
 21
156.392400000000010
  0
LINE
  8
PT3-Grafika_wekt5
  6
CONTINUOUS
 62
     7
 10
446.3139
 20
132.805900000000010
 11
446.6193
 21
132.479800000000010
  0
LINE
  8
PT3-Grafika_wekt5
  6
CONTINUOUS
 62
     7
 10
446.3139
 20
156.392400000000010
 11
446.5237
 21
156.616500000000000
  0
LINE
  8
PT3-Grafika_wekt5
  6
CONTINUOUS
 62
     7
 10
422.6379
 20
132.106300000000000
 11
422.6379
 21
157.091999999999980
  0
LINE
  8
PT3-Grafika_wekt5
  6
CONTINUOUS
 62
     7
 10
422.6379
 20
157.091999999999980
 11
423.2929
 21
156.392400000000010
  0
LINE
  8
PT3-Grafika_wekt5
  6
CONTINUOUS
 62
     7
 10
423.2929
 20
156.392400000000010
 11
423.2929
 21
132.805900000000010
  0
LINE
  8
PT3-Grafika_wekt5
  6
CONTINUOUS
 62
     7
 10
423.2929
 20
132.805900000000010
 11
422.6379
 21
132.106300000000000
  0
LINE
  8
PT3-Grafika_wekt5
  6
CONTINUOUS
 62
     7
 10
423.2929
 20
132.805900000000010
 11
432.2768
 21
132.805900000000010
  0
LINE
  8
PT3-Grafika_wekt5
  6
CONTINUOUS
 62
     7
 10
432.2768
 20
132.805900000000010
 11
432.2768
 21
156.392400000000010
  0
LINE
  8
PT3-Grafika_wekt5
  6
CONTINUOUS
 62
     7
 10
432.2768
 20
156.392400000000010
 11
423.2929
 21
156.392400000000010
  0
LINE
  8
PT3-Grafika_wekt5
  6
CONTINUOUS
 62
     7
 10
423.3104
 20
138.402800000000010
 11
432.2768
 21
138.402800000000010
  0
LINE
  8
PT3-Grafika_wekt5
  6
CONTINUOUS
 62
     7
 10
423.3104
 20
138.802400000000010
 11
432.2768
 21
138.802400000000010
  0
LINE
  8
PT3-Grafika_wekt5
  6
CONTINUOUS
 62
     7
 10
423.3104
 20
144.399299999999980
 11
432.2768
 21
144.399299999999980
  0
LINE
  8
PT3-Grafika_wekt5
  6
CONTINUOUS
 62
     7
 10
423.3104
 20
144.799100000000010
 11
432.2768
 21
144.799100000000010
  0
LINE
  8
PT3-Grafika_wekt5
  6
CONTINUOUS
 62
     7
 10
423.3104
 20
150.395899999999980
 11
432.2768
 21
150.395899999999980
  0
LINE
  8
PT3-Grafika_wekt5
  6
CONTINUOUS
 62
     7
 10
423.3104
 20
150.795599999999980
 11
432.2768
 21
150.795599999999980
  0
LINE
  8
PT3-Grafika_wekt5
  6
CONTINUOUS
 62
     7
 10
423.3541
 20
132.805900000000010
 11
423.3541
 21
138.402800000000010
  0
LINE
  8
PT3-Grafika_wekt5
  6
CONTINUOUS
 62
     7
 10
423.3541
 20
138.802400000000010
 11
423.3541
 21
144.399299999999980
  0
LINE
  8
PT3-Grafika_wekt5
  6
CONTINUOUS
 62
     7
 10
423.3541
 20
144.799100000000010
 11
423.3541
 21
150.395899999999980
  0
LINE
  8
PT3-Grafika_wekt5
  6
CONTINUOUS
 62
     7
 10
423.3541
 20
150.795599999999980
 11
423.3541
 21
156.392400000000010
  0
LINE
  8
PT3-Grafika_wekt5
  6
CONTINUOUS
 62
     7
 10
432.2768
 20
132.805900000000010
 11
432.5821
 21
132.479899999999990
  0
LINE
  8
PT3-Grafika_wekt5
  6
CONTINUOUS
 62
     7
 10
432.2768
 20
156.392400000000010
 11
432.5821
 21
156.718500000000010
  0
LINE
  8
PT3-Grafika_wekt5
  6
CONTINUOUS
 62
     7
 10
427.6553
 20
164.938100000000020
 11
427.6553
 21
174.282100000000010
  0
LINE
  8
PT3-Grafika_wekt5
  6
CONTINUOUS
 62
     7
 10
427.6553
 20
174.282100000000010
 11
432.8023
 21
174.282100000000010
  0
LINE
  8
PT3-Grafika_wekt5
  6
CONTINUOUS
 62
     7
 10
432.8023
 20
174.282100000000010
 11
432.8023
 21
164.938199999999990
  0
LINE
  8
PT3-Grafika_wekt5
  6
CONTINUOUS
 62
     7
 10
432.8023
 20
174.282100000000010
 11
435.8099
 21
174.282100000000010
  0
LINE
  8
PT3-Grafika_wekt5
  6
CONTINUOUS
 62
     7
 10
435.8099
 20
174.282100000000010
 11
435.8099
 21
165.824600000000000
  0
LINE
  8
PT3-Grafika_wekt5
  6
CONTINUOUS
 62
     7
 10
559.5754
 20
106.119400000000010
 11
559.8097
 21
106.117600000000010
  0
LINE
  8
PT3-Grafika_wekt5
  6
CONTINUOUS
 62
     7
 10
559.8097
 20
106.117600000000010
 11
559.8101
 21
106.380799999999990
  0
LINE
  8
PT3-Grafika_wekt5
  6
CONTINUOUS
 62
     7
 10
559.8101
 20
106.380799999999990
 11
559.5754
 21
106.382600000000000
  0
LINE
  8
PT3-Grafika_wekt5
  6
CONTINUOUS
 62
     7
 10
559.5874
 20
106.432600000000010
 11
559.8455
 21
106.430700000000000
  0
LINE
  8
PT3-Grafika_wekt5
  6
CONTINUOUS
 62
     7
 10
559.8455
 20
106.430700000000000
 11
559.8101
 21
106.380799999999990
  0
LINE
  8
PT3-Grafika_wekt5
  6
CONTINUOUS
 62
     7
 10
559.5874
 20
106.441100000000010
 11
562.6366
 21
106.441100000000010
  0
LINE
  8
PT3-Grafika_wekt5
  6
CONTINUOUS
 62
     7
 10
562.6366
 20
106.441100000000010
 11
564.0169
 21
106.430700000000000
  0
LINE
  8
PT3-Grafika_wekt5
  6
CONTINUOUS
 62
     7
 10
564.0169
 20
106.430700000000000
 11
559.8455
 21
106.430700000000000
  0
LINE
  8
PT3-Grafika_wekt5
  6
CONTINUOUS
 62
     7
 10
559.8455
 20
106.430700000000000
 11
559.8807
 21
106.380500000000010
  0
LINE
  8
PT3-Grafika_wekt5
  6
CONTINUOUS
 62
     7
 10
559.8807
 20
106.380500000000010
 11
559.8802
 21
106.117300000000000
  0
LINE
  8
PT3-Grafika_wekt5
  6
CONTINUOUS
 62
     7
 10
559.8802
 20
106.117300000000000
 11
559.8449
 21
106.067500000000000
  0
LINE
  8
PT3-Grafika_wekt5
  6
CONTINUOUS
 62
     7
 10
559.8449
 20
106.067500000000000
 11
559.5876
 21
106.069400000000000
  0
LINE
  8
PT3-Grafika_wekt5
  6
CONTINUOUS
 62
     7
 10
559.8097
 20
106.117600000000010
 11
559.8449
 21
106.067500000000000
  0
LINE
  8
PT3-Grafika_wekt5
  6
CONTINUOUS
 62
     7
 10
559.8449
 20
106.067500000000000
 11
564.0164
 21
106.067500000000000
  0
LINE
  8
PT3-Grafika_wekt5
  6
CONTINUOUS
 62
     7
 10
564.0164
 20
106.067500000000000
 11
564.0271
 21
106.117300000000000
  0
LINE
  8
PT3-Grafika_wekt5
  6
CONTINUOUS
 62
     7
 10
564.0271
 20
106.117300000000000
 11
559.8802
 21
106.117300000000000
  0
LINE
  8
PT3-Grafika_wekt5
  6
CONTINUOUS
 62
     7
 10
559.8281
 20
106.432600000000010
 11
559.9748
 21
106.431500000000000
  0
LINE
  8
PT3-Grafika_wekt5
  6
CONTINUOUS
 62
     7
 10
559.9748
 20
106.431500000000000
 11
563.6554
 21
106.431500000000000
  0
LINE
  8
PT3-Grafika_wekt5
  6
CONTINUOUS
 62
     7
 10
563.6554
 20
106.431500000000000
 11
563.5088
 21
106.432600000000010
  0
LINE
  8
PT3-Grafika_wekt5
  6
CONTINUOUS
 62
     7
 10
563.5088
 20
106.432600000000010
 11
559.8281
 21
106.432600000000010
  0
LINE
  8
PT3-Grafika_wekt5
  6
CONTINUOUS
 62
     7
 10
559.8807
 20
106.380500000000010
 11
564.0276
 21
106.380500000000010
  0
LINE
  8
PT3-Grafika_wekt5
  6
CONTINUOUS
 62
     7
 10
564.0276
 20
106.380500000000010
 11
564.0169
 21
106.430700000000000
  0
LINE
  8
PT3-Grafika_wekt5
  6
CONTINUOUS
 62
     7
 10
563.5088
 20
106.432600000000010
 11
563.5091
 21
106.431500000000000
  0
LINE
  8
PT3-Grafika_wekt5
  6
CONTINUOUS
 62
     7
 10
564.0271
 20
106.117300000000000
 11
564.0276
 21
106.380500000000010
  0
LINE
  8
PT3-Grafika_wekt5
  6
CONTINUOUS
 62
     7
 10
559.5874
 20
107.015999999999990
 11
562.3017
 21
107.015999999999990
  0
LINE
  8
PT3-Grafika_wekt5
  6
CONTINUOUS
 62
     7
 10
562.3017
 20
107.015999999999990
 11
562.6367
 21
106.441100000000010
  0
LINE
  8
PT3-Grafika_wekt5
  6
CONTINUOUS
 62
     7
 10
559.5874
 20
107.311900000000010
 11
561.9419
 21
107.311900000000010
  0
LINE
  8
PT3-Grafika_wekt5
  6
CONTINUOUS
 62
     7
 10
561.9419
 20
107.311900000000010
 11
562.1143
 21
107.015999999999990
  0
LINE
  8
PT3-Grafika_wekt5
  6
CONTINUOUS
 62
     7
 10
559.5874
 20
114.520299999999990
 11
561.9419
 21
114.520299999999990
  0
LINE
  8
PT3-Grafika_wekt5
  6
CONTINUOUS
 62
     7
 10
561.9419
 20
114.520299999999990
 11
562.1025
 21
114.795899999999990
  0
LINE
  8
PT3-Grafika_wekt5
  6
CONTINUOUS
 62
     7
 10
559.5874
 20
114.821100000000000
 11
562.2995
 21
114.821100000000000
  0
LINE
  8
PT3-Grafika_wekt5
  6
CONTINUOUS
 62
     7
 10
562.2995
 20
114.821100000000000
 11
562.6323
 21
115.388499999999990
  0
LINE
  8
PT3-Grafika_wekt5
  6
CONTINUOUS
 62
     7
 10
561.8521
 20
107.313500000000000
 11
561.9453
 21
107.312400000000000
  0
LINE
  8
PT3-Grafika_wekt5
  6
CONTINUOUS
 62
     7
 10
561.9453
 20
107.312400000000000
 11
561.9453
 21
114.517400000000010
  0
LINE
  8
PT3-Grafika_wekt5
  6
CONTINUOUS
 62
     7
 10
561.9453
 20
114.517400000000010
 11
561.8521
 21
114.517400000000010
  0
LINE
  8
PT3-Grafika_wekt5
  6
CONTINUOUS
 62
     7
 10
561.9453
 20
107.312400000000000
 11
562.1182
 21
107.015999999999990
  0
LINE
  8
PT3-Grafika_wekt5
  6
CONTINUOUS
 62
     7
 10
561.9453
 20
114.517400000000010
 11
562.1166
 21
114.814899999999990
  0
LINE
  8
PT3-Grafika_wekt5
  6
CONTINUOUS
 62
     7
 10
562.1134
 20
114.816399999999990
 11
562.2993
 21
114.816399999999990
  0
LINE
  8
PT3-Grafika_wekt5
  6
CONTINUOUS
 62
     7
 10
562.2993
 20
114.816399999999990
 11
562.2993
 21
107.024300000000010
  0
LINE
  8
PT3-Grafika_wekt5
  6
CONTINUOUS
 62
     7
 10
562.2993
 20
107.024300000000010
 11
562.1166
 21
107.022099999999990
  0
LINE
  8
PT3-Grafika_wekt5
  6
CONTINUOUS
 62
     7
 10
562.2993
 20
107.024300000000010
 11
562.638
 21
106.441100000000010
  0
LINE
  8
PT3-Grafika_wekt5
  6
CONTINUOUS
 62
     7
 10
562.2993
 20
114.816399999999990
 11
562.6323
 21
115.388499999999990
  0
LINE
  8
PT3-Grafika_wekt5
  6
CONTINUOUS
 62
     7
 10
562.6483
 20
106.441000000000000
 11
562.6483
 21
115.388499999999990
  0
LINE
  8
PT3-Grafika_wekt5
  6
CONTINUOUS
 62
     7
 10
548.3416
 20
106.119400000000010
 11
548.5759
 21
106.117600000000010
  0
LINE
  8
PT3-Grafika_wekt5
  6
CONTINUOUS
 62
     7
 10
548.5759
 20
106.117600000000010
 11
548.5763
 21
106.380799999999990
  0
LINE
  8
PT3-Grafika_wekt5
  6
CONTINUOUS
 62
     7
 10
548.5763
 20
106.380799999999990
 11
548.3416
 21
106.382600000000000
  0
LINE
  8
PT3-Grafika_wekt5
  6
CONTINUOUS
 62
     7
 10
548.3535
 20
106.432600000000010
 11
548.6117
 21
106.430700000000000
  0
LINE
  8
PT3-Grafika_wekt5
  6
CONTINUOUS
 62
     7
 10
548.6117
 20
106.430700000000000
 11
548.5763
 21
106.380799999999990
  0
LINE
  8
PT3-Grafika_wekt5
  6
CONTINUOUS
 62
     7
 10
548.3535
 20
106.441100000000010
 11
551.4028
 21
106.441100000000010
  0
LINE
  8
PT3-Grafika_wekt5
  6
CONTINUOUS
 62
     7
 10
551.4028
 20
106.441100000000010
 11
552.7831
 21
106.430700000000000
  0
LINE
  8
PT3-Grafika_wekt5
  6
CONTINUOUS
 62
     7
 10
552.7831
 20
106.430700000000000
 11
548.6117
 21
106.430700000000000
  0
LINE
  8
PT3-Grafika_wekt5
  6
CONTINUOUS
 62
     7
 10
548.6117
 20
106.430700000000000
 11
548.647
 21
106.380500000000010
  0
LINE
  8
PT3-Grafika_wekt5
  6
CONTINUOUS
 62
     7
 10
548.647
 20
106.380500000000010
 11
548.6464
 21
106.117300000000000
  0
LINE
  8
PT3-Grafika_wekt5
  6
CONTINUOUS
 62
     7
 10
548.6464
 20
106.117300000000000
 11
548.6111
 21
106.067500000000000
  0
LINE
  8
PT3-Grafika_wekt5
  6
CONTINUOUS
 62
     7
 10
548.6111
 20
106.067500000000000
 11
548.3539
 21
106.069400000000000
  0
LINE
  8
PT3-Grafika_wekt5
  6
CONTINUOUS
 62
     7
 10
548.5759
 20
106.117600000000010
 11
548.6111
 21
106.067500000000000
  0
LINE
  8
PT3-Grafika_wekt5
  6
CONTINUOUS
 62
     7
 10
548.6111
 20
106.067500000000000
 11
552.7826
 21
106.067500000000000
  0
LINE
  8
PT3-Grafika_wekt5
  6
CONTINUOUS
 62
     7
 10
552.7826
 20
106.067500000000000
 11
552.7934
 21
106.117300000000000
  0
LINE
  8
PT3-Grafika_wekt5
  6
CONTINUOUS
 62
     7
 10
552.7934
 20
106.117300000000000
 11
548.6464
 21
106.117300000000000
  0
LINE
  8
PT3-Grafika_wekt5
  6
CONTINUOUS
 62
     7
 10
548.5944
 20
106.432600000000010
 11
548.741
 21
106.431500000000000
  0
LINE
  8
PT3-Grafika_wekt5
  6
CONTINUOUS
 62
     7
 10
548.741
 20
106.431500000000000
 11
552.4216
 21
106.431500000000000
  0
LINE
  8
PT3-Grafika_wekt5
  6
CONTINUOUS
 62
     7
 10
552.4216
 20
106.431500000000000
 11
552.2751
 21
106.432600000000010
  0
LINE
  8
PT3-Grafika_wekt5
  6
CONTINUOUS
 62
     7
 10
552.2751
 20
106.432600000000010
 11
548.5944
 21
106.432600000000010
  0
LINE
  8
PT3-Grafika_wekt5
  6
CONTINUOUS
 62
     7
 10
548.647
 20
106.380500000000010
 11
552.7938
 21
106.380500000000010
  0
LINE
  8
PT3-Grafika_wekt5
  6
CONTINUOUS
 62
     7
 10
552.7938
 20
106.380500000000010
 11
552.7831
 21
106.430700000000000
  0
LINE
  8
PT3-Grafika_wekt5
  6
CONTINUOUS
 62
     7
 10
552.2751
 20
106.432600000000010
 11
552.2753
 21
106.431500000000000
  0
LINE
  8
PT3-Grafika_wekt5
  6
CONTINUOUS
 62
     7
 10
552.7934
 20
106.117300000000000
 11
552.7938
 21
106.380500000000010
  0
LINE
  8
PT3-Grafika_wekt5
  6
CONTINUOUS
 62
     7
 10
548.3535
 20
107.015999999999990
 11
551.0679
 21
107.015999999999990
  0
LINE
  8
PT3-Grafika_wekt5
  6
CONTINUOUS
 62
     7
 10
551.0679
 20
107.015999999999990
 11
551.4029
 21
106.441100000000010
  0
LINE
  8
PT3-Grafika_wekt5
  6
CONTINUOUS
 62
     7
 10
548.3535
 20
107.311900000000010
 11
550.7082
 21
107.311900000000010
  0
LINE
  8
PT3-Grafika_wekt5
  6
CONTINUOUS
 62
     7
 10
550.7082
 20
107.311900000000010
 11
550.8805
 21
107.015999999999990
  0
LINE
  8
PT3-Grafika_wekt5
  6
CONTINUOUS
 62
     7
 10
548.3535
 20
114.520299999999990
 11
550.7082
 21
114.520299999999990
  0
LINE
  8
PT3-Grafika_wekt5
  6
CONTINUOUS
 62
     7
 10
550.7082
 20
114.520299999999990
 11
550.8685
 21
114.795700000000010
  0
LINE
  8
PT3-Grafika_wekt5
  6
CONTINUOUS
 62
     7
 10
548.3535
 20
114.821100000000000
 11
551.0657
 21
114.821100000000000
  0
LINE
  8
PT3-Grafika_wekt5
  6
CONTINUOUS
 62
     7
 10
551.0657
 20
114.821100000000000
 11
551.3984
 21
115.388499999999990
  0
LINE
  8
PT3-Grafika_wekt5
  6
CONTINUOUS
 62
     7
 10
550.6182
 20
107.313500000000000
 11
550.7116
 21
107.312400000000000
  0
LINE
  8
PT3-Grafika_wekt5
  6
CONTINUOUS
 62
     7
 10
550.7116
 20
107.312400000000000
 11
550.7116
 21
114.517400000000010
  0
LINE
  8
PT3-Grafika_wekt5
  6
CONTINUOUS
 62
     7
 10
550.7116
 20
114.517400000000010
 11
550.6182
 21
114.517400000000010
  0
LINE
  8
PT3-Grafika_wekt5
  6
CONTINUOUS
 62
     7
 10
550.7116
 20
107.312400000000000
 11
550.8843
 21
107.015999999999990
  0
LINE
  8
PT3-Grafika_wekt5
  6
CONTINUOUS
 62
     7
 10
550.7116
 20
114.517400000000010
 11
550.8829
 21
114.814899999999990
  0
LINE
  8
PT3-Grafika_wekt5
  6
CONTINUOUS
 62
     7
 10
550.8796
 20
114.816399999999990
 11
551.0655
 21
114.816399999999990
  0
LINE
  8
PT3-Grafika_wekt5
  6
CONTINUOUS
 62
     7
 10
551.0655
 20
114.816399999999990
 11
551.0655
 21
107.024300000000010
  0
LINE
  8
PT3-Grafika_wekt5
  6
CONTINUOUS
 62
     7
 10
551.0655
 20
107.024300000000010
 11
550.8829
 21
107.022099999999990
  0
LINE
  8
PT3-Grafika_wekt5
  6
CONTINUOUS
 62
     7
 10
551.0655
 20
107.024300000000010
 11
551.4042
 21
106.441100000000010
  0
LINE
  8
PT3-Grafika_wekt5
  6
CONTINUOUS
 62
     7
 10
551.0655
 20
114.816399999999990
 11
551.3986
 21
115.388499999999990
  0
LINE
  8
PT3-Grafika_wekt5
  6
CONTINUOUS
 62
     7
 10
551.4146
 20
106.441000000000000
 11
551.4146
 21
115.388499999999990
  0
LINE
  8
PT3-Grafika_wekt5
  6
CONTINUOUS
 62
     7
 10
529.4948
 20
106.119400000000010
 11
529.7292
 21
106.117600000000010
  0
LINE
  8
PT3-Grafika_wekt5
  6
CONTINUOUS
 62
     7
 10
529.7292
 20
106.117600000000010
 11
529.7297
 21
106.380799999999990
  0
LINE
  8
PT3-Grafika_wekt5
  6
CONTINUOUS
 62
     7
 10
529.7297
 20
106.380799999999990
 11
529.4948
 21
106.382600000000000
  0
LINE
  8
PT3-Grafika_wekt5
  6
CONTINUOUS
 62
     7
 10
529.5068
 20
106.432600000000010
 11
529.765
 21
106.430700000000000
  0
LINE
  8
PT3-Grafika_wekt5
  6
CONTINUOUS
 62
     7
 10
529.765
 20
106.430700000000000
 11
529.7297
 21
106.380799999999990
  0
LINE
  8
PT3-Grafika_wekt5
  6
CONTINUOUS
 62
     7
 10
529.5068
 20
106.441100000000010
 11
532.5561
 21
106.441100000000010
  0
LINE
  8
PT3-Grafika_wekt5
  6
CONTINUOUS
 62
     7
 10
532.5561
 20
106.441100000000010
 11
533.9363
 21
106.430700000000000
  0
LINE
  8
PT3-Grafika_wekt5
  6
CONTINUOUS
 62
     7
 10
533.9363
 20
106.430700000000000
 11
529.765
 21
106.430700000000000
  0
LINE
  8
PT3-Grafika_wekt5
  6
CONTINUOUS
 62
     7
 10
529.765
 20
106.430700000000000
 11
529.8001
 21
106.380500000000010
  0
LINE
  8
PT3-Grafika_wekt5
  6
CONTINUOUS
 62
     7
 10
529.8001
 20
106.380500000000010
 11
529.7997
 21
106.117300000000000
  0
LINE
  8
PT3-Grafika_wekt5
  6
CONTINUOUS
 62
     7
 10
529.7997
 20
106.117300000000000
 11
529.7643
 21
106.067500000000000
  0
LINE
  8
PT3-Grafika_wekt5
  6
CONTINUOUS
 62
     7
 10
529.7643
 20
106.067500000000000
 11
529.5072
 21
106.069400000000000
  0
LINE
  8
PT3-Grafika_wekt5
  6
CONTINUOUS
 62
     7
 10
529.7292
 20
106.117600000000010
 11
529.7643
 21
106.067500000000000
  0
LINE
  8
PT3-Grafika_wekt5
  6
CONTINUOUS
 62
     7
 10
529.7643
 20
106.067500000000000
 11
533.9358
 21
106.067500000000000
  0
LINE
  8
PT3-Grafika_wekt5
  6
CONTINUOUS
 62
     7
 10
533.9358
 20
106.067500000000000
 11
533.9466
 21
106.117300000000000
  0
LINE
  8
PT3-Grafika_wekt5
  6
CONTINUOUS
 62
     7
 10
533.9466
 20
106.117300000000000
 11
529.7997
 21
106.117300000000000
  0
LINE
  8
PT3-Grafika_wekt5
  6
CONTINUOUS
 62
     7
 10
529.7477
 20
106.432600000000010
 11
529.8943
 21
106.431500000000000
  0
LINE
  8
PT3-Grafika_wekt5
  6
CONTINUOUS
 62
     7
 10
529.8943
 20
106.431500000000000
 11
533.5749
 21
106.431500000000000
  0
LINE
  8
PT3-Grafika_wekt5
  6
CONTINUOUS
 62
     7
 10
533.5749
 20
106.431500000000000
 11
533.4283
 21
106.432600000000010
  0
LINE
  8
PT3-Grafika_wekt5
  6
CONTINUOUS
 62
     7
 10
533.4283
 20
106.432600000000010
 11
529.7477
 21
106.432600000000010
  0
LINE
  8
PT3-Grafika_wekt5
  6
CONTINUOUS
 62
     7
 10
529.8001
 20
106.380500000000010
 11
533.9471
 21
106.380500000000010
  0
LINE
  8
PT3-Grafika_wekt5
  6
CONTINUOUS
 62
     7
 10
533.9471
 20
106.380500000000010
 11
533.9363
 21
106.430700000000000
  0
LINE
  8
PT3-Grafika_wekt5
  6
CONTINUOUS
 62
     7
 10
533.4283
 20
106.432600000000010
 11
533.4285
 21
106.431500000000000
  0
LINE
  8
PT3-Grafika_wekt5
  6
CONTINUOUS
 62
     7
 10
533.9466
 20
106.117300000000000
 11
533.9471
 21
106.380500000000010
  0
LINE
  8
PT3-Grafika_wekt5
  6
CONTINUOUS
 62
     7
 10
529.5068
 20
107.015999999999990
 11
532.2213
 21
107.015999999999990
  0
LINE
  8
PT3-Grafika_wekt5
  6
CONTINUOUS
 62
     7
 10
532.2213
 20
107.015999999999990
 11
532.5562
 21
106.441100000000010
  0
LINE
  8
PT3-Grafika_wekt5
  6
CONTINUOUS
 62
     7
 10
529.5068
 20
107.311900000000010
 11
531.8614
 21
107.311900000000010
  0
LINE
  8
PT3-Grafika_wekt5
  6
CONTINUOUS
 62
     7
 10
531.8614
 20
107.311900000000010
 11
532.0337
 21
107.015999999999990
  0
LINE
  8
PT3-Grafika_wekt5
  6
CONTINUOUS
 62
     7
 10
529.5068
 20
114.520299999999990
 11
531.8614
 21
114.520299999999990
  0
LINE
  8
PT3-Grafika_wekt5
  6
CONTINUOUS
 62
     7
 10
531.8614
 20
114.520299999999990
 11
532.0218
 21
114.795700000000010
  0
LINE
  8
PT3-Grafika_wekt5
  6
CONTINUOUS
 62
     7
 10
529.5068
 20
114.821100000000000
 11
532.219
 21
114.821100000000000
  0
LINE
  8
PT3-Grafika_wekt5
  6
CONTINUOUS
 62
     7
 10
532.219
 20
114.821100000000000
 11
532.5517
 21
115.388499999999990
  0
LINE
  8
PT3-Grafika_wekt5
  6
CONTINUOUS
 62
     7
 10
531.7715
 20
107.313500000000000
 11
531.8648
 21
107.312400000000000
  0
LINE
  8
PT3-Grafika_wekt5
  6
CONTINUOUS
 62
     7
 10
531.8648
 20
107.312400000000000
 11
531.8648
 21
114.517400000000010
  0
LINE
  8
PT3-Grafika_wekt5
  6
CONTINUOUS
 62
     7
 10
531.8648
 20
114.517400000000010
 11
531.7715
 21
114.517400000000010
  0
LINE
  8
PT3-Grafika_wekt5
  6
CONTINUOUS
 62
     7
 10
531.8648
 20
107.312400000000000
 11
532.0376
 21
107.015999999999990
  0
LINE
  8
PT3-Grafika_wekt5
  6
CONTINUOUS
 62
     7
 10
531.8648
 20
114.517400000000010
 11
532.0362
 21
114.814899999999990
  0
LINE
  8
PT3-Grafika_wekt5
  6
CONTINUOUS
 62
     7
 10
532.0329
 20
114.816399999999990
 11
532.2187
 21
114.816399999999990
  0
LINE
  8
PT3-Grafika_wekt5
  6
CONTINUOUS
 62
     7
 10
532.2187
 20
114.816399999999990
 11
532.2187
 21
107.024300000000010
  0
LINE
  8
PT3-Grafika_wekt5
  6
CONTINUOUS
 62
     7
 10
532.2187
 20
107.024300000000010
 11
532.0362
 21
107.022099999999990
  0
LINE
  8
PT3-Grafika_wekt5
  6
CONTINUOUS
 62
     7
 10
532.2187
 20
107.024300000000010
 11
532.5575
 21
106.441100000000010
  0
LINE
  8
PT3-Grafika_wekt5
  6
CONTINUOUS
 62
     7
 10
532.2187
 20
114.816399999999990
 11
532.5518
 21
115.388499999999990
  0
LINE
  8
PT3-Grafika_wekt5
  6
CONTINUOUS
 62
     7
 10
532.5678
 20
106.441000000000000
 11
532.5678
 21
115.388499999999990
  0
LINE
  8
PT3-Grafika_wekt5
  6
CONTINUOUS
 62
     7
 10
537.9754
 20
129.407900000000010
 11
538.2767
 21
129.407900000000010
  0
LINE
  8
PT3-Grafika_wekt5
  6
CONTINUOUS
 62
     7
 10
538.2767
 20
129.407900000000010
 11
538.2767
 21
121.927100000000000
  0
LINE
  8
PT3-Grafika_wekt5
  6
CONTINUOUS
 62
     7
 10
538.2767
 20
129.407900000000010
 11
539.6057
 21
129.407900000000010
  0
LINE
  8
PT3-Grafika_wekt5
  6
CONTINUOUS
 62
     7
 10
539.6057
 20
129.407900000000010
 11
539.6057
 21
121.927100000000000
  0
LINE
  8
PT3-Grafika_wekt5
  6
CONTINUOUS
 62
     7
 10
528.2241
 20
121.564100000000000
 11
528.2241
 21
129.407900000000010
  0
LINE
  8
PT3-Grafika_wekt5
  6
CONTINUOUS
 62
     7
 10
528.2241
 20
129.407900000000010
 11
536.6467
 21
129.407900000000010
  0
LINE
  8
PT3-Grafika_wekt5
  6
CONTINUOUS
 62
     7
 10
536.6467
 20
129.407900000000010
 11
536.6467
 21
121.013900000000010
  0
LINE
  8
PT3-Grafika_wekt5
  6
CONTINUOUS
 62
     7
 10
536.6467
 20
129.407900000000010
 11
537.9754
 21
129.407900000000010
  0
LINE
  8
PT3-Grafika_wekt5
  6
CONTINUOUS
 62
     7
 10
537.9754
 20
129.407900000000010
 11
537.9754
 21
121.013900000000010
  0
LINE
  8
PT3-Grafika_wekt5
  6
CONTINUOUS
 62
     7
 10
25.3749
 20
94.307700000000011
 11
25.3749
 21
95.127700000000004
  0
LINE
  8
PT3-Grafika_wekt5
  6
CONTINUOUS
 62
     7
 10
25.3749
 20
95.127700000000004
 11
49.3507
 21
95.127700000000004
  0
LINE
  8
PT3-Grafika_wekt5
  6
CONTINUOUS
 62
     7
 10
22.3655
 20
91.629600000000011
 11
22.3655
 21
92.142899999999997
  0
LINE
  8
PT3-Grafika_wekt5
  6
CONTINUOUS
 62
     7
 10
22.3738
 20
91.629600000000011
 11
22.3655
 21
91.629600000000011
  0
LINE
  8
PT3-Grafika_wekt5
  6
CONTINUOUS
 62
     7
 10
22.3738
 20
91.629600000000011
 11
49.3507
 21
91.629600000000011
  0
LINE
  8
PT3-Grafika_wekt5
  6
CONTINUOUS
 62
     7
 10
22.3738
 20
92.147799999999989
 11
22.3738
 21
91.629600000000011
  0
LINE
  8
PT3-Grafika_wekt5
  6
CONTINUOUS
 62
     7
 10
8.3206
 20
92.597000000000008
 11
38.2914
 21
92.072300000000013
  0
LINE
  8
PT3-Grafika_wekt5
  6
CONTINUOUS
 62
     7
 10
38.2914
 20
92.072300000000013
 11
68.2623
 21
91.978499999999997
  0
LINE
  8
PT3-Grafika_wekt5
  6
CONTINUOUS
 62
     7
 10
68.2623
 20
91.978499999999997
 11
158.1747
 21
91.978800000000007
  0
LINE
  8
PT3-Grafika_wekt5
  6
CONTINUOUS
 62
     7
 10
158.1747
 20
91.978800000000007
 11
188.1456
 21
92.010700000000014
  0
LINE
  8
PT3-Grafika_wekt5
  6
CONTINUOUS
 62
     7
 10
188.1456
 20
92.010700000000014
 11
218.1164
 21
92.306199999999990
  0
LINE
  8
PT3-Grafika_wekt5
  6
CONTINUOUS
 62
     7
 10
218.1164
 20
92.306199999999990
 11
234.1707
 21
92.489800000000002
  0
LINE
  8
PT3-Grafika_wekt5
  6
CONTINUOUS
 62
     7
 10
234.1707
 20
92.489800000000002
 11
234.1707
 21
92.066699999999997
  0
LINE
  8
PT3-Grafika_wekt5
  6
CONTINUOUS
 62
     7
 10
234.1707
 20
92.066699999999997
 11
248.0873
 21
92.305399999999992
  0
LINE
  8
PT3-Grafika_wekt5
  6
CONTINUOUS
 62
     7
 10
248.0873
 20
92.305399999999992
 11
278.058
 21
92.762599999999992
  0
LINE
  8
PT3-Grafika_wekt5
  6
CONTINUOUS
 62
     7
 10
278.058
 20
92.762599999999992
 11
308.0289
 21
93.186000000000007
  0
LINE
  8
PT3-Grafika_wekt5
  6
CONTINUOUS
 62
     7
 10
308.0289
 20
93.186000000000007
 11
337.9997
 21
93.562099999999987
  0
LINE
  8
PT3-Grafika_wekt5
  6
CONTINUOUS
 62
     7
 10
337.9997
 20
93.562099999999987
 11
367.9705
 21
93.906599999999997
  0
LINE
  8
PT3-Grafika_wekt5
  6
CONTINUOUS
 62
     7
 10
367.9705
 20
93.906599999999997
 11
397.9414
 21
94.231300000000005
  0
LINE
  8
PT3-Grafika_wekt5
  6
CONTINUOUS
 62
     7
 10
397.9414
 20
94.231300000000005
 11
427.9121
 21
94.543900000000008
  0
LINE
  8
PT3-Grafika_wekt5
  6
CONTINUOUS
 62
     7
 10
427.9121
 20
94.543900000000008
 11
457.883
 21
94.849299999999999
  0
LINE
  8
PT3-Grafika_wekt5
  6
CONTINUOUS
 62
     7
 10
457.883
 20
94.849299999999999
 11
487.8538
 21
95.108200000000011
  0
LINE
  8
PT3-Grafika_wekt5
  6
CONTINUOUS
 62
     7
 10
487.8538
 20
95.108200000000011
 11
517.8247
 21
95.339300000000009
  0
LINE
  8
PT3-Grafika_wekt5
  6
CONTINUOUS
 62
     7
 10
517.8247
 20
95.339300000000009
 11
547.7955
 21
95.559599999999989
  0
LINE
  8
PT3-Grafika_wekt5
  6
CONTINUOUS
 62
     7
 10
547.7955
 20
95.559599999999989
 11
577.7663
 21
95.770999999999987
  0
LINE
  8
PT3-Grafika_wekt5
  6
CONTINUOUS
 62
     7
 10
577.7663
 20
95.770999999999987
 11
601.1243
 21
95.924200000000013
  0
LINE
  8
PT3-Grafika_wekt5
  6
CONTINUOUS
 62
     7
 10
600.9837
 20
96.165500000000009
 11
547.7955
 21
95.898300000000006
  0
LINE
  8
PT3-Grafika_wekt5
  6
CONTINUOUS
 62
     7
 10
547.7955
 20
95.898300000000006
 11
517.4739
 21
95.740000000000009
  0
LINE
  8
PT3-Grafika_wekt5
  6
CONTINUOUS
 62
     7
 10
517.4739
 20
95.740000000000009
 11
488.0365
 21
95.579399999999993
  0
LINE
  8
PT3-Grafika_wekt5
  6
CONTINUOUS
 62
     7
 10
488.0365
 20
95.579399999999993
 11
457.883
 21
95.408700000000010
  0
LINE
  8
PT3-Grafika_wekt5
  6
CONTINUOUS
 62
     7
 10
457.883
 20
95.408700000000010
 11
427.9121
 21
95.232499999999987
  0
LINE
  8
PT3-Grafika_wekt5
  6
CONTINUOUS
 62
     7
 10
427.9121
 20
95.232499999999987
 11
397.9414
 21
95.050000000000011
  0
LINE
  8
PT3-Grafika_wekt5
  6
CONTINUOUS
 62
     7
 10
397.9414
 20
95.050000000000011
 11
367.9705
 21
94.860500000000002
  0
LINE
  8
PT3-Grafika_wekt5
  6
CONTINUOUS
 62
     7
 10
367.9705
 20
94.860500000000002
 11
337.9997
 21
94.663099999999986
  0
LINE
  8
PT3-Grafika_wekt5
  6
CONTINUOUS
 62
     7
 10
337.9997
 20
94.663099999999986
 11
307.4493
 21
94.452599999999990
  0
LINE
  8
PT3-Grafika_wekt5
  6
CONTINUOUS
 62
     7
 10
307.4493
 20
94.452599999999990
 11
278.0118
 21
94.239800000000002
  0
LINE
  8
PT3-Grafika_wekt5
  6
CONTINUOUS
 62
     7
 10
278.0118
 20
94.239800000000002
 11
248.5744
 21
94.016699999999986
  0
LINE
  8
PT3-Grafika_wekt5
  6
CONTINUOUS
 62
     7
 10
248.5744
 20
94.016699999999986
 11
218.1164
 21
93.775100000000009
  0
LINE
  8
PT3-Grafika_wekt5
  6
CONTINUOUS
 62
     7
 10
218.1164
 20
93.775100000000009
 11
188.1456
 21
93.532499999999999
  0
LINE
  8
PT3-Grafika_wekt5
  6
CONTINUOUS
 62
     7
 10
188.1456
 20
93.532499999999999
 11
158.1747
 21
93.299100000000010
  0
LINE
  8
PT3-Grafika_wekt5
  6
CONTINUOUS
 62
     7
 10
158.1747
 20
93.299100000000010
 11
128.2039
 21
93.108000000000004
  0
LINE
  8
PT3-Grafika_wekt5
  6
CONTINUOUS
 62
     7
 10
22.3655
 20
92.143599999999992
 11
22.3661
 21
92.142899999999997
  0
LINE
  8
PT3-Grafika_wekt5
  6
CONTINUOUS
 62
     7
 10
22.3661
 20
92.142899999999997
 11
22.3666
 21
92.142899999999997
  0
LINE
  8
PT3-Grafika_wekt5
  6
CONTINUOUS
 62
     7
 10
22.3661
 20
92.142899999999997
 11
22.3679
 21
92.143499999999989
  0
LINE
  8
PT3-Grafika_wekt5
  6
CONTINUOUS
 62
     7
 10
22.3679
 20
92.143499999999989
 11
22.3696
 21
92.147899999999993
  0
LINE
  8
PT3-Grafika_wekt5
  6
CONTINUOUS
 62
     7
 10
22.3696
 20
92.147899999999993
 11
38.2915
 21
91.764299999999992
  0
LINE
  8
PT3-Grafika_wekt5
  6
CONTINUOUS
 62
     7
 10
38.2915
 20
91.764299999999992
 11
48.4268
 21
91.642899999999997
  0
LINE
  8
PT3-Grafika_wekt5
  6
CONTINUOUS
 62
     7
 10
22.3679
 20
92.143499999999989
 11
22.3705
 21
92.143400000000014
  0
LINE
  8
PT3-Grafika_wekt5
  6
CONTINUOUS
 62
     7
 10
24.3839
 20
92.108499999999992
 11
24.3839
 21
92.178599999999989
  0
LINE
  8
PT3-Grafika_wekt5
  6
CONTINUOUS
 62
     7
 10
24.3839
 20
92.178599999999989
 11
38.2914
 21
91.872199999999992
  0
LINE
  8
PT3-Grafika_wekt5
  6
CONTINUOUS
 62
     7
 10
38.2915
 20
91.786300000000011
 11
24.3839
 21
92.108499999999992
  0
LINE
  8
PT3-Grafika_wekt5
  6
CONTINUOUS
 62
     7
 10
38.2915
 20
91.841100000000012
 11
43.351
 21
91.752299999999991
  0
LINE
  8
PT3-Grafika_wekt5
  6
CONTINUOUS
 62
     7
 10
38.2915
 20
91.855099999999993
 11
48.9068
 21
91.639399999999995
  0
LINE
  8
PT3-Grafika_wekt5
  6
CONTINUOUS
 62
     7
 10
38.5497
 20
92.909799999999990
 11
98.2331
 21
93.026000000000010
  0
LINE
  8
PT3-Grafika_wekt5
  6
CONTINUOUS
 62
     7
 10
49.3356
 20
91.629899999999992
 11
38.2915
 21
91.786300000000011
  0
LINE
  8
PT3-Grafika_wekt5
  6
CONTINUOUS
 62
     7
 10
398.8323
 20
95.055399999999992
 11
398.8356
 21
95.055499999999995
  0
LINE
  8
PT3-Grafika_wekt5
  6
CONTINUOUS
 62
     7
 10
568.3966
 20
96.232900000000001
 11
577.7663
 21
96.259500000000003
  0
LINE
  8
PT3-Grafika_wekt5
  6
CONTINUOUS
 62
     7
 10
577.7663
 20
96.259500000000003
 11
601.8828
 21
96.330900000000014
  0
LINE
  8
PT3-Grafika_wekt5
  6
CONTINUOUS
 62
     7
 10
114.2624
 20
215.815100000000000
 11
114.2624
 21
224.353299999999990
  0
LINE
  8
PT3-Grafika_wekt5
  6
CONTINUOUS
 62
     7
 10
114.2624
 20
224.353299999999990
 11
118.0587
 21
224.353299999999990
  0
LINE
  8
PT3-Grafika_wekt5
  6
CONTINUOUS
 62
     7
 10
118.0587
 20
224.353299999999990
 11
118.0587
 21
218.281399999999990
  0
LINE
  8
PT3-Grafika_wekt5
  6
CONTINUOUS
 62
     7
 10
431.0368
 20
95.250900000000001
 11
431.0368
 21
97.126499999999993
  0
LINE
  8
PT3-Grafika_wekt5
  6
CONTINUOUS
 62
     7
 10
431.0368
 20
97.126499999999993
 11
448.0687
 21
97.126499999999993
  0
LINE
  8
PT3-Grafika_wekt5
  6
CONTINUOUS
 62
     7
 10
448.0687
 20
97.126499999999993
 11
448.0687
 21
95.696499999999986
  0
LINE
  8
PT3-Grafika_wekt5
  6
CONTINUOUS
 62
     7
 10
435.1503
 20
97.126499999999993
 11
435.1503
 21
98.625599999999991
  0
LINE
  8
PT3-Grafika_wekt5
  6
CONTINUOUS
 62
     7
 10
435.1503
 20
98.625599999999991
 11
448.0687
 21
98.625599999999991
  0
LINE
  8
PT3-Grafika_wekt5
  6
CONTINUOUS
 62
     7
 10
28.3718
 20
95.127700000000004
 11
28.3718
 21
96.876599999999996
  0
LINE
  8
PT3-Grafika_wekt5
  6
CONTINUOUS
 62
     7
 10
28.3718
 20
96.876599999999996
 11
49.3507
 21
96.876599999999996
  0
LINE
  8
PT3-Grafika_wekt5
  6
CONTINUOUS
 62
     7
 10
31.3688
 20
96.876599999999996
 11
31.3688
 21
98.625599999999991
  0
LINE
  8
PT3-Grafika_wekt5
  6
CONTINUOUS
 62
     7
 10
31.3688
 20
98.625599999999991
 11
49.3507
 21
98.625599999999991
  0
LINE
  8
PT3-Grafika_wekt5
  6
CONTINUOUS
 62
     7
 10
18.3108
 20
92.963899999999995
 11
38.5497
 21
92.909799999999990
  0
LINE
  8
PT3-Grafika_wekt5
  6
CONTINUOUS
 62
     7
 10
38.5497
 20
92.909799999999990
 11
98.2331
 21
93.026000000000010
  0
LINE
  8
PT3-Grafika_wekt5
  6
CONTINUOUS
 62
     7
 10
98.2331
 20
93.026000000000010
 11
118.2136
 21
93.067599999999999
  0
LINE
  8
PT3-Grafika_wekt5
  6
CONTINUOUS
 62
     7
 10
118.2136
 20
93.067599999999999
 11
128.2039
 21
93.108000000000004
  0
LINE
  8
PT3-Grafika_wekt5
  6
CONTINUOUS
 62
     7
 10
128.2039
 20
93.108000000000004
 11
158.1747
 21
93.299100000000010
  0
LINE
  8
PT3-Grafika_wekt5
  6
CONTINUOUS
 62
     7
 10
158.1747
 20
93.299100000000010
 11
188.1456
 21
93.532499999999999
  0
LINE
  8
PT3-Grafika_wekt5
  6
CONTINUOUS
 62
     7
 10
188.1456
 20
93.532499999999999
 11
218.1164
 21
93.775100000000009
  0
LINE
  8
PT3-Grafika_wekt5
  6
CONTINUOUS
 62
     7
 10
218.1164
 20
93.775100000000009
 11
248.5744
 21
94.016699999999986
  0
LINE
  8
PT3-Grafika_wekt5
  6
CONTINUOUS
 62
     7
 10
248.5744
 20
94.016699999999986
 11
278.0118
 21
94.239800000000002
  0
LINE
  8
PT3-Grafika_wekt5
  6
CONTINUOUS
 62
     7
 10
278.0118
 20
94.239800000000002
 11
307.4493
 21
94.452599999999990
  0
LINE
  8
PT3-Grafika_wekt5
  6
CONTINUOUS
 62
     7
 10
307.4493
 20
94.452599999999990
 11
318.0191
 21
94.526600000000002
  0
LINE
  8
PT3-Grafika_wekt5
  6
CONTINUOUS
 62
     7
 10
318.0191
 20
94.526600000000002
 11
337.9997
 21
94.663099999999986
  0
LINE
  8
PT3-Grafika_wekt5
  6
CONTINUOUS
 62
     7
 10
337.9997
 20
94.663099999999986
 11
367.9705
 21
94.860500000000002
  0
LINE
  8
PT3-Grafika_wekt5
  6
CONTINUOUS
 62
     7
 10
367.9705
 20
94.860500000000002
 11
397.9414
 21
95.050000000000011
  0
LINE
  8
PT3-Grafika_wekt5
  6
CONTINUOUS
 62
     7
 10
397.9414
 20
95.050000000000011
 11
417.9219
 21
95.172400000000010
  0
LINE
  8
PT3-Grafika_wekt5
  6
CONTINUOUS
 62
     7
 10
417.9219
 20
95.172400000000010
 11
427.9121
 21
95.232499999999987
  0
LINE
  8
PT3-Grafika_wekt5
  6
CONTINUOUS
 62
     7
 10
427.9121
 20
95.232499999999987
 11
457.883
 21
95.408700000000010
  0
LINE
  8
PT3-Grafika_wekt5
  6
CONTINUOUS
 62
     7
 10
457.883
 20
95.408700000000010
 11
488.0365
 21
95.579399999999993
  0
LINE
  8
PT3-Grafika_wekt5
  6
CONTINUOUS
 62
     7
 10
488.0365
 20
95.579399999999993
 11
517.4739
 21
95.740000000000009
  0
LINE
  8
PT3-Grafika_wekt5
  6
CONTINUOUS
 62
     7
 10
517.4739
 20
95.740000000000009
 11
547.7955
 21
95.898300000000006
  0
LINE
  8
PT3-Grafika_wekt5
  6
CONTINUOUS
 62
     7
 10
547.7955
 20
95.898300000000006
 11
600.9837
 21
96.165500000000009
  0
LINE
  8
PT3-Grafika_wekt5
  6
CONTINUOUS
 62
     7
 10
568.3966
 20
96.232900000000001
 11
577.7663
 21
96.259500000000003
  0
LINE
  8
PT3-Grafika_wekt5
  6
CONTINUOUS
 62
     7
 10
577.7663
 20
96.259500000000003
 11
601.8828
 21
96.330900000000014
  0
LINE
  8
PT3-Grafika_wekt5
  6
CONTINUOUS
 62
     7
 10
118.0587
 20
224.353299999999990
 11
118.9844
 21
224.353299999999990
  0
LINE
  8
PT3-Grafika_wekt5
  6
CONTINUOUS
 62
     7
 10
118.9844
 20
224.353299999999990
 11
118.9844
 21
218.882900000000010
  0
LINE
  8
PT3-Grafika_wekt5
  6
CONTINUOUS
 62
     7
 10
8.3206
 20
92.597000000000008
 11
38.2914
 21
92.072300000000013
  0
LINE
  8
PT3-Grafika_wekt5
  6
CONTINUOUS
 62
     7
 10
38.2914
 20
92.072300000000013
 11
68.2623
 21
91.978499999999997
  0
LINE
  8
PT3-Grafika_wekt5
  6
CONTINUOUS
 62
     7
 10
68.2623
 20
91.978499999999997
 11
158.1747
 21
91.978800000000007
  0
LINE
  8
PT3-Grafika_wekt5
  6
CONTINUOUS
 62
     7
 10
158.1747
 20
91.978800000000007
 11
188.1456
 21
92.010700000000014
  0
LINE
  8
PT3-Grafika_wekt5
  6
CONTINUOUS
 62
     7
 10
188.1456
 20
92.010700000000014
 11
218.1164
 21
92.306199999999990
  0
LINE
  8
PT3-Grafika_wekt5
  6
CONTINUOUS
 62
     7
 10
218.1164
 20
92.306199999999990
 11
234.1707
 21
92.489800000000002
  0
LINE
  8
PT3-Grafika_wekt5
  6
CONTINUOUS
 62
     7
 10
234.1707
 20
92.489800000000002
 11
234.1707
 21
92.066699999999997
  0
LINE
  8
PT3-Grafika_wekt5
  6
CONTINUOUS
 62
     7
 10
234.1707
 20
92.066699999999997
 11
218.1164
 21
91.794900000000013
  0
LINE
  8
PT3-Grafika_wekt5
  6
CONTINUOUS
 62
     7
 10
218.1164
 20
91.794900000000013
 11
208.196
 21
91.629700000000014
  0
LINE
  8
PT3-Grafika_wekt5
  6
CONTINUOUS
 62
     7
 10
208.196
 20
91.629700000000014
 11
188.1456
 21
91.648500000000013
  0
LINE
  8
PT3-Grafika_wekt5
  6
CONTINUOUS
 62
     7
 10
188.1456
 20
91.648500000000013
 11
158.1747
 21
91.667800000000000
  0
LINE
  8
PT3-Grafika_wekt5
  6
CONTINUOUS
 62
     7
 10
158.1747
 20
91.667800000000000
 11
128.2039
 21
91.675600000000003
  0
LINE
  8
PT3-Grafika_wekt5
  6
CONTINUOUS
 62
     7
 10
128.2039
 20
91.675600000000003
 11
98.2331
 21
91.670400000000001
  0
LINE
  8
PT3-Grafika_wekt5
  6
CONTINUOUS
 62
     7
 10
98.2331
 20
91.670400000000001
 11
68.2623
 21
91.650499999999994
  0
LINE
  8
PT3-Grafika_wekt5
  6
CONTINUOUS
 62
     7
 10
68.2623
 20
91.650499999999994
 11
49.3507
 21
91.629600000000011
  0
LINE
  8
PT3-Grafika_wekt5
  6
CONTINUOUS
 62
     7
 10
49.3507
 20
91.629600000000011
 11
24.3839
 21
92.178599999999989
  0
LINE
  8
PT3-Grafika_wekt5
  6
CONTINUOUS
 62
     7
 10
24.3839
 20
92.178599999999989
 11
24.3839
 21
92.108499999999992
  0
LINE
  8
PT3-Grafika_wekt5
  6
CONTINUOUS
 62
     7
 10
24.3839
 20
92.108499999999992
 11
38.2915
 21
91.786300000000011
  0
LINE
  8
PT3-Grafika_wekt5
  6
CONTINUOUS
 62
     7
 10
8.3206
 20
92.483699999999999
 11
22.3661
 21
92.142899999999997
  0
LINE
  8
PT3-Grafika_wekt5
  6
CONTINUOUS
 62
     7
 10
22.3661
 20
92.142899999999997
 11
22.3655
 21
92.143599999999992
  0
LINE
  8
PT3-Grafika_wekt5
  6
CONTINUOUS
 62
     7
 10
22.3661
 20
92.142899999999997
 11
22.3679
 21
92.143499999999989
  0
LINE
  8
PT3-Grafika_wekt5
  6
CONTINUOUS
 62
     7
 10
22.3679
 20
92.143499999999989
 11
22.3696
 21
92.147899999999993
  0
LINE
  8
PT3-Grafika_wekt5
  6
CONTINUOUS
 62
     7
 10
22.3696
 20
92.147899999999993
 11
38.2915
 21
91.764299999999992
  0
LINE
  8
PT3-Grafika_wekt5
  6
CONTINUOUS
 62
     7
 10
38.2915
 20
91.764299999999992
 11
48.4268
 21
91.642899999999997
  0
LINE
  8
PT3-Grafika_wekt5
  6
CONTINUOUS
 62
     7
 10
190.8088
 20
209.081400000000000
 11
190.8088
 21
214.359100000000010
  0
LINE
  8
PT3-Grafika_wekt5
  6
CONTINUOUS
 62
     7
 10
190.8088
 20
214.359100000000010
 11
197.2025
 21
214.359100000000010
  0
LINE
  8
PT3-Grafika_wekt5
  6
CONTINUOUS
 62
     7
 10
197.2025
 20
214.359100000000010
 11
197.2025
 21
209.081400000000000
  0
LINE
  8
PT3-Grafika_wekt5
  6
CONTINUOUS
 62
     7
 10
214.6132
 20
108.116700000000010
 11
214.6132
 21
108.120100000000010
  0
LINE
  8
PT3-Grafika_wekt5
  6
CONTINUOUS
 62
     7
 10
214.6132
 20
108.151199999999990
 11
214.6132
 21
108.166400000000010
  0
LINE
  8
PT3-Grafika_wekt5
  6
CONTINUOUS
 62
     7
 10
214.6132
 20
108.166799999999990
 11
214.6132
 21
108.151199999999990
  0
LINE
  8
PT3-Grafika_wekt5
  6
CONTINUOUS
 62
     7
 10
247.1815
 20
108.116700000000010
 11
247.1815
 21
108.120100000000010
  0
LINE
  8
PT3-Grafika_wekt5
  6
CONTINUOUS
 62
     7
 10
247.1815
 20
108.151199999999990
 11
247.1815
 21
108.166500000000010
  0
LINE
  8
PT3-Grafika_wekt5
  6
CONTINUOUS
 62
     7
 10
247.1815
 20
108.166799999999990
 11
247.1815
 21
108.151199999999990
  0
LINE
  8
PT3-Grafika_wekt5
  6
CONTINUOUS
 62
     7
 10
43.3565
 20
98.625599999999991
 11
43.3565
 21
169.523799999999990
  0
LINE
  8
PT3-Grafika_wekt5
  6
CONTINUOUS
 62
     7
 10
43.3565
 20
134.405100000000000
 11
43.3673
 21
98.625599999999991
  0
LINE
  8
PT3-Grafika_wekt5
  6
CONTINUOUS
 62
     7
 10
43.3565
 20
169.384900000000020
 11
44.8696
 21
169.384900000000020
  0
LINE
  8
PT3-Grafika_wekt5
  6
CONTINUOUS
 62
     7
 10
43.3565
 20
169.999100000000000
 11
43.3565
 21
189.468700000000010
  0
LINE
  8
PT3-Grafika_wekt5
  6
CONTINUOUS
 62
     7
 10
49.3507
 20
94.333300000000008
 11
49.3507
 21
134.405100000000000
  0
LINE
  8
PT3-Grafika_wekt5
  6
CONTINUOUS
 62
     7
 10
49.3507
 20
98.125900000000001
 11
208.196
 21
98.125900000000001
  0
LINE
  8
PT3-Grafika_wekt5
  6
CONTINUOUS
 62
     7
 10
208.196
 20
98.125900000000001
 11
208.196
 21
94.712099999999992
  0
LINE
  8
PT3-Grafika_wekt5
  6
CONTINUOUS
 62
     7
 10
49.3507
 20
134.405100000000000
 11
49.3507
 21
169.051199999999990
  0
LINE
  8
PT3-Grafika_wekt5
  6
CONTINUOUS
 62
     7
 10
49.351
 20
173.644299999999990
 11
49.351
 21
179.079299999999990
  0
LINE
  8
PT3-Grafika_wekt5
  6
CONTINUOUS
 62
     7
 10
49.351
 20
179.379099999999990
 11
49.351
 21
189.887700000000000
  0
LINE
  8
PT3-Grafika_wekt5
  6
CONTINUOUS
 62
     7
 10
49.3569
 20
173.648200000000000
 11
49.3569
 21
191.652899999999990
  0
LINE
  8
PT3-Grafika_wekt5
  6
CONTINUOUS
 62
     7
 10
113.788
 20
173.644099999999980
 11
113.788
 21
193.119900000000000
  0
LINE
  8
PT3-Grafika_wekt5
  6
CONTINUOUS
 62
     7
 10
120.4815
 20
108.619800000000000
 11
120.4815
 21
128.108700000000000
  0
LINE
  8
PT3-Grafika_wekt5
  6
CONTINUOUS
 62
     7
 10
120.4815
 20
128.108700000000000
 11
137.0654
 21
128.108700000000000
  0
LINE
  8
PT3-Grafika_wekt5
  6
CONTINUOUS
 62
     7
 10
137.0654
 20
128.108700000000000
 11
137.0654
 21
108.919700000000010
  0
LINE
  8
PT3-Grafika_wekt5
  6
CONTINUOUS
 62
     7
 10
121.3306
 20
179.079299999999990
 11
121.3306
 21
191.072499999999990
  0
LINE
  8
PT3-Grafika_wekt5
  6
CONTINUOUS
 62
     7
 10
121.3306
 20
191.072499999999990
 11
136.316
 21
191.072499999999990
  0
LINE
  8
PT3-Grafika_wekt5
  6
CONTINUOUS
 62
     7
 10
136.316
 20
191.072499999999990
 11
136.316
 21
179.379099999999990
  0
LINE
  8
PT3-Grafika_wekt5
  6
CONTINUOUS
 62
     7
 10
122.7793
 20
145.598600000000000
 11
122.7793
 21
161.389500000000000
  0
LINE
  8
PT3-Grafika_wekt5
  6
CONTINUOUS
 62
     7
 10
122.7793
 20
161.389500000000000
 11
134.7676
 21
161.389500000000000
  0
LINE
  8
PT3-Grafika_wekt5
  6
CONTINUOUS
 62
     7
 10
134.7676
 20
161.389500000000000
 11
134.7676
 21
145.898399999999980
  0
LINE
  8
PT3-Grafika_wekt5
  6
CONTINUOUS
 62
     7
 10
143.7589
 20
173.644099999999980
 11
143.7589
 21
193.119900000000000
  0
LINE
  8
PT3-Grafika_wekt5
  6
CONTINUOUS
 62
     7
 10
208.196
 20
98.125900000000001
 11
208.196
 21
134.405100000000000
  0
LINE
  8
PT3-Grafika_wekt5
  6
CONTINUOUS
 62
     7
 10
208.196
 20
134.405100000000000
 11
208.196
 21
169.051199999999990
  0
LINE
  8
PT3-Grafika_wekt5
  6
CONTINUOUS
 62
     7
 10
208.196
 20
173.644099999999980
 11
208.196
 21
191.723500000000000
  0
LINE
  8
PT3-Grafika_wekt5
  6
CONTINUOUS
 62
     7
 10
208.3522
 20
134.405100000000000
 11
208.196
 21
134.405100000000000
  0
LINE
  8
PT3-Grafika_wekt5
  6
CONTINUOUS
 62
     7
 10
208.6943
 20
94.713500000000010
 11
208.6943
 21
98.125900000000001
  0
LINE
  8
PT3-Grafika_wekt5
  6
CONTINUOUS
 62
     7
 10
208.6943
 20
98.125900000000001
 11
208.196
 21
98.125900000000001
  0
LINE
  8
PT3-Grafika_wekt5
  6
CONTINUOUS
 62
     7
 10
208.6943
 20
98.125900000000001
 11
276.8109
 21
98.125900000000001
  0
LINE
  8
PT3-Grafika_wekt5
  6
CONTINUOUS
 62
     7
 10
214.6117
 20
144.586900000000010
 11
214.6117
 21
159.049300000000020
  0
LINE
  8
PT3-Grafika_wekt5
  6
CONTINUOUS
 62
     7
 10
214.6117
 20
159.049300000000020
 11
228.877
 21
159.049300000000020
  0
LINE
  8
PT3-Grafika_wekt5
  6
CONTINUOUS
 62
     7
 10
228.877
 20
159.049300000000020
 11
228.877
 21
144.406999999999980
  0
LINE
  8
PT3-Grafika_wekt5
  6
CONTINUOUS
 62
     7
 10
228.877
 20
144.406999999999980
 11
228.8759
 21
144.406999999999980
  0
LINE
  8
PT3-Grafika_wekt5
  6
CONTINUOUS
 62
     7
 10
228.8759
 20
144.406999999999980
 11
228.8769
 21
144.406999999999980
  0
LINE
  8
PT3-Grafika_wekt5
  6
CONTINUOUS
 62
     7
 10
228.8769
 20
144.406999999999980
 11
228.8769
 21
159.049300000000020
  0
LINE
  8
PT3-Grafika_wekt5
  6
CONTINUOUS
 62
     7
 10
214.6128
 20
108.107900000000000
 11
214.6128
 21
125.061600000000000
  0
LINE
  8
PT3-Grafika_wekt5
  6
CONTINUOUS
 62
     7
 10
214.6128
 20
125.061600000000000
 11
229.5763
 21
125.061600000000000
  0
LINE
  8
PT3-Grafika_wekt5
  6
CONTINUOUS
 62
     7
 10
229.5763
 20
125.061600000000000
 11
229.5763
 21
107.894800000000000
  0
LINE
  8
PT3-Grafika_wekt5
  6
CONTINUOUS
 62
     7
 10
229.5763
 20
107.894800000000000
 11
229.5752
 21
107.894800000000000
  0
LINE
  8
PT3-Grafika_wekt5
  6
CONTINUOUS
 62
     7
 10
228.8769
 20
144.406999999999980
 11
228.877
 21
144.406999999999980
  0
LINE
  8
PT3-Grafika_wekt5
  6
CONTINUOUS
 62
     7
 10
247.1811
 20
108.107900000000000
 11
247.1811
 21
125.061600000000000
  0
LINE
  8
PT3-Grafika_wekt5
  6
CONTINUOUS
 62
     7
 10
247.1811
 20
125.061600000000000
 11
262.1446
 21
125.061600000000000
  0
LINE
  8
PT3-Grafika_wekt5
  6
CONTINUOUS
 62
     7
 10
262.1446
 20
125.061600000000000
 11
262.1446
 21
107.894800000000000
  0
LINE
  8
PT3-Grafika_wekt5
  6
CONTINUOUS
 62
     7
 10
262.1446
 20
107.894800000000000
 11
262.1435
 21
107.894800000000000
  0
LINE
  8
PT3-Grafika_wekt5
  6
CONTINUOUS
 62
     7
 10
247.8794
 20
144.586900000000010
 11
247.8794
 21
159.049300000000020
  0
LINE
  8
PT3-Grafika_wekt5
  6
CONTINUOUS
 62
     7
 10
247.8794
 20
159.049300000000020
 11
262.1446
 21
159.049300000000020
  0
LINE
  8
PT3-Grafika_wekt5
  6
CONTINUOUS
 62
     7
 10
262.1446
 20
159.049300000000020
 11
262.1446
 21
159.049300000000020
  0
LINE
  8
PT3-Grafika_wekt5
  6
CONTINUOUS
 62
     7
 10
262.1446
 20
159.049300000000020
 11
262.1446
 21
144.406999999999980
  0
LINE
  8
PT3-Grafika_wekt5
  6
CONTINUOUS
 62
     7
 10
262.1446
 20
144.406999999999980
 11
262.1435
 21
144.406999999999980
  0
LINE
  8
PT3-Grafika_wekt5
  6
CONTINUOUS
 62
     7
 10
262.1435
 20
144.406999999999980
 11
262.1446
 21
144.406999999999980
  0
LINE
  8
PT3-Grafika_wekt5
  6
CONTINUOUS
 62
     7
 10
262.1446
 20
144.406999999999980
 11
262.1446
 21
144.406999999999980
  0
LINE
  8
PT3-Grafika_wekt5
  6
CONTINUOUS
 62
     7
 10
262.1446
 20
144.406999999999980
 11
262.1446
 21
159.049300000000020
  0
LINE
  8
PT3-Grafika_wekt5
  6
CONTINUOUS
 62
     7
 10
276.8109
 20
98.125900000000001
 11
280.5542
 21
98.125900000000001
  0
LINE
  8
PT3-Grafika_wekt5
  6
CONTINUOUS
 62
     7
 10
280.5542
 20
94.258199999999988
 11
280.5542
 21
134.405100000000000
  0
LINE
  8
PT3-Grafika_wekt5
  6
CONTINUOUS
 62
     7
 10
280.5542
 20
170.146000000000020
 11
280.5542
 21
162.127200000000020
  0
LINE
  8
PT3-Grafika_wekt5
  6
CONTINUOUS
 62
     7
 10
280.5542
 20
98.125900000000001
 11
280.5577
 21
98.125900000000001
  0
LINE
  8
PT3-Grafika_wekt5
  6
CONTINUOUS
 62
     7
 10
280.5542
 20
134.405100000000000
 11
280.5542
 21
158.833800000000000
  0
LINE
  8
PT3-Grafika_wekt5
  6
CONTINUOUS
 62
     7
 10
280.5542
 20
169.384900000000020
 11
280.7059
 21
169.384900000000020
  0
LINE
  8
PT3-Grafika_wekt5
  6
CONTINUOUS
 62
     7
 10
280.5577
 20
98.625599999999991
 11
379.0532
 21
98.625599999999991
  0
LINE
  8
PT3-Grafika_wekt5
  6
CONTINUOUS
 62
     7
 10
379.0532
 20
94.930599999999998
 11
379.0532
 21
114.616400000000000
  0
LINE
  8
PT3-Grafika_wekt5
  6
CONTINUOUS
 62
     7
 10
379.0532
 20
114.616400000000000
 11
382.235
 21
114.616400000000000
  0
LINE
  8
PT3-Grafika_wekt5
  6
CONTINUOUS
 62
     7
 10
382.235
 20
114.616400000000000
 11
382.235
 21
119.413700000000010
  0
LINE
  8
PT3-Grafika_wekt5
  6
CONTINUOUS
 62
     7
 10
382.235
 20
119.413700000000010
 11
391.5932
 21
119.413700000000010
  0
LINE
  8
PT3-Grafika_wekt5
  6
CONTINUOUS
 62
     7
 10
391.5932
 20
119.413700000000010
 11
391.5932
 21
95.009800000000013
  0
LINE
  8
PT3-Grafika_wekt5
  6
CONTINUOUS
 62
     7
 10
391.5932
 20
98.625599999999991
 11
435.1503
 21
98.625599999999991
  0
LINE
  8
PT3-Grafika_wekt5
  6
CONTINUOUS
 62
     7
 10
448.0687
 20
129.307999999999990
 11
448.0687
 21
95.350999999999999
  0
LINE
  8
PT3-Grafika_wekt5
  6
CONTINUOUS
 62
     7
 10
280.5577
 20
134.405100000000000
 11
280.5542
 21
134.405100000000000
  0
LINE
  8
PT3-Grafika_wekt5
  6
CONTINUOUS
 62
     7
 10
281.9153
 20
116.915100000000000
 11
281.9153
 21
126.109800000000010
  0
LINE
  8
PT3-Grafika_wekt5
  6
CONTINUOUS
 62
     7
 10
281.9153
 20
126.109800000000010
 11
292.2093
 21
126.109800000000010
  0
LINE
  8
PT3-Grafika_wekt5
  6
CONTINUOUS
 62
     7
 10
292.2093
 20
126.109800000000010
 11
292.2093
 21
116.615199999999990
  0
LINE
  8
PT3-Grafika_wekt5
  6
CONTINUOUS
 62
     7
 10
292.2093
 20
116.615199999999990
 11
292.0344
 21
116.615199999999990
  0
LINE
  8
PT3-Grafika_wekt5
  6
CONTINUOUS
 62
     7
 10
281.9153
 20
132.106300000000000
 11
281.9153
 21
157.091999999999980
  0
LINE
  8
PT3-Grafika_wekt5
  6
CONTINUOUS
 62
     7
 10
281.9153
 20
157.091999999999980
 11
292.2093
 21
157.091999999999980
  0
LINE
  8
PT3-Grafika_wekt5
  6
CONTINUOUS
 62
     7
 10
292.2093
 20
157.091999999999980
 11
292.2093
 21
132.106300000000000
  0
LINE
  8
PT3-Grafika_wekt5
  6
CONTINUOUS
 62
     7
 10
292.2093
 20
132.106300000000000
 11
281.9153
 21
132.106300000000000
  0
LINE
  8
PT3-Grafika_wekt5
  6
CONTINUOUS
 62
     7
 10
281.9153
 20
132.106300000000000
 11
282.2755
 21
132.106300000000000
  0
LINE
  8
PT3-Grafika_wekt5
  6
CONTINUOUS
 62
     7
 10
295.9526
 20
126.109800000000010
 11
295.9526
 21
116.915100000000000
  0
LINE
  8
PT3-Grafika_wekt5
  6
CONTINUOUS
 62
     7
 10
295.9526
 20
132.106300000000000
 11
295.9526
 21
157.091999999999980
  0
LINE
  8
PT3-Grafika_wekt5
  6
CONTINUOUS
 62
     7
 10
295.9526
 20
157.091999999999980
 11
306.2466
 21
157.091999999999980
  0
LINE
  8
PT3-Grafika_wekt5
  6
CONTINUOUS
 62
     7
 10
306.2466
 20
157.091999999999980
 11
306.2466
 21
132.106300000000000
  0
LINE
  8
PT3-Grafika_wekt5
  6
CONTINUOUS
 62
     7
 10
306.2466
 20
132.106300000000000
 11
295.9526
 21
132.106300000000000
  0
LINE
  8
PT3-Grafika_wekt5
  6
CONTINUOUS
 62
     7
 10
295.9526
 20
132.106300000000000
 11
296.3127
 21
132.106300000000000
  0
LINE
  8
PT3-Grafika_wekt5
  6
CONTINUOUS
 62
     7
 10
303.8771
 20
171.583599999999990
 11
427.6553
 21
171.583599999999990
  0
LINE
  8
PT3-Grafika_wekt5
  6
CONTINUOUS
 62
     7
 10
295.9526
 20
126.109800000000010
 11
306.2466
 21
126.109800000000010
  0
LINE
  8
PT3-Grafika_wekt5
  6
CONTINUOUS
 62
     7
 10
306.2466
 20
126.109800000000010
 11
306.2466
 21
116.615199999999990
  0
LINE
  8
PT3-Grafika_wekt5
  6
CONTINUOUS
 62
     7
 10
306.2466
 20
116.615199999999990
 11
306.0717
 21
116.615199999999990
  0
LINE
  8
PT3-Grafika_wekt5
  6
CONTINUOUS
 62
     7
 10
309.9898
 20
126.109800000000010
 11
309.9898
 21
116.915100000000000
  0
LINE
  8
PT3-Grafika_wekt5
  6
CONTINUOUS
 62
     7
 10
306.2466
 20
157.091999999999980
 11
309.9898
 21
157.091999999999980
  0
LINE
  8
PT3-Grafika_wekt5
  6
CONTINUOUS
 62
     7
 10
309.9898
 20
157.091999999999980
 11
309.9898
 21
132.106300000000000
  0
LINE
  8
PT3-Grafika_wekt5
  6
CONTINUOUS
 62
     7
 10
309.9898
 20
132.106300000000000
 11
310.35
 21
132.106300000000000
  0
LINE
  8
PT3-Grafika_wekt5
  6
CONTINUOUS
 62
     7
 10
309.9898
 20
126.109800000000010
 11
320.2838
 21
126.109800000000010
  0
LINE
  8
PT3-Grafika_wekt5
  6
CONTINUOUS
 62
     7
 10
320.2838
 20
126.109800000000010
 11
320.2838
 21
116.615199999999990
  0
LINE
  8
PT3-Grafika_wekt5
  6
CONTINUOUS
 62
     7
 10
320.2838
 20
116.615199999999990
 11
320.109
 21
116.615199999999990
  0
LINE
  8
PT3-Grafika_wekt5
  6
CONTINUOUS
 62
     7
 10
309.9898
 20
132.106300000000000
 11
320.2838
 21
132.106300000000000
  0
LINE
  8
PT3-Grafika_wekt5
  6
CONTINUOUS
 62
     7
 10
320.2838
 20
132.106300000000000
 11
320.2838
 21
157.091999999999980
  0
LINE
  8
PT3-Grafika_wekt5
  6
CONTINUOUS
 62
     7
 10
320.2838
 20
157.091999999999980
 11
309.9898
 21
157.091999999999980
  0
LINE
  8
PT3-Grafika_wekt5
  6
CONTINUOUS
 62
     7
 10
324.0271
 20
132.106300000000000
 11
324.0271
 21
157.091999999999980
  0
LINE
  8
PT3-Grafika_wekt5
  6
CONTINUOUS
 62
     7
 10
324.0271
 20
157.091999999999980
 11
334.3211
 21
157.091999999999980
  0
LINE
  8
PT3-Grafika_wekt5
  6
CONTINUOUS
 62
     7
 10
334.3211
 20
157.091999999999980
 11
334.3211
 21
132.106300000000000
  0
LINE
  8
PT3-Grafika_wekt5
  6
CONTINUOUS
 62
     7
 10
334.3211
 20
132.106300000000000
 11
324.0271
 21
132.106300000000000
  0
LINE
  8
PT3-Grafika_wekt5
  6
CONTINUOUS
 62
     7
 10
324.0271
 20
132.106300000000000
 11
324.3873
 21
132.106300000000000
  0
LINE
  8
PT3-Grafika_wekt5
  6
CONTINUOUS
 62
     7
 10
324.0271
 20
116.915100000000000
 11
324.0271
 21
126.109800000000010
  0
LINE
  8
PT3-Grafika_wekt5
  6
CONTINUOUS
 62
     7
 10
324.0271
 20
126.109800000000010
 11
334.3211
 21
126.109800000000010
  0
LINE
  8
PT3-Grafika_wekt5
  6
CONTINUOUS
 62
     7
 10
334.3211
 20
126.109800000000010
 11
334.3211
 21
116.615199999999990
  0
LINE
  8
PT3-Grafika_wekt5
  6
CONTINUOUS
 62
     7
 10
334.3211
 20
116.615199999999990
 11
334.1462
 21
116.615199999999990
  0
LINE
  8
PT3-Grafika_wekt5
  6
CONTINUOUS
 62
     7
 10
334.3211
 20
157.091999999999980
 11
338.0644
 21
157.091999999999980
  0
LINE
  8
PT3-Grafika_wekt5
  6
CONTINUOUS
 62
     7
 10
338.0644
 20
157.091999999999980
 11
338.0644
 21
132.106300000000000
  0
LINE
  8
PT3-Grafika_wekt5
  6
CONTINUOUS
 62
     7
 10
338.0644
 20
132.106300000000000
 11
338.4246
 21
132.106300000000000
  0
LINE
  8
PT3-Grafika_wekt5
  6
CONTINUOUS
 62
     7
 10
338.0644
 20
116.915100000000000
 11
338.0644
 21
126.109800000000010
  0
LINE
  8
PT3-Grafika_wekt5
  6
CONTINUOUS
 62
     7
 10
338.0644
 20
126.109800000000010
 11
348.3583
 21
126.109800000000010
  0
LINE
  8
PT3-Grafika_wekt5
  6
CONTINUOUS
 62
     7
 10
348.3583
 20
126.109800000000010
 11
348.3583
 21
116.615199999999990
  0
LINE
  8
PT3-Grafika_wekt5
  6
CONTINUOUS
 62
     7
 10
348.3583
 20
116.615199999999990
 11
348.1836
 21
116.615199999999990
  0
LINE
  8
PT3-Grafika_wekt5
  6
CONTINUOUS
 62
     7
 10
338.0644
 20
132.106300000000000
 11
348.3583
 21
132.106300000000000
  0
LINE
  8
PT3-Grafika_wekt5
  6
CONTINUOUS
 62
     7
 10
348.3583
 20
132.106300000000000
 11
348.3583
 21
157.091999999999980
  0
LINE
  8
PT3-Grafika_wekt5
  6
CONTINUOUS
 62
     7
 10
348.3583
 20
157.091999999999980
 11
338.0644
 21
157.091999999999980
  0
LINE
  8
PT3-Grafika_wekt5
  6
CONTINUOUS
 62
     7
 10
352.1016
 20
116.915100000000000
 11
352.1016
 21
126.109800000000010
  0
LINE
  8
PT3-Grafika_wekt5
  6
CONTINUOUS
 62
     7
 10
352.1016
 20
126.109800000000010
 11
362.3957
 21
126.109800000000010
  0
LINE
  8
PT3-Grafika_wekt5
  6
CONTINUOUS
 62
     7
 10
362.3957
 20
126.109800000000010
 11
362.3957
 21
116.615199999999990
  0
LINE
  8
PT3-Grafika_wekt5
  6
CONTINUOUS
 62
     7
 10
362.3957
 20
116.615199999999990
 11
362.2208
 21
116.615199999999990
  0
LINE
  8
PT3-Grafika_wekt5
  6
CONTINUOUS
 62
     7
 10
352.1016
 20
132.106300000000000
 11
352.1016
 21
157.091999999999980
  0
LINE
  8
PT3-Grafika_wekt5
  6
CONTINUOUS
 62
     7
 10
352.1016
 20
157.091999999999980
 11
362.3957
 21
157.091999999999980
  0
LINE
  8
PT3-Grafika_wekt5
  6
CONTINUOUS
 62
     7
 10
362.3957
 20
157.091999999999980
 11
362.3957
 21
132.106300000000000
  0
LINE
  8
PT3-Grafika_wekt5
  6
CONTINUOUS
 62
     7
 10
362.3957
 20
132.106300000000000
 11
352.1016
 21
132.106300000000000
  0
LINE
  8
PT3-Grafika_wekt5
  6
CONTINUOUS
 62
     7
 10
352.1016
 20
132.106300000000000
 11
352.4619
 21
132.106300000000000
  0
LINE
  8
PT3-Grafika_wekt5
  6
CONTINUOUS
 62
     7
 10
362.3957
 20
126.109800000000010
 11
366.1389
 21
126.109800000000010
  0
LINE
  8
PT3-Grafika_wekt5
  6
CONTINUOUS
 62
     7
 10
366.1389
 20
126.109800000000010
 11
366.1389
 21
116.915100000000000
  0
LINE
  8
PT3-Grafika_wekt5
  6
CONTINUOUS
 62
     7
 10
362.3957
 20
157.091999999999980
 11
366.1389
 21
157.091999999999980
  0
LINE
  8
PT3-Grafika_wekt5
  6
CONTINUOUS
 62
     7
 10
366.1389
 20
157.091999999999980
 11
366.1389
 21
132.106300000000000
  0
LINE
  8
PT3-Grafika_wekt5
  6
CONTINUOUS
 62
     7
 10
366.1389
 20
132.106300000000000
 11
366.4992
 21
132.106300000000000
  0
LINE
  8
PT3-Grafika_wekt5
  6
CONTINUOUS
 62
     7
 10
366.1389
 20
126.109800000000010
 11
376.4329
 21
126.109800000000010
  0
LINE
  8
PT3-Grafika_wekt5
  6
CONTINUOUS
 62
     7
 10
376.4329
 20
126.109800000000010
 11
376.4329
 21
116.615199999999990
  0
LINE
  8
PT3-Grafika_wekt5
  6
CONTINUOUS
 62
     7
 10
376.4329
 20
116.615199999999990
 11
376.2581
 21
116.615199999999990
  0
LINE
  8
PT3-Grafika_wekt5
  6
CONTINUOUS
 62
     7
 10
366.1389
 20
132.106300000000000
 11
376.4329
 21
132.106300000000000
  0
LINE
  8
PT3-Grafika_wekt5
  6
CONTINUOUS
 62
     7
 10
376.4329
 20
132.106300000000000
 11
376.4329
 21
157.091999999999980
  0
LINE
  8
PT3-Grafika_wekt5
  6
CONTINUOUS
 62
     7
 10
376.4329
 20
157.091999999999980
 11
366.1389
 21
157.091999999999980
  0
LINE
  8
PT3-Grafika_wekt5
  6
CONTINUOUS
 62
     7
 10
380.1762
 20
132.106300000000000
 11
380.1762
 21
157.091999999999980
  0
LINE
  8
PT3-Grafika_wekt5
  6
CONTINUOUS
 62
     7
 10
380.1762
 20
157.091999999999980
 11
390.4703
 21
157.091999999999980
  0
LINE
  8
PT3-Grafika_wekt5
  6
CONTINUOUS
 62
     7
 10
390.4703
 20
157.091999999999980
 11
390.4703
 21
132.106300000000000
  0
LINE
  8
PT3-Grafika_wekt5
  6
CONTINUOUS
 62
     7
 10
390.4703
 20
132.106300000000000
 11
380.1762
 21
132.106300000000000
  0
LINE
  8
PT3-Grafika_wekt5
  6
CONTINUOUS
 62
     7
 10
382.235
 20
114.616400000000000
 11
382.5847
 21
114.616400000000000
  0
LINE
  8
PT3-Grafika_wekt5
  6
CONTINUOUS
 62
     7
 10
390.4703
 20
157.091999999999980
 11
394.2136
 21
157.091999999999980
  0
LINE
  8
PT3-Grafika_wekt5
  6
CONTINUOUS
 62
     7
 10
394.2136
 20
157.091999999999980
 11
394.2136
 21
132.106300000000000
  0
LINE
  8
PT3-Grafika_wekt5
  6
CONTINUOUS
 62
     7
 10
394.2136
 20
132.106300000000000
 11
404.5075
 21
132.106300000000000
  0
LINE
  8
PT3-Grafika_wekt5
  6
CONTINUOUS
 62
     7
 10
404.5075
 20
132.106300000000000
 11
404.5075
 21
157.091999999999980
  0
LINE
  8
PT3-Grafika_wekt5
  6
CONTINUOUS
 62
     7
 10
404.5075
 20
157.091999999999980
 11
394.2136
 21
157.091999999999980
  0
LINE
  8
PT3-Grafika_wekt5
  6
CONTINUOUS
 62
     7
 10
394.2134
 20
116.915100000000000
 11
394.2134
 21
126.109800000000010
  0
LINE
  8
PT3-Grafika_wekt5
  6
CONTINUOUS
 62
     7
 10
394.2134
 20
126.109800000000010
 11
404.5074
 21
126.109800000000010
  0
LINE
  8
PT3-Grafika_wekt5
  6
CONTINUOUS
 62
     7
 10
404.5074
 20
126.109800000000010
 11
404.5074
 21
116.615199999999990
  0
LINE
  8
PT3-Grafika_wekt5
  6
CONTINUOUS
 62
     7
 10
404.5074
 20
116.615199999999990
 11
404.3326
 21
116.615199999999990
  0
LINE
  8
PT3-Grafika_wekt5
  6
CONTINUOUS
 62
     7
 10
404.5075
 20
157.091999999999980
 11
408.2511
 21
157.091999999999980
  0
LINE
  8
PT3-Grafika_wekt5
  6
CONTINUOUS
 62
     7
 10
408.2511
 20
157.091999999999980
 11
408.2511
 21
132.106300000000000
  0
LINE
  8
PT3-Grafika_wekt5
  6
CONTINUOUS
 62
     7
 10
408.2511
 20
132.106300000000000
 11
418.5451
 21
132.106300000000000
  0
LINE
  8
PT3-Grafika_wekt5
  6
CONTINUOUS
 62
     7
 10
418.5451
 20
132.106300000000000
 11
418.5451
 21
157.091999999999980
  0
LINE
  8
PT3-Grafika_wekt5
  6
CONTINUOUS
 62
     7
 10
418.5451
 20
157.091999999999980
 11
408.2511
 21
157.091999999999980
  0
LINE
  8
PT3-Grafika_wekt5
  6
CONTINUOUS
 62
     7
 10
408.2511
 20
116.915100000000000
 11
408.2511
 21
126.109800000000010
  0
LINE
  8
PT3-Grafika_wekt5
  6
CONTINUOUS
 62
     7
 10
408.2511
 20
126.109800000000010
 11
418.5451
 21
126.109800000000010
  0
LINE
  8
PT3-Grafika_wekt5
  6
CONTINUOUS
 62
     7
 10
418.5451
 20
126.109800000000010
 11
418.5451
 21
116.615199999999990
  0
LINE
  8
PT3-Grafika_wekt5
  6
CONTINUOUS
 62
     7
 10
418.5451
 20
116.615199999999990
 11
418.3703
 21
116.615199999999990
  0
LINE
  8
PT3-Grafika_wekt5
  6
CONTINUOUS
 62
     7
 10
422.2882
 20
132.106300000000000
 11
422.2882
 21
157.091999999999980
  0
LINE
  8
PT3-Grafika_wekt5
  6
CONTINUOUS
 62
     7
 10
422.2882
 20
157.091999999999980
 11
432.5821
 21
157.091999999999980
  0
LINE
  8
PT3-Grafika_wekt5
  6
CONTINUOUS
 62
     7
 10
432.5821
 20
157.091999999999980
 11
432.5821
 21
132.106300000000000
  0
LINE
  8
PT3-Grafika_wekt5
  6
CONTINUOUS
 62
     7
 10
432.5821
 20
132.106300000000000
 11
422.2882
 21
132.106300000000000
  0
LINE
  8
PT3-Grafika_wekt5
  6
CONTINUOUS
 62
     7
 10
422.2882
 20
116.915100000000000
 11
422.2882
 21
126.109800000000010
  0
LINE
  8
PT3-Grafika_wekt5
  6
CONTINUOUS
 62
     7
 10
422.2882
 20
126.109800000000010
 11
432.5821
 21
126.109800000000010
  0
LINE
  8
PT3-Grafika_wekt5
  6
CONTINUOUS
 62
     7
 10
432.5821
 20
126.109800000000010
 11
432.5821
 21
116.615199999999990
  0
LINE
  8
PT3-Grafika_wekt5
  6
CONTINUOUS
 62
     7
 10
432.5821
 20
116.615199999999990
 11
432.4073
 21
116.615199999999990
  0
LINE
  8
PT3-Grafika_wekt5
  6
CONTINUOUS
 62
     7
 10
436.3253
 20
132.106300000000000
 11
436.3253
 21
157.091999999999980
  0
LINE
  8
PT3-Grafika_wekt5
  6
CONTINUOUS
 62
     7
 10
436.3253
 20
157.091999999999980
 11
444.8239
 21
157.091999999999980
  0
LINE
  8
PT3-Grafika_wekt5
  6
CONTINUOUS
 62
     7
 10
435.802
 20
171.583599999999990
 11
491.1085
 21
171.583599999999990
  0
LINE
  8
PT3-Grafika_wekt5
  6
CONTINUOUS
 62
     7
 10
491.1085
 20
171.583599999999990
 11
491.1085
 21
165.819200000000000
  0
LINE
  8
PT3-Grafika_wekt5
  6
CONTINUOUS
 62
     7
 10
491.1085
 20
165.819200000000000
 11
491.1085
 21
171.593599999999980
  0
LINE
  8
PT3-Grafika_wekt5
  6
CONTINUOUS
 62
     7
 10
491.1085
 20
171.593599999999980
 11
492.4934
 21
171.593599999999980
  0
LINE
  8
PT3-Grafika_wekt5
  6
CONTINUOUS
 62
     7
 10
492.4934
 20
171.593599999999980
 11
492.4934
 21
168.239000000000000
  0
LINE
  8
PT3-Grafika_wekt5
  6
CONTINUOUS
 62
     7
 10
436.3253
 20
116.915100000000000
 11
436.3253
 21
126.109800000000010
  0
LINE
  8
PT3-Grafika_wekt5
  6
CONTINUOUS
 62
     7
 10
436.3253
 20
126.109800000000010
 11
446.6193
 21
126.109800000000010
  0
LINE
  8
PT3-Grafika_wekt5
  6
CONTINUOUS
 62
     7
 10
446.6193
 20
126.109800000000010
 11
446.6193
 21
116.615199999999990
  0
LINE
  8
PT3-Grafika_wekt5
  6
CONTINUOUS
 62
     7
 10
446.6193
 20
116.615199999999990
 11
446.4445
 21
116.615199999999990
  0
LINE
  8
PT3-Grafika_wekt5
  6
CONTINUOUS
 62
     7
 10
436.3253
 20
132.106300000000000
 11
446.6193
 21
132.106300000000000
  0
LINE
  8
PT3-Grafika_wekt5
  6
CONTINUOUS
 62
     7
 10
446.6193
 20
132.106300000000000
 11
446.6193
 21
156.616500000000000
  0
LINE
  8
PT3-Grafika_wekt5
  6
CONTINUOUS
 62
     7
 10
436.7215
 20
116.964699999999990
 11
436.7215
 21
126.109800000000010
  0
LINE
  8
PT3-Grafika_wekt5
  6
CONTINUOUS
 62
     7
 10
446.6193
 20
116.615199999999990
 11
448.0687
 21
116.615199999999990
  0
LINE
  8
PT3-Grafika_wekt5
  6
CONTINUOUS
 62
     7
 10
448.0687
 20
98.625599999999991
 11
511.7043
 21
98.625599999999991
  0
LINE
  8
PT3-Grafika_wekt5
  6
CONTINUOUS
 62
     7
 10
511.7043
 20
98.625599999999991
 11
511.7043
 21
95.914700000000011
  0
LINE
  8
PT3-Grafika_wekt5
  6
CONTINUOUS
 62
     7
 10
448.0687
 20
129.307999999999990
 11
448.0687
 21
156.154200000000000
  0
LINE
  8
PT3-Grafika_wekt5
  6
CONTINUOUS
 62
     7
 10
491.1085
 20
162.448800000000010
 11
491.1085
 21
163.839499999999990
  0
LINE
  8
PT3-Grafika_wekt5
  6
CONTINUOUS
 62
     7
 10
491.1085
 20
162.448800000000010
 11
491.1085
 21
163.839499999999990
  0
LINE
  8
PT3-Grafika_wekt5
  6
CONTINUOUS
 62
     7
 10
492.4934
 20
168.228999999999980
 11
494.1697
 21
167.826700000000020
  0
LINE
  8
PT3-Grafika_wekt5
  6
CONTINUOUS
 62
     7
 10
492.5072
 20
162.448800000000010
 11
492.5072
 21
164.261399999999980
  0
LINE
  8
PT3-Grafika_wekt5
  6
CONTINUOUS
 62
     7
 10
492.5072
 20
165.819000000000020
 11
492.5072
 21
167.306400000000000
  0
LINE
  8
PT3-Grafika_wekt5
  6
CONTINUOUS
 62
     7
 10
492.5072
 20
167.472199999999990
 11
492.5072
 21
168.225700000000020
  0
LINE
  8
PT3-Grafika_wekt5
  6
CONTINUOUS
 62
     7
 10
494.3573
 20
168.228999999999980
 11
492.4934
 21
168.228999999999980
  0
LINE
  8
PT3-Grafika_wekt5
  6
CONTINUOUS
 62
     7
 10
495.6541
 20
162.448800000000010
 11
495.6541
 21
166.550999999999990
  0
LINE
  8
PT3-Grafika_wekt5
  6
CONTINUOUS
 62
     7
 10
511.7043
 20
98.625599999999991
 11
511.7043
 21
129.307999999999990
  0
LINE
  8
PT3-Grafika_wekt5
  6
CONTINUOUS
 62
     7
 10
511.7043
 20
129.307999999999990
 11
511.7043
 21
156.687099999999990
  0
LINE
  8
PT3-Grafika_wekt5
  6
CONTINUOUS
 62
     7
 10
524.6418
 20
95.972499999999997
 11
524.6418
 21
98.625599999999991
  0
LINE
  8
PT3-Grafika_wekt5
  6
CONTINUOUS
 62
     7
 10
524.6418
 20
98.625599999999991
 11
511.7043
 21
98.625599999999991
  0
LINE
  8
PT3-Grafika_wekt5
  6
CONTINUOUS
 62
     7
 10
524.6418
 20
98.625599999999991
 11
524.6418
 21
129.307999999999990
  0
LINE
  8
PT3-Grafika_wekt5
  6
CONTINUOUS
 62
     7
 10
524.6418
 20
129.307999999999990
 11
524.6418
 21
158.974400000000000
  0
LINE
  8
PT3-Grafika_wekt5
  6
CONTINUOUS
 62
     7
 10
529.5068
 20
106.431099999999990
 11
529.5068
 21
115.388499999999990
  0
LINE
  8
PT3-Grafika_wekt5
  6
CONTINUOUS
 62
     7
 10
529.5068
 20
115.388499999999990
 11
533.6972
 21
115.388499999999990
  0
LINE
  8
PT3-Grafika_wekt5
  6
CONTINUOUS
 62
     7
 10
533.6972
 20
115.388499999999990
 11
533.6972
 21
106.432500000000000
  0
LINE
  8
PT3-Grafika_wekt5
  6
CONTINUOUS
 62
     7
 10
533.4889
 20
129.407900000000010
 11
533.4889
 21
156.693600000000000
  0
LINE
  8
PT3-Grafika_wekt5
  6
CONTINUOUS
 62
     7
 10
533.4889
 20
156.794300000000020
 11
533.4889
 21
157.474100000000020
  0
LINE
  8
PT3-Grafika_wekt5
  6
CONTINUOUS
 62
     7
 10
548.3535
 20
106.431099999999990
 11
548.3535
 21
115.388499999999990
  0
LINE
  8
PT3-Grafika_wekt5
  6
CONTINUOUS
 62
     7
 10
548.3535
 20
115.388499999999990
 11
552.5439
 21
115.388499999999990
  0
LINE
  8
PT3-Grafika_wekt5
  6
CONTINUOUS
 62
     7
 10
552.5439
 20
115.388499999999990
 11
551.4146
 21
115.388499999999990
  0
LINE
  8
PT3-Grafika_wekt5
  6
CONTINUOUS
 62
     7
 10
552.5439
 20
106.432500000000000
 11
552.5439
 21
115.388499999999990
  0
LINE
  8
PT3-Grafika_wekt5
  6
CONTINUOUS
 62
     7
 10
559.5874
 20
115.388499999999990
 11
559.5874
 21
106.431099999999990
  0
LINE
  8
PT3-Grafika_wekt5
  6
CONTINUOUS
 62
     7
 10
559.5874
 20
115.388499999999990
 11
563.7777
 21
115.388499999999990
  0
LINE
  8
PT3-Grafika_wekt5
  6
CONTINUOUS
 62
     7
 10
563.7777
 20
115.388499999999990
 11
562.6483
 21
115.388499999999990
  0
LINE
  8
PT3-Grafika_wekt5
  6
CONTINUOUS
 62
     7
 10
563.7777
 20
106.432500000000000
 11
563.7777
 21
115.388499999999990
  0
LINE
  8
PT3-Grafika_wekt5
  6
CONTINUOUS
 62
     7
 10
568.3966
 20
96.143599999999992
 11
568.3966
 21
118.574000000000010
  0
LINE
  8
PT3-Grafika_wekt5
  6
CONTINUOUS
 62
     7
 10
181.5903
 20
214.359100000000010
 11
188.2157
 21
214.359100000000010
  0
LINE
  8
PT3-Grafika_wekt5
  6
CONTINUOUS
 62
     7
 10
188.2157
 20
214.359100000000010
 11
188.2157
 21
210.054800000000000
  0
LINE
  8
PT3-Grafika_wekt5
  6
CONTINUOUS
 62
     7
 10
228.8759
 20
144.407300000000020
 11
228.8764
 21
144.407300000000020
  0
LINE
  8
PT3-Grafika_wekt5
  6
CONTINUOUS
 62
     7
 10
228.8764
 20
144.407300000000020
 11
228.8764
 21
159.048900000000000
  0
LINE
  8
PT3-Grafika_wekt5
  6
CONTINUOUS
 62
     7
 10
228.8764
 20
159.048900000000000
 11
228.8765
 21
159.048900000000000
  0
LINE
  8
PT3-Grafika_wekt5
  6
CONTINUOUS
 62
     7
 10
228.8765
 20
159.048900000000000
 11
228.8765
 21
144.407300000000020
  0
LINE
  8
PT3-Grafika_wekt5
  6
CONTINUOUS
 62
     7
 10
228.8765
 20
144.407300000000020
 11
228.8759
 21
144.407300000000020
  0
LINE
  8
PT3-Grafika_wekt5
  6
CONTINUOUS
 62
     7
 10
228.8764
 20
144.407300000000020
 11
228.8765
 21
144.407300000000020
  0
LINE
  8
PT3-Grafika_wekt5
  6
CONTINUOUS
 62
     7
 10
262.1435
 20
144.407300000000020
 11
262.144
 21
144.407300000000020
  0
LINE
  8
PT3-Grafika_wekt5
  6
CONTINUOUS
 62
     7
 10
262.144
 20
144.407300000000020
 11
262.144
 21
159.048900000000000
  0
LINE
  8
PT3-Grafika_wekt5
  6
CONTINUOUS
 62
     7
 10
262.144
 20
159.048900000000000
 11
262.1442
 21
159.048900000000000
  0
LINE
  8
PT3-Grafika_wekt5
  6
CONTINUOUS
 62
     7
 10
262.1442
 20
159.048900000000000
 11
262.1442
 21
144.407300000000020
  0
LINE
  8
PT3-Grafika_wekt5
  6
CONTINUOUS
 62
     7
 10
262.1442
 20
144.407300000000020
 11
262.1435
 21
144.407300000000020
  0
LINE
  8
PT3-Grafika_wekt5
  6
CONTINUOUS
 62
     7
 10
262.144
 20
144.407300000000020
 11
262.1442
 21
144.407300000000020
  0
LINE
  8
PT3-Grafika_wekt5
  6
CONTINUOUS
 62
     7
 10
139.5126
 20
212.915599999999980
 11
139.5126
 21
224.353299999999990
  0
LINE
  8
PT3-Grafika_wekt5
  6
CONTINUOUS
 62
     7
 10
139.5126
 20
224.353299999999990
 11
143.3089
 21
224.353299999999990
  0
LINE
  8
PT3-Grafika_wekt5
  6
CONTINUOUS
 62
     7
 10
143.3089
 20
224.353299999999990
 11
143.3089
 21
212.915599999999980
  0
LINE
  8
PT3-Grafika_wekt5
  6
CONTINUOUS
 62
     7
 10
78.6223
 20
205.053699999999990
 11
78.6223
 21
209.361899999999990
  0
LINE
  8
PT3-Grafika_wekt5
  6
CONTINUOUS
 62
     7
 10
78.6223
 20
209.361899999999990
 11
87.6135
 21
209.361899999999990
  0
LINE
  8
PT3-Grafika_wekt5
  6
CONTINUOUS
 62
     7
 10
87.6135
 20
209.361899999999990
 11
87.6135
 21
205.053699999999990
  0
LINE
  8
PT3-Grafika_wekt5
  6
CONTINUOUS
 62
     7
 10
48.8584
 20
179.079299999999990
 11
48.8584
 21
179.379099999999990
  0
LINE
  8
PT3-Grafika_wekt5
  6
CONTINUOUS
 62
     7
 10
48.8584
 20
179.379099999999990
 11
48.8604
 21
179.379099999999990
  0
LINE
  8
PT3-Grafika_wekt5
  6
CONTINUOUS
 62
     7
 10
48.8604
 20
179.379099999999990
 11
48.8604
 21
179.079299999999990
  0
LINE
  8
PT3-Grafika_wekt5
  6
CONTINUOUS
 62
     7
 10
48.8604
 20
179.079299999999990
 11
48.8584
 21
179.079299999999990
  0
LINE
  8
PT3-Grafika_wekt5
  6
CONTINUOUS
 62
     7
 10
48.8604
 20
179.079299999999990
 11
49.3569
 21
179.079299999999990
  0
LINE
  8
PT3-Grafika_wekt5
  6
CONTINUOUS
 62
     7
 10
48.8604
 20
179.379099999999990
 11
49.3569
 21
179.379099999999990
  0
LINE
  8
PT3-Grafika_wekt5
  6
CONTINUOUS
 62
     7
 10
427.6553
 20
164.938100000000020
 11
432.8023
 21
164.938199999999990
  0
LINE
  8
PT3-Grafika_wekt5
  6
CONTINUOUS
 62
     7
 10
432.8023
 20
164.938199999999990
 11
435.8099
 21
165.824600000000000
  0
LINE
  8
PT3-Grafika_wekt5
  6
CONTINUOUS
 62
     7
 10
528.2241
 20
122.981900000000000
 11
524.6418
 21
122.981900000000000
  0
LINE
  8
PT3-Grafika_wekt5
  6
CONTINUOUS
 62
     7
 10
528.2241
 20
121.564100000000000
 11
536.6467
 21
121.013900000000010
  0
LINE
  8
PT3-Grafika_wekt5
  6
CONTINUOUS
 62
     7
 10
536.6467
 20
121.013900000000010
 11
537.9754
 21
121.013900000000010
  0
LINE
  8
PT3-Grafika_wekt5
  6
CONTINUOUS
 62
     7
 10
537.9754
 20
121.942200000000010
 11
539.6057
 21
121.927100000000000
  0
LINE
  8
PT3-Grafika_wekt5
  6
CONTINUOUS
 62
     7
 10
274.9384
 20
162.127200000000020
 11
280.5542
 21
162.517699999999990
  0
LINE
  8
PT3-Grafika_wekt5
  6
CONTINUOUS
 62
     7
 10
435.1503
 20
98.625599999999991
 11
391.5932
 21
98.625599999999991
  0
LINE
  8
PT3-Grafika_wekt5
  6
CONTINUOUS
 62
     7
 10
379.0532
 20
98.625599999999991
 11
280.5577
 21
98.625599999999991
  0
LINE
  8
PT3-Grafika_wekt5
  6
CONTINUOUS
 62
     7
 10
93.3365
 20
193.900800000000000
 11
97.1329
 21
193.900800000000000
  0
LINE
  8
PT3-Grafika_wekt5
  6
CONTINUOUS
 62
     7
 10
139.5126
 20
212.915599999999980
 11
143.3089
 21
212.915599999999980
  0
LINE
  8
PT3-Grafika_wekt5
  6
CONTINUOUS
 62
     7
 10
280.5542
 20
170.146000000000020
 11
294.3654
 21
212.081400000000000
  0
LINE
  8
PT3-Grafika_wekt5
  6
CONTINUOUS
 62
     7
 10
294.3654
 20
212.081400000000000
 11
324.046
 21
175.759400000000000
  0
LINE
  8
PT3-Grafika_wekt5
  6
CONTINUOUS
 62
     7
 10
324.046
 20
175.759400000000000
 11
324.0895
 21
171.583599999999990
  0
LINE
  8
PT3-Grafika_wekt5
  6
CONTINUOUS
 62
     7
 10
277.5379
 20
170.577499999999990
 11
291.2069
 21
212.081400000000000
  0
LINE
  8
PT3-Grafika_wekt5
  6
CONTINUOUS
 62
     7
 10
291.2069
 20
212.081400000000000
 11
294.3654
 21
212.081400000000000
  0
LINE
  8
PT3-Grafika_wekt5
  6
CONTINUOUS
 62
     7
 10
277.479
 20
170.398900000000000
 11
277.5139
 21
169.051199999999990
  0
LINE
  8
PT3-Grafika_wekt5
  6
CONTINUOUS
 62
     7
 10
303.8771
 20
171.583599999999990
 11
303.8564
 21
166.087300000000000
  0
LINE
  8
PT3-Grafika_wekt5
  6
CONTINUOUS
 62
     7
 10
303.8324
 20
166.087300000000000
 11
280.5542
 21
162.517699999999990
  0
ENDSEC
  0
EOF
