  0
SECTION
  2
HEADER
  9
$ACADVER
  1
AC1004
  9
$EXTMIN
 10
0.0
 20
0.0
  9
$EXTMAX
 10
500.000000000000000
 20
270.000000000000000
  9
$LIMMIN
 10
0.0
 20
0.0
  9
$LIMMAX
 10
500.000000000000000
 20
270.000000000000000
  9
$CLAYER
  8
PT3-Grafika_wekt5
  0
ENDSEC
  0
SECTION
  2
TABLES
  0
TABLE
  2
LTYPE
 70
11
  0
LTYPE
  2
CONTINUOUS
 70
     0
  3
Solid line
 72
    65
 73
     0
 40
     0.0
  0
LTYPE
  2
GESTRICHELT
 70
     0
  3
__ __ __ __ __ __ __ __ __ __ __ __ __ __ __
 72
    65
 73
     2
 40
     0.75
 49
0.5
 49
-0.25
  0
LTYPE
  2
VERDECKT
 70
     0
  3
_ _ _ _ _ _ _ _ _ _ _ _ _ _ _ _ _ _ _ _ _ _
 72
    65
 73
     2
 40
     0.25
 49
0.125
 49
-0.125
  0
LTYPE
  2
MITTELLINIE
 70
     0
  3
____ _ ____ _ ____ _ ____ _ ____ _ ____ _ __
 72
    65
 73
     4
 40
     2.0
 49
1.25
 49
-0.25
 49
0.25
 49
-0.25
  0
LTYPE
  2
PHANTOM
 70
     0
  3
_____ _ _ _____ _ _ _____ _ _ _____ _ _ ____
 72
    65
 73
     6
 40
     2.5
 49
1.25
 49
-0.25
 49
0.25
 49
-0.25
 49
0.25
 49
-0.25
  0
LTYPE
  2
PUNKTIERT
 70
     0
  3
............................................
 72
    65
 73
     2
 40
     0.25
 49
0.0
 49
-0.25
  0
LTYPE
  2
STRICHPUNKTIERT
 70
     0
  3
__ . __ . __ . __ . __ . __ . __ . __ . __ .
 72
    65
 73
     4
 40
     1.0
 49
0.5
 49
-0.25
 49
0.0
 49
-0.25
  0
LTYPE
  2
RAND
 70
     0
  3
__ __ . __ __ . __ __ . __ __ . __ __ . __ _
 72
    65
 73
     6
 40
     1.75
 49
0.5
 49
-0.25
 49
0.5
 49
-0.25
 49
0.0
 49
-0.25
  0
LTYPE
  2
TRENNLINIE
 70
     0
  3
__ . . __ . . __ . . __ . . __ . . __ . . __
 72
    65
 73
     6
 40
     1.25
 49
0.5
 49
-0.25
 49
0.0
 49
-0.25
 49
0.0
 49
-0.25
  0
LTYPE
  2
ENG_PUNKTIERT
 70
     0
  3
Schließen
 72
    65
 73
     2
 40
     0.1
 49
0.05
 49
-0.05
  0
LTYPE
  2
CLOSE
 70
     0
  3

 72
    65
 73
     0
 40
     0.0
  0
ENDTAB
  0
TABLE
  2
LAYER
 70
   5
  0
LAYER
  2
PT1-Tabelka_rysu1
 70
     0
 62
     7
  6
CONTINUOUS
  0
LAYER
  2
PT2-Teren2
 70
     0
 62
     7
  6
CONTINUOUS
  0
LAYER
  2
PT2-Urządzenia_z3
 70
     0
 62
     7
  6
CONTINUOUS
  0
LAYER
  2
PT2-Tabelka_rysu4
 70
     0
 62
     7
  6
CONTINUOUS
  0
LAYER
  2
PT3-Grafika_wekt5
 70
     0
 62
     7
  6
CONTINUOUS
  0
ENDTAB
  0
TABLE
  2
STYLE
 70
    1
  0
STYLE
  2
STANDARD
 70
    0
 40
0.0
 41
1.0
 50
0.0
71
     0
 42
0.2
  3
txt
  4

  0
ENDTAB
  0
ENDSEC
  0
SECTION
  2
ENTITIES
  0
POLYLINE
  8
PT1-Tabelka_rysu1
  6
CONTINUOUS
 62
     7
 66
     1
 70
     1
  0
VERTEX
  8
PT1-Tabelka_rysu1
 10
491.8763
 20
7.653399999999976
  0
VERTEX
  8
PT1-Tabelka_rysu1
 10
492.9346
 20
7.653399999999976
  0
VERTEX
  8
PT1-Tabelka_rysu1
 10
492.9346
 20
68.683999999999997
  0
VERTEX
  8
PT1-Tabelka_rysu1
 10
491.8763
 20
68.683999999999997
  0
SEQEND
  8
PT1-Tabelka_rysu1
  0
LINE
  8
PT1-Tabelka_rysu1
  6
CONTINUOUS
 62
     7
 10
491.8763
 20
8.711700000000008
 11
491.8763
 21
69.742300000000000
  0
LINE
  8
PT1-Tabelka_rysu1
  6
CONTINUOUS
 62
     7
 10
491.8763
 20
69.742300000000000
 11
419.9096
 21
69.742300000000000
  0
LINE
  8
PT1-Tabelka_rysu1
  6
CONTINUOUS
 62
     7
 10
419.9096
 20
8.711700000000008
 11
419.9096
 21
69.742300000000000
  0
POLYLINE
  8
PT1-Tabelka_rysu1
  6
CONTINUOUS
 62
     7
 66
     1
 70
     1
  0
VERTEX
  8
PT1-Tabelka_rysu1
 10
420.818
 20
7.724300000000028
  0
VERTEX
  8
PT1-Tabelka_rysu1
 10
492.7847
 20
7.724300000000028
  0
VERTEX
  8
PT1-Tabelka_rysu1
 10
492.7847
 20
8.782600000000002
  0
VERTEX
  8
PT1-Tabelka_rysu1
 10
420.818
 20
8.782600000000002
  0
SEQEND
  8
PT1-Tabelka_rysu1
  0
LINE
  8
PT1-Tabelka_rysu1
  6
CONTINUOUS
 62
     7
 10
419.7597
 20
8.782500000000027
 11
491.7264
 21
8.782500000000027
  0
LINE
  8
PT1-Tabelka_rysu1
  6
CONTINUOUS
 62
     7
 10
420.4652
 20
9.488099999999974
 11
491.0208
 21
9.488099999999974
  0
LINE
  8
PT1-Tabelka_rysu1
  6
CONTINUOUS
 62
     7
 10
491.0208
 20
9.488099999999974
 11
491.0208
 21
54.643699999999995
  0
LINE
  8
PT1-Tabelka_rysu1
  6
CONTINUOUS
 62
     7
 10
491.0208
 20
54.643699999999995
 11
420.4652
 21
54.643699999999995
  0
LINE
  8
PT1-Tabelka_rysu1
  6
CONTINUOUS
 62
     7
 10
420.4652
 20
9.488099999999974
 11
420.4652
 21
54.643699999999995
  0
LINE
  8
PT1-Tabelka_rysu1
  6
CONTINUOUS
 62
     7
 10
420.4652
 20
26.421500000000009
 11
491.0208
 21
26.421500000000009
  0
TEXT
  8
PT1-Tabelka_rysu1
  6
CONTINUOUS
 62
     7
 10
421.170799999999990
 20
24.271100000000018
 40
1.797600000000000
  1
Skala:
  0
TEXT
  8
PT1-Tabelka_rysu1
  6
CONTINUOUS
 62
     7
 10
421.170799999999990
 20
24.271100000000018
 40
1.797600000000000
  1
1 : 100
  0
LINE
  8
PT1-Tabelka_rysu1
  6
CONTINUOUS
 62
     7
 10
443.7486
 20
26.421500000000009
 11
443.7486
 21
22.893699999999995
  0
TEXT
  8
PT1-Tabelka_rysu1
  6
CONTINUOUS
 62
     7
 10
444.454099999999980
 20
24.271100000000018
 40
1.797600000000000
  1
Data:
  0
TEXT
  8
PT1-Tabelka_rysu1
  6
CONTINUOUS
 62
     7
 10
444.454099999999980
 20
24.271100000000018
 40
1.797600000000000
  1
07.2004
  0
LINE
  8
PT1-Tabelka_rysu1
  6
CONTINUOUS
 62
     7
 10
467.0319
 20
26.421500000000009
 11
467.0319
 21
22.893699999999995
  0
TEXT
  8
PT1-Tabelka_rysu1
  6
CONTINUOUS
 62
     7
 10
468.037100000000010
 20
24.271100000000018
 40
1.797600000000000
  1
16-P-04/A
  0
LINE
  8
PT1-Tabelka_rysu1
  6
CONTINUOUS
 62
     7
 10
420.4652
 20
29.949199999999990
 11
491.0208
 21
29.949199999999990
  0
TEXT
  8
PT1-Tabelka_rysu1
  6
CONTINUOUS
 62
     7
 10
421.170799999999990
 20
27.798900000000003
 40
1.797600000000000
  1
Branża:  architektoniczna
  0
TEXT
  8
PT1-Tabelka_rysu1
  6
CONTINUOUS
 62
     7
 10
421.170799999999990
 20
52.140500000000003
 40
1.797600000000000
  1
Projekt: Rozbudowa Szkoły Podstawowej i Gimnazjum
  0
TEXT
  8
PT1-Tabelka_rysu1
  6
CONTINUOUS
 62
     7
 10
421.170799999999990
 20
49.444099999999992
 40
1.797600000000000
  1
              w Rzerzęczycach
  0
LINE
  8
PT1-Tabelka_rysu1
  6
CONTINUOUS
 62
     7
 10
420.4652
 20
46.529799999999994
 11
491.0208
 21
46.529799999999994
  0
TEXT
  8
PT1-Tabelka_rysu1
  6
CONTINUOUS
 62
     7
 10
421.320600000000010
 20
44.026600000000002
 40
1.797600000000000
  1
Inwestor: Urząd Gminy w Kłomnicach
  0
TEXT
  8
PT1-Tabelka_rysu1
  6
CONTINUOUS
 62
     7
 10
421.320600000000010
 20
41.330199999999991
 40
1.797600000000000
  1
                ul. Strażacka 20, 42-270 Kłomnice
  0
LINE
  8
PT1-Tabelka_rysu1
  6
CONTINUOUS
 62
     7
 10
420.4652
 20
38.415899999999993
 11
491.0208
 21
38.415899999999993
  0
TEXT
  8
PT1-Tabelka_rysu1
  6
CONTINUOUS
 62
     7
 10
421.170799999999990
 20
36.502300000000020
 40
1.797600000000000
  1
Projektował: Beata Król-Stroba UAB-VIII/83861/102/90
  0
TEXT
  8
PT1-Tabelka_rysu1
  6
CONTINUOUS
 62
     7
 10
432.812400000000030
 20
52.140500000000003
 40
1.797600000000000
  1

  0
TEXT
  8
PT1-Tabelka_rysu1
  6
CONTINUOUS
 62
     7
 10
432.812400000000030
 20
40.498900000000020
 40
1.797600000000000
  1
 
  0
LINE
  8
PT1-Tabelka_rysu1
  6
CONTINUOUS
 62
     7
 10
420.4652
 20
22.893699999999995
 11
491.0208
 21
22.893699999999995
  0
TEXT
  8
PT1-Tabelka_rysu1
  6
CONTINUOUS
 62
     7
 10
421.170799999999990
 20
20.037700000000001
 40
1.797600000000000
  1

  0
TEXT
  8
PT1-Tabelka_rysu1
  6
CONTINUOUS
 62
     7
 10
421.094200000000000
 20
33.607300000000009
 40
1.797600000000000
  1
Sprawdził: Witold Dominik   -  Decyzja Nr 65
  0
TEXT
  8
PT1-Tabelka_rysu1
  6
CONTINUOUS
 62
     7
 10
421.178400000000010
 20
30.827800000000025
 40
1.797600000000000
  1
Opracował: Michał Urbańczyk
  0
TEXT
  8
PT1-Tabelka_rysu1
  6
CONTINUOUS
 62
     7
 10
421.222300000000020
 20
20.514900000000011
 40
1.797600000000000
  1
Nazwa rysunku:
  0
TEXT
  8
PT1-Tabelka_rysu1
  6
CONTINUOUS
 62
     7
 10
421.491300000000020
 20
17.040699999999987
 40
3.000000000000000
  1
ELEWACJA TYLNA
  0
TEXT
  8
PT1-Tabelka_rysu1
  6
CONTINUOUS
 62
     7
 10
421.491300000000020
 20
12.540700000000015
 40
3.000000000000000
  1
(wschodnia)
  0
LINE
  8
PT3-Grafika_wekt5
  6
CONTINUOUS
 62
     7
 10
167.7688
 20
176.988100000000000
 11
167.7688
 21
180.276099999999990
  0
LINE
  8
PT3-Grafika_wekt5
  6
CONTINUOUS
 62
     7
 10
167.7688
 20
180.276099999999990
 11
168.533
 21
180.276099999999990
  0
LINE
  8
PT3-Grafika_wekt5
  6
CONTINUOUS
 62
     7
 10
168.533
 20
180.276099999999990
 11
168.533
 21
177.068700000000010
  0
LINE
  8
PT3-Grafika_wekt5
  6
CONTINUOUS
 62
     7
 10
168.533
 20
177.068700000000010
 11
167.7688
 21
177.068700000000010
  0
LINE
  8
PT3-Grafika_wekt5
  6
CONTINUOUS
 62
     7
 10
167.7757
 20
176.406800000000000
 11
167.7757
 21
176.988100000000000
  0
LINE
  8
PT3-Grafika_wekt5
  6
CONTINUOUS
 62
     7
 10
167.7757
 20
176.988100000000000
 11
167.7757
 21
176.431500000000000
  0
LINE
  8
PT3-Grafika_wekt5
  6
CONTINUOUS
 62
     7
 10
167.7757
 20
180.276099999999990
 11
167.7757
 21
183.396600000000010
  0
LINE
  8
PT3-Grafika_wekt5
  6
CONTINUOUS
 62
     7
 10
167.7757
 20
183.396600000000010
 11
167.8112
 21
183.396600000000010
  0
LINE
  8
PT3-Grafika_wekt5
  6
CONTINUOUS
 62
     7
 10
167.7851
 20
180.276099999999990
 11
167.7851
 21
182.986200000000000
  0
LINE
  8
PT3-Grafika_wekt5
  6
CONTINUOUS
 62
     7
 10
167.7851
 20
182.986200000000000
 11
168.4897
 21
182.986200000000000
  0
LINE
  8
PT3-Grafika_wekt5
  6
CONTINUOUS
 62
     7
 10
168.4897
 20
182.986200000000000
 11
168.4897
 21
180.276099999999990
  0
LINE
  8
PT3-Grafika_wekt5
  6
CONTINUOUS
 62
     7
 10
168.4897
 20
180.276099999999990
 11
167.7851
 21
180.276099999999990
  0
LINE
  8
PT3-Grafika_wekt5
  6
CONTINUOUS
 62
     7
 10
167.8112
 20
182.986200000000000
 11
167.8112
 21
183.649600000000020
  0
LINE
  8
PT3-Grafika_wekt5
  6
CONTINUOUS
 62
     7
 10
167.8112
 20
183.649600000000020
 11
175.5624
 21
183.649600000000020
  0
LINE
  8
PT3-Grafika_wekt5
  6
CONTINUOUS
 62
     7
 10
175.5624
 20
183.649600000000020
 11
175.5624
 21
183.136900000000000
  0
LINE
  8
PT3-Grafika_wekt5
  6
CONTINUOUS
 62
     7
 10
175.5624
 20
183.136900000000000
 11
167.8112
 21
183.136900000000000
  0
LINE
  8
PT3-Grafika_wekt5
  6
CONTINUOUS
 62
     7
 10
168.2241
 20
176.405800000000000
 11
168.2241
 21
176.989100000000010
  0
LINE
  8
PT3-Grafika_wekt5
  6
CONTINUOUS
 62
     7
 10
168.4897
 20
182.730799999999990
 11
174.8577
 21
182.730799999999990
  0
LINE
  8
PT3-Grafika_wekt5
  6
CONTINUOUS
 62
     7
 10
168.4897
 20
182.730999999999990
 11
168.6922
 21
182.730999999999990
  0
LINE
  8
PT3-Grafika_wekt5
  6
CONTINUOUS
 62
     7
 10
168.6922
 20
182.730999999999990
 11
168.6922
 21
182.751499999999990
  0
LINE
  8
PT3-Grafika_wekt5
  6
CONTINUOUS
 62
     7
 10
168.4897
 20
182.834000000000000
 11
174.8577
 21
182.834000000000000
  0
LINE
  8
PT3-Grafika_wekt5
  6
CONTINUOUS
 62
     7
 10
168.4897
 20
182.895800000000010
 11
168.4897
 21
182.986200000000000
  0
LINE
  8
PT3-Grafika_wekt5
  6
CONTINUOUS
 62
     7
 10
168.533
 20
176.989600000000000
 11
167.7688
 21
176.988100000000000
  0
LINE
  8
PT3-Grafika_wekt5
  6
CONTINUOUS
 62
     7
 10
168.533
 20
177.004099999999990
 11
168.5372
 21
177.004099999999990
  0
LINE
  8
PT3-Grafika_wekt5
  6
CONTINUOUS
 62
     7
 10
168.533
 20
177.015400000000000
 11
168.5372
 21
177.015699999999980
  0
LINE
  8
PT3-Grafika_wekt5
  6
CONTINUOUS
 62
     7
 10
168.533
 20
177.068700000000010
 11
168.533
 21
176.989600000000000
  0
LINE
  8
PT3-Grafika_wekt5
  6
CONTINUOUS
 62
     7
 10
168.533
 20
177.271799999999980
 11
168.5372
 21
177.271799999999980
  0
LINE
  8
PT3-Grafika_wekt5
  6
CONTINUOUS
 62
     7
 10
168.533
 20
177.440000000000000
 11
168.5372
 21
177.440000000000000
  0
LINE
  8
PT3-Grafika_wekt5
  6
CONTINUOUS
 62
     7
 10
168.533
 20
177.575100000000020
 11
168.6922
 21
177.575100000000020
  0
LINE
  8
PT3-Grafika_wekt5
  6
CONTINUOUS
 62
     7
 10
168.6922
 20
177.575100000000020
 11
168.6922
 21
182.730799999999990
  0
LINE
  8
PT3-Grafika_wekt5
  6
CONTINUOUS
 62
     7
 10
168.533
 20
177.576300000000000
 11
174.8001
 21
177.576300000000000
  0
LINE
  8
PT3-Grafika_wekt5
  6
CONTINUOUS
 62
     7
 10
168.533
 20
180.197100000000010
 11
168.533
 21
177.068700000000010
  0
LINE
  8
PT3-Grafika_wekt5
  6
CONTINUOUS
 62
     7
 10
168.533
 20
180.276099999999990
 11
168.533
 21
180.197100000000010
  0
LINE
  8
PT3-Grafika_wekt5
  6
CONTINUOUS
 62
     7
 10
168.5372
 20
176.965100000000010
 11
168.5372
 21
177.574000000000010
  0
LINE
  8
PT3-Grafika_wekt5
  6
CONTINUOUS
 62
     7
 10
168.5372
 20
177.574000000000010
 11
174.7992
 21
177.574000000000010
  0
LINE
  8
PT3-Grafika_wekt5
  6
CONTINUOUS
 62
     7
 10
174.7992
 20
177.574000000000010
 11
174.7992
 21
177.057300000000000
  0
LINE
  8
PT3-Grafika_wekt5
  6
CONTINUOUS
 62
     7
 10
174.7992
 20
177.057300000000000
 11
168.5372
 21
177.057300000000000
  0
LINE
  8
PT3-Grafika_wekt5
  6
CONTINUOUS
 62
     7
 10
174.6552
 20
177.575100000000020
 11
174.6552
 21
182.730799999999990
  0
LINE
  8
PT3-Grafika_wekt5
  6
CONTINUOUS
 62
     7
 10
174.6552
 20
182.730999999999990
 11
174.6552
 21
182.817000000000010
  0
LINE
  8
PT3-Grafika_wekt5
  6
CONTINUOUS
 62
     7
 10
174.7992
 20
176.965100000000010
 11
168.5372
 21
176.965100000000010
  0
LINE
  8
PT3-Grafika_wekt5
  6
CONTINUOUS
 62
     7
 10
174.7992
 20
177.004099999999990
 11
174.8001
 21
177.004099999999990
  0
LINE
  8
PT3-Grafika_wekt5
  6
CONTINUOUS
 62
     7
 10
174.7992
 20
177.057300000000000
 11
174.7992
 21
176.965100000000010
  0
LINE
  8
PT3-Grafika_wekt5
  6
CONTINUOUS
 62
     7
 10
174.7992
 20
177.246199999999990
 11
174.7992
 21
177.256300000000010
  0
LINE
  8
PT3-Grafika_wekt5
  6
CONTINUOUS
 62
     7
 10
174.7992
 20
177.271799999999980
 11
174.8001
 21
177.271799999999980
  0
LINE
  8
PT3-Grafika_wekt5
  6
CONTINUOUS
 62
     7
 10
174.7992
 20
177.440000000000000
 11
174.8001
 21
177.440000000000000
  0
LINE
  8
PT3-Grafika_wekt5
  6
CONTINUOUS
 62
     7
 10
174.7992
 20
177.497300000000000
 11
174.7992
 21
177.574000000000010
  0
LINE
  8
PT3-Grafika_wekt5
  6
CONTINUOUS
 62
     7
 10
174.8001
 20
176.988100000000000
 11
174.8001
 21
180.276099999999990
  0
LINE
  8
PT3-Grafika_wekt5
  6
CONTINUOUS
 62
     7
 10
174.8001
 20
180.276099999999990
 11
175.5643
 21
180.276099999999990
  0
LINE
  8
PT3-Grafika_wekt5
  6
CONTINUOUS
 62
     7
 10
175.5643
 20
180.276099999999990
 11
175.5643
 21
177.068700000000010
  0
LINE
  8
PT3-Grafika_wekt5
  6
CONTINUOUS
 62
     7
 10
175.5643
 20
177.068700000000010
 11
174.8001
 21
177.068700000000010
  0
LINE
  8
PT3-Grafika_wekt5
  6
CONTINUOUS
 62
     7
 10
174.8001
 20
177.246300000000020
 11
174.7992
 21
177.246199999999990
  0
LINE
  8
PT3-Grafika_wekt5
  6
CONTINUOUS
 62
     7
 10
174.8001
 20
177.575100000000020
 11
174.6552
 21
177.575100000000020
  0
LINE
  8
PT3-Grafika_wekt5
  6
CONTINUOUS
 62
     7
 10
174.8577
 20
180.276099999999990
 11
174.8577
 21
182.986200000000000
  0
LINE
  8
PT3-Grafika_wekt5
  6
CONTINUOUS
 62
     7
 10
174.8577
 20
182.986200000000000
 11
175.5624
 21
182.986200000000000
  0
LINE
  8
PT3-Grafika_wekt5
  6
CONTINUOUS
 62
     7
 10
175.5624
 20
182.986200000000000
 11
175.5624
 21
180.276099999999990
  0
LINE
  8
PT3-Grafika_wekt5
  6
CONTINUOUS
 62
     7
 10
175.5624
 20
180.276099999999990
 11
174.8577
 21
180.276099999999990
  0
LINE
  8
PT3-Grafika_wekt5
  6
CONTINUOUS
 62
     7
 10
174.8577
 20
182.730999999999990
 11
174.6552
 21
182.730999999999990
  0
LINE
  8
PT3-Grafika_wekt5
  6
CONTINUOUS
 62
     7
 10
174.8589
 20
182.986200000000000
 11
174.8589
 21
183.023900000000000
  0
LINE
  8
PT3-Grafika_wekt5
  6
CONTINUOUS
 62
     7
 10
175.1159
 20
176.405800000000000
 11
175.1159
 21
176.988699999999990
  0
LINE
  8
PT3-Grafika_wekt5
  6
CONTINUOUS
 62
     7
 10
175.5624
 20
182.895800000000010
 11
175.5624
 21
182.986200000000000
  0
LINE
  8
PT3-Grafika_wekt5
  6
CONTINUOUS
 62
     7
 10
175.5624
 20
183.136900000000000
 11
175.5624
 21
182.895800000000010
  0
LINE
  8
PT3-Grafika_wekt5
  6
CONTINUOUS
 62
     7
 10
175.5624
 20
183.396600000000010
 11
175.5624
 21
183.649600000000020
  0
LINE
  8
PT3-Grafika_wekt5
  6
CONTINUOUS
 62
     7
 10
175.5643
 20
176.989600000000000
 11
174.8001
 21
176.988100000000000
  0
LINE
  8
PT3-Grafika_wekt5
  6
CONTINUOUS
 62
     7
 10
175.5643
 20
177.005200000000000
 11
175.5718
 21
177.005200000000000
  0
LINE
  8
PT3-Grafika_wekt5
  6
CONTINUOUS
 62
     7
 10
175.5718
 20
177.005200000000000
 11
175.5718
 21
176.406800000000000
  0
LINE
  8
PT3-Grafika_wekt5
  6
CONTINUOUS
 62
     7
 10
175.5643
 20
177.068700000000010
 11
175.5643
 21
176.989600000000000
  0
LINE
  8
PT3-Grafika_wekt5
  6
CONTINUOUS
 62
     7
 10
175.5718
 20
177.005200000000000
 11
175.5718
 21
183.396600000000010
  0
LINE
  8
PT3-Grafika_wekt5
  6
CONTINUOUS
 62
     7
 10
175.5718
 20
183.396600000000010
 11
175.5624
 21
183.396600000000010
  0
LINE
  8
PT3-Grafika_wekt5
  6
CONTINUOUS
 62
     7
 10
179.0931
 20
183.612200000000000
 11
179.0931
 21
184.212699999999980
  0
LINE
  8
PT3-Grafika_wekt5
  6
CONTINUOUS
 62
     7
 10
179.0931
 20
184.212699999999980
 11
199.1008
 21
197.211000000000010
  0
LINE
  8
PT3-Grafika_wekt5
  6
CONTINUOUS
 62
     7
 10
199.1008
 20
197.211000000000010
 11
199.1008
 21
196.610500000000000
  0
LINE
  8
PT3-Grafika_wekt5
  6
CONTINUOUS
 62
     7
 10
199.1008
 20
196.610500000000000
 11
179.0931
 21
183.612200000000000
  0
LINE
  8
PT3-Grafika_wekt5
  6
CONTINUOUS
 62
     7
 10
199.1008
 20
196.610500000000000
 11
219.1085
 21
183.612200000000000
  0
LINE
  8
PT3-Grafika_wekt5
  6
CONTINUOUS
 62
     7
 10
219.1085
 20
183.612200000000000
 11
219.1085
 21
184.212699999999980
  0
LINE
  8
PT3-Grafika_wekt5
  6
CONTINUOUS
 62
     7
 10
219.1085
 20
184.212699999999980
 11
199.1008
 21
197.211000000000010
  0
LINE
  8
PT3-Grafika_wekt5
  6
CONTINUOUS
 62
     7
 10
131.755
 20
176.988100000000000
 11
131.755
 21
180.276099999999990
  0
LINE
  8
PT3-Grafika_wekt5
  6
CONTINUOUS
 62
     7
 10
131.755
 20
180.276099999999990
 11
132.5192
 21
180.276099999999990
  0
LINE
  8
PT3-Grafika_wekt5
  6
CONTINUOUS
 62
     7
 10
132.5192
 20
180.276099999999990
 11
132.5192
 21
177.068700000000010
  0
LINE
  8
PT3-Grafika_wekt5
  6
CONTINUOUS
 62
     7
 10
132.5192
 20
177.068700000000010
 11
131.755
 21
177.068700000000010
  0
LINE
  8
PT3-Grafika_wekt5
  6
CONTINUOUS
 62
     7
 10
131.7619
 20
176.406800000000000
 11
131.7619
 21
176.988100000000000
  0
LINE
  8
PT3-Grafika_wekt5
  6
CONTINUOUS
 62
     7
 10
131.7619
 20
180.276099999999990
 11
131.7619
 21
183.396600000000010
  0
LINE
  8
PT3-Grafika_wekt5
  6
CONTINUOUS
 62
     7
 10
131.7619
 20
183.396600000000010
 11
131.7974
 21
183.396600000000010
  0
LINE
  8
PT3-Grafika_wekt5
  6
CONTINUOUS
 62
     7
 10
131.7713
 20
180.276099999999990
 11
131.7713
 21
182.986200000000000
  0
LINE
  8
PT3-Grafika_wekt5
  6
CONTINUOUS
 62
     7
 10
131.7713
 20
182.986200000000000
 11
132.4759
 21
182.986200000000000
  0
LINE
  8
PT3-Grafika_wekt5
  6
CONTINUOUS
 62
     7
 10
132.4759
 20
182.986200000000000
 11
132.4759
 21
180.276099999999990
  0
LINE
  8
PT3-Grafika_wekt5
  6
CONTINUOUS
 62
     7
 10
132.4759
 20
180.276099999999990
 11
131.7713
 21
180.276099999999990
  0
LINE
  8
PT3-Grafika_wekt5
  6
CONTINUOUS
 62
     7
 10
131.7974
 20
182.986200000000000
 11
131.7974
 21
183.649600000000020
  0
LINE
  8
PT3-Grafika_wekt5
  6
CONTINUOUS
 62
     7
 10
131.7974
 20
183.649600000000020
 11
139.5486
 21
183.649600000000020
  0
LINE
  8
PT3-Grafika_wekt5
  6
CONTINUOUS
 62
     7
 10
139.5486
 20
183.649600000000020
 11
139.5486
 21
183.136900000000000
  0
LINE
  8
PT3-Grafika_wekt5
  6
CONTINUOUS
 62
     7
 10
139.5486
 20
183.136900000000000
 11
131.7974
 21
183.136900000000000
  0
LINE
  8
PT3-Grafika_wekt5
  6
CONTINUOUS
 62
     7
 10
132.2103
 20
176.405800000000000
 11
132.2103
 21
176.989100000000010
  0
LINE
  8
PT3-Grafika_wekt5
  6
CONTINUOUS
 62
     7
 10
132.4759
 20
182.730799999999990
 11
138.844
 21
182.730799999999990
  0
LINE
  8
PT3-Grafika_wekt5
  6
CONTINUOUS
 62
     7
 10
132.4759
 20
182.730999999999990
 11
132.6784
 21
182.730999999999990
  0
LINE
  8
PT3-Grafika_wekt5
  6
CONTINUOUS
 62
     7
 10
132.6784
 20
182.730999999999990
 11
132.6784
 21
177.575100000000020
  0
LINE
  8
PT3-Grafika_wekt5
  6
CONTINUOUS
 62
     7
 10
132.6784
 20
177.575100000000020
 11
132.5192
 21
177.575100000000020
  0
LINE
  8
PT3-Grafika_wekt5
  6
CONTINUOUS
 62
     7
 10
132.4759
 20
182.834000000000000
 11
138.844
 21
182.834000000000000
  0
LINE
  8
PT3-Grafika_wekt5
  6
CONTINUOUS
 62
     7
 10
132.4759
 20
182.895800000000010
 11
132.4759
 21
182.986200000000000
  0
LINE
  8
PT3-Grafika_wekt5
  6
CONTINUOUS
 62
     7
 10
132.5192
 20
176.989600000000000
 11
131.755
 21
176.988100000000000
  0
LINE
  8
PT3-Grafika_wekt5
  6
CONTINUOUS
 62
     7
 10
132.5192
 20
177.004099999999990
 11
132.5234
 21
177.004099999999990
  0
LINE
  8
PT3-Grafika_wekt5
  6
CONTINUOUS
 62
     7
 10
132.5192
 20
177.015400000000000
 11
132.5234
 21
177.015699999999980
  0
LINE
  8
PT3-Grafika_wekt5
  6
CONTINUOUS
 62
     7
 10
132.5192
 20
177.068700000000010
 11
132.5192
 21
176.989600000000000
  0
LINE
  8
PT3-Grafika_wekt5
  6
CONTINUOUS
 62
     7
 10
132.5192
 20
177.271799999999980
 11
132.5234
 21
177.271799999999980
  0
LINE
  8
PT3-Grafika_wekt5
  6
CONTINUOUS
 62
     7
 10
132.5192
 20
177.440000000000000
 11
132.5234
 21
177.440000000000000
  0
LINE
  8
PT3-Grafika_wekt5
  6
CONTINUOUS
 62
     7
 10
132.5192
 20
177.576300000000000
 11
138.7863
 21
177.576300000000000
  0
LINE
  8
PT3-Grafika_wekt5
  6
CONTINUOUS
 62
     7
 10
132.5192
 20
180.197100000000010
 11
132.5192
 21
177.068700000000010
  0
LINE
  8
PT3-Grafika_wekt5
  6
CONTINUOUS
 62
     7
 10
132.5192
 20
180.276099999999990
 11
132.5192
 21
180.197100000000010
  0
LINE
  8
PT3-Grafika_wekt5
  6
CONTINUOUS
 62
     7
 10
132.5234
 20
176.965100000000010
 11
132.5234
 21
177.574000000000010
  0
LINE
  8
PT3-Grafika_wekt5
  6
CONTINUOUS
 62
     7
 10
132.5234
 20
177.574000000000010
 11
138.7854
 21
177.574000000000010
  0
LINE
  8
PT3-Grafika_wekt5
  6
CONTINUOUS
 62
     7
 10
138.7854
 20
177.574000000000010
 11
138.7854
 21
177.057300000000000
  0
LINE
  8
PT3-Grafika_wekt5
  6
CONTINUOUS
 62
     7
 10
138.7854
 20
177.057300000000000
 11
132.5234
 21
177.057300000000000
  0
LINE
  8
PT3-Grafika_wekt5
  6
CONTINUOUS
 62
     7
 10
138.6414
 20
177.575100000000020
 11
138.6414
 21
182.730999999999990
  0
LINE
  8
PT3-Grafika_wekt5
  6
CONTINUOUS
 62
     7
 10
138.6414
 20
182.730999999999990
 11
138.844
 21
182.730999999999990
  0
LINE
  8
PT3-Grafika_wekt5
  6
CONTINUOUS
 62
     7
 10
138.7854
 20
176.965100000000010
 11
132.5234
 21
176.965100000000010
  0
LINE
  8
PT3-Grafika_wekt5
  6
CONTINUOUS
 62
     7
 10
138.7854
 20
177.004099999999990
 11
138.7863
 21
177.004099999999990
  0
LINE
  8
PT3-Grafika_wekt5
  6
CONTINUOUS
 62
     7
 10
138.7854
 20
177.057300000000000
 11
138.7854
 21
176.965100000000010
  0
LINE
  8
PT3-Grafika_wekt5
  6
CONTINUOUS
 62
     7
 10
138.7854
 20
177.246199999999990
 11
138.7854
 21
177.256300000000010
  0
LINE
  8
PT3-Grafika_wekt5
  6
CONTINUOUS
 62
     7
 10
138.7854
 20
177.271799999999980
 11
138.7863
 21
177.271799999999980
  0
LINE
  8
PT3-Grafika_wekt5
  6
CONTINUOUS
 62
     7
 10
138.7854
 20
177.440000000000000
 11
138.7863
 21
177.440000000000000
  0
LINE
  8
PT3-Grafika_wekt5
  6
CONTINUOUS
 62
     7
 10
138.7854
 20
177.497300000000000
 11
138.7854
 21
177.574000000000010
  0
LINE
  8
PT3-Grafika_wekt5
  6
CONTINUOUS
 62
     7
 10
138.7863
 20
176.988100000000000
 11
138.7863
 21
180.276099999999990
  0
LINE
  8
PT3-Grafika_wekt5
  6
CONTINUOUS
 62
     7
 10
138.7863
 20
180.276099999999990
 11
139.5505
 21
180.276099999999990
  0
LINE
  8
PT3-Grafika_wekt5
  6
CONTINUOUS
 62
     7
 10
139.5505
 20
180.276099999999990
 11
139.5505
 21
177.068700000000010
  0
LINE
  8
PT3-Grafika_wekt5
  6
CONTINUOUS
 62
     7
 10
139.5505
 20
177.068700000000010
 11
138.7863
 21
177.068700000000010
  0
LINE
  8
PT3-Grafika_wekt5
  6
CONTINUOUS
 62
     7
 10
138.7863
 20
177.246300000000020
 11
138.7854
 21
177.246199999999990
  0
LINE
  8
PT3-Grafika_wekt5
  6
CONTINUOUS
 62
     7
 10
138.7863
 20
177.575100000000020
 11
138.6414
 21
177.575100000000020
  0
LINE
  8
PT3-Grafika_wekt5
  6
CONTINUOUS
 62
     7
 10
138.844
 20
180.276099999999990
 11
138.844
 21
182.986200000000000
  0
LINE
  8
PT3-Grafika_wekt5
  6
CONTINUOUS
 62
     7
 10
138.844
 20
182.986200000000000
 11
139.5486
 21
182.986200000000000
  0
LINE
  8
PT3-Grafika_wekt5
  6
CONTINUOUS
 62
     7
 10
139.5486
 20
182.986200000000000
 11
139.5486
 21
180.276099999999990
  0
LINE
  8
PT3-Grafika_wekt5
  6
CONTINUOUS
 62
     7
 10
139.5486
 20
180.276099999999990
 11
138.844
 21
180.276099999999990
  0
LINE
  8
PT3-Grafika_wekt5
  6
CONTINUOUS
 62
     7
 10
139.1021
 20
176.405800000000000
 11
139.1021
 21
176.988699999999990
  0
LINE
  8
PT3-Grafika_wekt5
  6
CONTINUOUS
 62
     7
 10
139.5486
 20
182.895800000000010
 11
139.5486
 21
182.986200000000000
  0
LINE
  8
PT3-Grafika_wekt5
  6
CONTINUOUS
 62
     7
 10
139.5486
 20
183.136900000000000
 11
139.5486
 21
182.895800000000010
  0
LINE
  8
PT3-Grafika_wekt5
  6
CONTINUOUS
 62
     7
 10
139.5486
 20
183.396600000000010
 11
139.5486
 21
183.649600000000020
  0
LINE
  8
PT3-Grafika_wekt5
  6
CONTINUOUS
 62
     7
 10
139.5505
 20
176.989600000000000
 11
138.7863
 21
176.988100000000000
  0
LINE
  8
PT3-Grafika_wekt5
  6
CONTINUOUS
 62
     7
 10
139.5505
 20
177.005200000000000
 11
139.558
 21
177.005200000000000
  0
LINE
  8
PT3-Grafika_wekt5
  6
CONTINUOUS
 62
     7
 10
139.558
 20
177.005200000000000
 11
139.558
 21
176.406800000000000
  0
LINE
  8
PT3-Grafika_wekt5
  6
CONTINUOUS
 62
     7
 10
139.5505
 20
177.068700000000010
 11
139.5505
 21
176.989600000000000
  0
LINE
  8
PT3-Grafika_wekt5
  6
CONTINUOUS
 62
     7
 10
139.558
 20
177.005200000000000
 11
139.558
 21
183.396600000000010
  0
LINE
  8
PT3-Grafika_wekt5
  6
CONTINUOUS
 62
     7
 10
139.558
 20
183.396600000000010
 11
139.5486
 21
183.396600000000010
  0
LINE
  8
PT3-Grafika_wekt5
  6
CONTINUOUS
 62
     7
 10
149.7619
 20
176.988100000000000
 11
149.7619
 21
180.276099999999990
  0
LINE
  8
PT3-Grafika_wekt5
  6
CONTINUOUS
 62
     7
 10
149.7619
 20
180.276099999999990
 11
150.5261
 21
180.276099999999990
  0
LINE
  8
PT3-Grafika_wekt5
  6
CONTINUOUS
 62
     7
 10
150.5261
 20
180.276099999999990
 11
150.5261
 21
177.068700000000010
  0
LINE
  8
PT3-Grafika_wekt5
  6
CONTINUOUS
 62
     7
 10
150.5261
 20
177.068700000000010
 11
149.7619
 21
177.068700000000010
  0
LINE
  8
PT3-Grafika_wekt5
  6
CONTINUOUS
 62
     7
 10
149.7688
 20
176.406800000000000
 11
149.7688
 21
176.988100000000000
  0
LINE
  8
PT3-Grafika_wekt5
  6
CONTINUOUS
 62
     7
 10
149.7688
 20
176.988100000000000
 11
149.7688
 21
176.431500000000000
  0
LINE
  8
PT3-Grafika_wekt5
  6
CONTINUOUS
 62
     7
 10
149.7688
 20
180.276099999999990
 11
149.7688
 21
183.396600000000010
  0
LINE
  8
PT3-Grafika_wekt5
  6
CONTINUOUS
 62
     7
 10
149.7688
 20
183.396600000000010
 11
149.8043
 21
183.396600000000010
  0
LINE
  8
PT3-Grafika_wekt5
  6
CONTINUOUS
 62
     7
 10
149.7782
 20
180.276099999999990
 11
149.7782
 21
182.986200000000000
  0
LINE
  8
PT3-Grafika_wekt5
  6
CONTINUOUS
 62
     7
 10
149.7782
 20
182.986200000000000
 11
150.4828
 21
182.986200000000000
  0
LINE
  8
PT3-Grafika_wekt5
  6
CONTINUOUS
 62
     7
 10
150.4828
 20
182.986200000000000
 11
150.4828
 21
180.276099999999990
  0
LINE
  8
PT3-Grafika_wekt5
  6
CONTINUOUS
 62
     7
 10
150.4828
 20
180.276099999999990
 11
149.7782
 21
180.276099999999990
  0
LINE
  8
PT3-Grafika_wekt5
  6
CONTINUOUS
 62
     7
 10
149.8043
 20
182.986200000000000
 11
149.8043
 21
183.649600000000020
  0
LINE
  8
PT3-Grafika_wekt5
  6
CONTINUOUS
 62
     7
 10
149.8043
 20
183.649600000000020
 11
157.5555
 21
183.649600000000020
  0
LINE
  8
PT3-Grafika_wekt5
  6
CONTINUOUS
 62
     7
 10
157.5555
 20
183.649600000000020
 11
157.5555
 21
183.136900000000000
  0
LINE
  8
PT3-Grafika_wekt5
  6
CONTINUOUS
 62
     7
 10
157.5555
 20
183.136900000000000
 11
149.8043
 21
183.136900000000000
  0
LINE
  8
PT3-Grafika_wekt5
  6
CONTINUOUS
 62
     7
 10
150.2172
 20
176.405800000000000
 11
150.2172
 21
176.989100000000010
  0
LINE
  8
PT3-Grafika_wekt5
  6
CONTINUOUS
 62
     7
 10
150.4828
 20
182.730799999999990
 11
156.8509
 21
182.730799999999990
  0
LINE
  8
PT3-Grafika_wekt5
  6
CONTINUOUS
 62
     7
 10
150.4828
 20
182.730999999999990
 11
150.6853
 21
182.730999999999990
  0
LINE
  8
PT3-Grafika_wekt5
  6
CONTINUOUS
 62
     7
 10
150.6853
 20
182.730999999999990
 11
150.6853
 21
182.751499999999990
  0
LINE
  8
PT3-Grafika_wekt5
  6
CONTINUOUS
 62
     7
 10
150.4828
 20
182.834000000000000
 11
156.8509
 21
182.834000000000000
  0
LINE
  8
PT3-Grafika_wekt5
  6
CONTINUOUS
 62
     7
 10
150.4828
 20
182.895800000000010
 11
150.4828
 21
182.986200000000000
  0
LINE
  8
PT3-Grafika_wekt5
  6
CONTINUOUS
 62
     7
 10
150.5261
 20
176.989600000000000
 11
149.7619
 21
176.988100000000000
  0
LINE
  8
PT3-Grafika_wekt5
  6
CONTINUOUS
 62
     7
 10
150.5261
 20
177.004099999999990
 11
150.5303
 21
177.004099999999990
  0
LINE
  8
PT3-Grafika_wekt5
  6
CONTINUOUS
 62
     7
 10
150.5261
 20
177.015400000000000
 11
150.5303
 21
177.015699999999980
  0
LINE
  8
PT3-Grafika_wekt5
  6
CONTINUOUS
 62
     7
 10
150.5261
 20
177.068700000000010
 11
150.5261
 21
176.989600000000000
  0
LINE
  8
PT3-Grafika_wekt5
  6
CONTINUOUS
 62
     7
 10
150.5261
 20
177.271799999999980
 11
150.5303
 21
177.271799999999980
  0
LINE
  8
PT3-Grafika_wekt5
  6
CONTINUOUS
 62
     7
 10
150.5261
 20
177.440000000000000
 11
150.5303
 21
177.440000000000000
  0
LINE
  8
PT3-Grafika_wekt5
  6
CONTINUOUS
 62
     7
 10
150.5261
 20
177.575100000000020
 11
150.6853
 21
177.575100000000020
  0
LINE
  8
PT3-Grafika_wekt5
  6
CONTINUOUS
 62
     7
 10
150.6853
 20
177.575100000000020
 11
150.6853
 21
182.730799999999990
  0
LINE
  8
PT3-Grafika_wekt5
  6
CONTINUOUS
 62
     7
 10
150.5261
 20
177.576300000000000
 11
156.7932
 21
177.576300000000000
  0
LINE
  8
PT3-Grafika_wekt5
  6
CONTINUOUS
 62
     7
 10
150.5261
 20
180.197100000000010
 11
150.5261
 21
177.068700000000010
  0
LINE
  8
PT3-Grafika_wekt5
  6
CONTINUOUS
 62
     7
 10
150.5261
 20
180.276099999999990
 11
150.5261
 21
180.197100000000010
  0
LINE
  8
PT3-Grafika_wekt5
  6
CONTINUOUS
 62
     7
 10
150.5303
 20
176.965100000000010
 11
150.5303
 21
177.574000000000010
  0
LINE
  8
PT3-Grafika_wekt5
  6
CONTINUOUS
 62
     7
 10
150.5303
 20
177.574000000000010
 11
156.7923
 21
177.574000000000010
  0
LINE
  8
PT3-Grafika_wekt5
  6
CONTINUOUS
 62
     7
 10
156.7923
 20
177.574000000000010
 11
156.7923
 21
177.057300000000000
  0
LINE
  8
PT3-Grafika_wekt5
  6
CONTINUOUS
 62
     7
 10
156.7923
 20
177.057300000000000
 11
150.5303
 21
177.057300000000000
  0
LINE
  8
PT3-Grafika_wekt5
  6
CONTINUOUS
 62
     7
 10
156.6484
 20
177.575100000000020
 11
156.6484
 21
182.730799999999990
  0
LINE
  8
PT3-Grafika_wekt5
  6
CONTINUOUS
 62
     7
 10
156.6484
 20
182.730999999999990
 11
156.6484
 21
182.817000000000010
  0
LINE
  8
PT3-Grafika_wekt5
  6
CONTINUOUS
 62
     7
 10
156.7923
 20
176.965100000000010
 11
150.5303
 21
176.965100000000010
  0
LINE
  8
PT3-Grafika_wekt5
  6
CONTINUOUS
 62
     7
 10
156.7923
 20
177.004099999999990
 11
156.7932
 21
177.004099999999990
  0
LINE
  8
PT3-Grafika_wekt5
  6
CONTINUOUS
 62
     7
 10
156.7923
 20
177.057300000000000
 11
156.7923
 21
176.965100000000010
  0
LINE
  8
PT3-Grafika_wekt5
  6
CONTINUOUS
 62
     7
 10
156.7923
 20
177.246199999999990
 11
156.7923
 21
177.256300000000010
  0
LINE
  8
PT3-Grafika_wekt5
  6
CONTINUOUS
 62
     7
 10
156.7923
 20
177.271799999999980
 11
156.7932
 21
177.271799999999980
  0
LINE
  8
PT3-Grafika_wekt5
  6
CONTINUOUS
 62
     7
 10
156.7923
 20
177.440000000000000
 11
156.7932
 21
177.440000000000000
  0
LINE
  8
PT3-Grafika_wekt5
  6
CONTINUOUS
 62
     7
 10
156.7923
 20
177.497300000000000
 11
156.7923
 21
177.574000000000010
  0
LINE
  8
PT3-Grafika_wekt5
  6
CONTINUOUS
 62
     7
 10
156.7932
 20
176.988100000000000
 11
156.7932
 21
180.276099999999990
  0
LINE
  8
PT3-Grafika_wekt5
  6
CONTINUOUS
 62
     7
 10
156.7932
 20
180.276099999999990
 11
157.5574
 21
180.276099999999990
  0
LINE
  8
PT3-Grafika_wekt5
  6
CONTINUOUS
 62
     7
 10
157.5574
 20
180.276099999999990
 11
157.5574
 21
177.068700000000010
  0
LINE
  8
PT3-Grafika_wekt5
  6
CONTINUOUS
 62
     7
 10
157.5574
 20
177.068700000000010
 11
156.7932
 21
177.068700000000010
  0
LINE
  8
PT3-Grafika_wekt5
  6
CONTINUOUS
 62
     7
 10
156.7932
 20
177.246300000000020
 11
156.7923
 21
177.246199999999990
  0
LINE
  8
PT3-Grafika_wekt5
  6
CONTINUOUS
 62
     7
 10
156.7932
 20
177.575100000000020
 11
156.6484
 21
177.575100000000020
  0
LINE
  8
PT3-Grafika_wekt5
  6
CONTINUOUS
 62
     7
 10
156.8509
 20
180.276099999999990
 11
156.8509
 21
182.986200000000000
  0
LINE
  8
PT3-Grafika_wekt5
  6
CONTINUOUS
 62
     7
 10
156.8509
 20
182.986200000000000
 11
157.5555
 21
182.986200000000000
  0
LINE
  8
PT3-Grafika_wekt5
  6
CONTINUOUS
 62
     7
 10
157.5555
 20
182.986200000000000
 11
157.5555
 21
180.276099999999990
  0
LINE
  8
PT3-Grafika_wekt5
  6
CONTINUOUS
 62
     7
 10
157.5555
 20
180.276099999999990
 11
156.8509
 21
180.276099999999990
  0
LINE
  8
PT3-Grafika_wekt5
  6
CONTINUOUS
 62
     7
 10
156.8509
 20
182.730999999999990
 11
156.6484
 21
182.730999999999990
  0
LINE
  8
PT3-Grafika_wekt5
  6
CONTINUOUS
 62
     7
 10
156.852
 20
182.986200000000000
 11
156.852
 21
183.023900000000000
  0
LINE
  8
PT3-Grafika_wekt5
  6
CONTINUOUS
 62
     7
 10
157.109
 20
176.405800000000000
 11
157.109
 21
176.988699999999990
  0
LINE
  8
PT3-Grafika_wekt5
  6
CONTINUOUS
 62
     7
 10
157.109
 20
182.986200000000000
 11
157.109
 21
183.035300000000010
  0
LINE
  8
PT3-Grafika_wekt5
  6
CONTINUOUS
 62
     7
 10
157.5555
 20
182.895800000000010
 11
157.5555
 21
182.986200000000000
  0
LINE
  8
PT3-Grafika_wekt5
  6
CONTINUOUS
 62
     7
 10
157.5555
 20
183.136900000000000
 11
157.5555
 21
182.895800000000010
  0
LINE
  8
PT3-Grafika_wekt5
  6
CONTINUOUS
 62
     7
 10
157.5555
 20
183.396600000000010
 11
157.5555
 21
183.649600000000020
  0
LINE
  8
PT3-Grafika_wekt5
  6
CONTINUOUS
 62
     7
 10
157.5574
 20
176.989600000000000
 11
156.7932
 21
176.988100000000000
  0
LINE
  8
PT3-Grafika_wekt5
  6
CONTINUOUS
 62
     7
 10
157.5574
 20
177.005200000000000
 11
157.5649
 21
177.005200000000000
  0
LINE
  8
PT3-Grafika_wekt5
  6
CONTINUOUS
 62
     7
 10
157.5649
 20
177.005200000000000
 11
157.5649
 21
176.406800000000000
  0
LINE
  8
PT3-Grafika_wekt5
  6
CONTINUOUS
 62
     7
 10
157.5574
 20
177.068700000000010
 11
157.5574
 21
176.989600000000000
  0
LINE
  8
PT3-Grafika_wekt5
  6
CONTINUOUS
 62
     7
 10
157.5649
 20
177.005200000000000
 11
157.5649
 21
183.396600000000010
  0
LINE
  8
PT3-Grafika_wekt5
  6
CONTINUOUS
 62
     7
 10
157.5649
 20
183.396600000000010
 11
157.5555
 21
183.396600000000010
  0
LINE
  8
PT3-Grafika_wekt5
  6
CONTINUOUS
 62
     7
 10
131.755
 20
184.994300000000010
 11
131.755
 21
188.282300000000020
  0
LINE
  8
PT3-Grafika_wekt5
  6
CONTINUOUS
 62
     7
 10
131.755
 20
188.282300000000020
 11
132.5192
 21
188.282300000000020
  0
LINE
  8
PT3-Grafika_wekt5
  6
CONTINUOUS
 62
     7
 10
132.5192
 20
188.282300000000020
 11
132.5192
 21
185.074900000000010
  0
LINE
  8
PT3-Grafika_wekt5
  6
CONTINUOUS
 62
     7
 10
132.5192
 20
185.074900000000010
 11
131.755
 21
185.074900000000010
  0
LINE
  8
PT3-Grafika_wekt5
  6
CONTINUOUS
 62
     7
 10
131.7619
 20
184.413099999999990
 11
131.7619
 21
184.994300000000010
  0
LINE
  8
PT3-Grafika_wekt5
  6
CONTINUOUS
 62
     7
 10
131.7619
 20
188.282300000000020
 11
131.7619
 21
191.402899999999990
  0
LINE
  8
PT3-Grafika_wekt5
  6
CONTINUOUS
 62
     7
 10
131.7619
 20
191.402899999999990
 11
131.7974
 21
191.402899999999990
  0
LINE
  8
PT3-Grafika_wekt5
  6
CONTINUOUS
 62
     7
 10
131.7713
 20
188.282300000000020
 11
131.7713
 21
190.992500000000010
  0
LINE
  8
PT3-Grafika_wekt5
  6
CONTINUOUS
 62
     7
 10
131.7713
 20
190.992500000000010
 11
132.4759
 21
190.992500000000010
  0
LINE
  8
PT3-Grafika_wekt5
  6
CONTINUOUS
 62
     7
 10
132.4759
 20
190.992500000000010
 11
132.4759
 21
188.282300000000020
  0
LINE
  8
PT3-Grafika_wekt5
  6
CONTINUOUS
 62
     7
 10
132.4759
 20
188.282300000000020
 11
131.7713
 21
188.282300000000020
  0
LINE
  8
PT3-Grafika_wekt5
  6
CONTINUOUS
 62
     7
 10
131.7974
 20
190.992500000000010
 11
131.7974
 21
191.655900000000000
  0
LINE
  8
PT3-Grafika_wekt5
  6
CONTINUOUS
 62
     7
 10
131.7974
 20
191.655900000000000
 11
139.5486
 21
191.655900000000000
  0
LINE
  8
PT3-Grafika_wekt5
  6
CONTINUOUS
 62
     7
 10
139.5486
 20
191.655900000000000
 11
139.5486
 21
191.143100000000000
  0
LINE
  8
PT3-Grafika_wekt5
  6
CONTINUOUS
 62
     7
 10
139.5486
 20
191.143100000000000
 11
131.7974
 21
191.143100000000000
  0
LINE
  8
PT3-Grafika_wekt5
  6
CONTINUOUS
 62
     7
 10
132.2103
 20
184.412100000000010
 11
132.2103
 21
184.995200000000010
  0
LINE
  8
PT3-Grafika_wekt5
  6
CONTINUOUS
 62
     7
 10
132.4759
 20
190.737100000000000
 11
138.844
 21
190.737100000000000
  0
LINE
  8
PT3-Grafika_wekt5
  6
CONTINUOUS
 62
     7
 10
132.4759
 20
190.737200000000000
 11
132.6784
 21
190.737200000000000
  0
LINE
  8
PT3-Grafika_wekt5
  6
CONTINUOUS
 62
     7
 10
132.6784
 20
190.737200000000000
 11
132.6784
 21
185.581300000000000
  0
LINE
  8
PT3-Grafika_wekt5
  6
CONTINUOUS
 62
     7
 10
132.6784
 20
185.581300000000000
 11
132.5192
 21
185.581300000000000
  0
LINE
  8
PT3-Grafika_wekt5
  6
CONTINUOUS
 62
     7
 10
132.4759
 20
190.840199999999980
 11
138.844
 21
190.840199999999980
  0
LINE
  8
PT3-Grafika_wekt5
  6
CONTINUOUS
 62
     7
 10
132.4759
 20
190.902100000000020
 11
132.4759
 21
190.992500000000010
  0
LINE
  8
PT3-Grafika_wekt5
  6
CONTINUOUS
 62
     7
 10
132.5192
 20
184.995900000000010
 11
131.755
 21
184.994300000000010
  0
LINE
  8
PT3-Grafika_wekt5
  6
CONTINUOUS
 62
     7
 10
132.5192
 20
185.010400000000000
 11
132.5234
 21
185.010400000000000
  0
LINE
  8
PT3-Grafika_wekt5
  6
CONTINUOUS
 62
     7
 10
132.5192
 20
185.021799999999980
 11
132.5234
 21
185.021900000000020
  0
LINE
  8
PT3-Grafika_wekt5
  6
CONTINUOUS
 62
     7
 10
132.5192
 20
185.074900000000010
 11
132.5192
 21
184.995900000000010
  0
LINE
  8
PT3-Grafika_wekt5
  6
CONTINUOUS
 62
     7
 10
132.5192
 20
185.278099999999990
 11
132.5234
 21
185.278099999999990
  0
LINE
  8
PT3-Grafika_wekt5
  6
CONTINUOUS
 62
     7
 10
132.5192
 20
185.446200000000000
 11
132.5234
 21
185.446200000000000
  0
LINE
  8
PT3-Grafika_wekt5
  6
CONTINUOUS
 62
     7
 10
132.5192
 20
185.582600000000010
 11
138.7863
 21
185.582600000000010
  0
LINE
  8
PT3-Grafika_wekt5
  6
CONTINUOUS
 62
     7
 10
132.5192
 20
188.203199999999980
 11
132.5192
 21
185.074900000000010
  0
LINE
  8
PT3-Grafika_wekt5
  6
CONTINUOUS
 62
     7
 10
132.5192
 20
188.282300000000020
 11
132.5192
 21
188.203199999999980
  0
LINE
  8
PT3-Grafika_wekt5
  6
CONTINUOUS
 62
     7
 10
132.5234
 20
184.971400000000020
 11
132.5234
 21
185.580199999999990
  0
LINE
  8
PT3-Grafika_wekt5
  6
CONTINUOUS
 62
     7
 10
132.5234
 20
185.580199999999990
 11
138.7854
 21
185.580199999999990
  0
LINE
  8
PT3-Grafika_wekt5
  6
CONTINUOUS
 62
     7
 10
138.7854
 20
185.580199999999990
 11
138.7854
 21
185.063600000000010
  0
LINE
  8
PT3-Grafika_wekt5
  6
CONTINUOUS
 62
     7
 10
138.7854
 20
185.063600000000010
 11
132.5234
 21
185.063600000000010
  0
LINE
  8
PT3-Grafika_wekt5
  6
CONTINUOUS
 62
     7
 10
138.6414
 20
185.581300000000000
 11
138.6414
 21
190.737200000000000
  0
LINE
  8
PT3-Grafika_wekt5
  6
CONTINUOUS
 62
     7
 10
138.6414
 20
190.737200000000000
 11
138.844
 21
190.737200000000000
  0
LINE
  8
PT3-Grafika_wekt5
  6
CONTINUOUS
 62
     7
 10
138.7854
 20
184.971400000000020
 11
132.5234
 21
184.971400000000020
  0
LINE
  8
PT3-Grafika_wekt5
  6
CONTINUOUS
 62
     7
 10
138.7854
 20
185.010400000000000
 11
138.7863
 21
185.010400000000000
  0
LINE
  8
PT3-Grafika_wekt5
  6
CONTINUOUS
 62
     7
 10
138.7854
 20
185.063600000000010
 11
138.7854
 21
184.971400000000020
  0
LINE
  8
PT3-Grafika_wekt5
  6
CONTINUOUS
 62
     7
 10
138.7854
 20
185.252500000000000
 11
138.7854
 21
185.262600000000020
  0
LINE
  8
PT3-Grafika_wekt5
  6
CONTINUOUS
 62
     7
 10
138.7854
 20
185.278099999999990
 11
138.7863
 21
185.278099999999990
  0
LINE
  8
PT3-Grafika_wekt5
  6
CONTINUOUS
 62
     7
 10
138.7854
 20
185.446200000000000
 11
138.7863
 21
185.446200000000000
  0
LINE
  8
PT3-Grafika_wekt5
  6
CONTINUOUS
 62
     7
 10
138.7854
 20
185.503500000000000
 11
138.7854
 21
185.580199999999990
  0
LINE
  8
PT3-Grafika_wekt5
  6
CONTINUOUS
 62
     7
 10
138.7863
 20
184.994300000000010
 11
138.7863
 21
188.282300000000020
  0
LINE
  8
PT3-Grafika_wekt5
  6
CONTINUOUS
 62
     7
 10
138.7863
 20
188.282300000000020
 11
139.5505
 21
188.282300000000020
  0
LINE
  8
PT3-Grafika_wekt5
  6
CONTINUOUS
 62
     7
 10
139.5505
 20
188.282300000000020
 11
139.5505
 21
185.074900000000010
  0
LINE
  8
PT3-Grafika_wekt5
  6
CONTINUOUS
 62
     7
 10
139.5505
 20
185.074900000000010
 11
138.7863
 21
185.074900000000010
  0
LINE
  8
PT3-Grafika_wekt5
  6
CONTINUOUS
 62
     7
 10
138.7863
 20
185.252500000000000
 11
138.7854
 21
185.252500000000000
  0
LINE
  8
PT3-Grafika_wekt5
  6
CONTINUOUS
 62
     7
 10
138.7863
 20
185.581300000000000
 11
138.6414
 21
185.581300000000000
  0
LINE
  8
PT3-Grafika_wekt5
  6
CONTINUOUS
 62
     7
 10
138.844
 20
188.282300000000020
 11
138.844
 21
190.992500000000010
  0
LINE
  8
PT3-Grafika_wekt5
  6
CONTINUOUS
 62
     7
 10
138.844
 20
190.992500000000010
 11
139.5486
 21
190.992500000000010
  0
LINE
  8
PT3-Grafika_wekt5
  6
CONTINUOUS
 62
     7
 10
139.5486
 20
190.992500000000010
 11
139.5486
 21
188.282300000000020
  0
LINE
  8
PT3-Grafika_wekt5
  6
CONTINUOUS
 62
     7
 10
139.5486
 20
188.282300000000020
 11
138.844
 21
188.282300000000020
  0
LINE
  8
PT3-Grafika_wekt5
  6
CONTINUOUS
 62
     7
 10
139.1021
 20
184.412100000000010
 11
139.1021
 21
184.995000000000000
  0
LINE
  8
PT3-Grafika_wekt5
  6
CONTINUOUS
 62
     7
 10
139.5486
 20
190.902100000000020
 11
139.5486
 21
190.992500000000010
  0
LINE
  8
PT3-Grafika_wekt5
  6
CONTINUOUS
 62
     7
 10
139.5486
 20
191.143100000000000
 11
139.5486
 21
190.902100000000020
  0
LINE
  8
PT3-Grafika_wekt5
  6
CONTINUOUS
 62
     7
 10
139.5486
 20
191.402899999999990
 11
139.5486
 21
191.655900000000000
  0
LINE
  8
PT3-Grafika_wekt5
  6
CONTINUOUS
 62
     7
 10
139.5505
 20
184.995900000000010
 11
138.7863
 21
184.994300000000010
  0
LINE
  8
PT3-Grafika_wekt5
  6
CONTINUOUS
 62
     7
 10
139.5505
 20
185.011399999999980
 11
139.558
 21
185.011399999999980
  0
LINE
  8
PT3-Grafika_wekt5
  6
CONTINUOUS
 62
     7
 10
139.558
 20
185.011399999999980
 11
139.558
 21
184.413099999999990
  0
LINE
  8
PT3-Grafika_wekt5
  6
CONTINUOUS
 62
     7
 10
139.5505
 20
185.074900000000010
 11
139.5505
 21
184.995900000000010
  0
LINE
  8
PT3-Grafika_wekt5
  6
CONTINUOUS
 62
     7
 10
139.558
 20
185.011399999999980
 11
139.558
 21
191.402899999999990
  0
LINE
  8
PT3-Grafika_wekt5
  6
CONTINUOUS
 62
     7
 10
139.558
 20
191.402899999999990
 11
139.5486
 21
191.402899999999990
  0
LINE
  8
PT3-Grafika_wekt5
  6
CONTINUOUS
 62
     7
 10
149.7619
 20
184.994300000000010
 11
149.7619
 21
188.282300000000020
  0
LINE
  8
PT3-Grafika_wekt5
  6
CONTINUOUS
 62
     7
 10
149.7619
 20
188.282300000000020
 11
150.5261
 21
188.282300000000020
  0
LINE
  8
PT3-Grafika_wekt5
  6
CONTINUOUS
 62
     7
 10
150.5261
 20
188.282300000000020
 11
150.5261
 21
185.074900000000010
  0
LINE
  8
PT3-Grafika_wekt5
  6
CONTINUOUS
 62
     7
 10
150.5261
 20
185.074900000000010
 11
149.7619
 21
185.074900000000010
  0
LINE
  8
PT3-Grafika_wekt5
  6
CONTINUOUS
 62
     7
 10
149.7688
 20
184.413099999999990
 11
149.7688
 21
184.994300000000010
  0
LINE
  8
PT3-Grafika_wekt5
  6
CONTINUOUS
 62
     7
 10
149.7688
 20
184.994300000000010
 11
149.7688
 21
184.437799999999980
  0
LINE
  8
PT3-Grafika_wekt5
  6
CONTINUOUS
 62
     7
 10
149.7688
 20
188.282300000000020
 11
149.7688
 21
191.402899999999990
  0
LINE
  8
PT3-Grafika_wekt5
  6
CONTINUOUS
 62
     7
 10
149.7688
 20
191.402899999999990
 11
149.8043
 21
191.402899999999990
  0
LINE
  8
PT3-Grafika_wekt5
  6
CONTINUOUS
 62
     7
 10
149.7782
 20
188.282300000000020
 11
149.7782
 21
190.992500000000010
  0
LINE
  8
PT3-Grafika_wekt5
  6
CONTINUOUS
 62
     7
 10
149.7782
 20
190.992500000000010
 11
150.4828
 21
190.992500000000010
  0
LINE
  8
PT3-Grafika_wekt5
  6
CONTINUOUS
 62
     7
 10
150.4828
 20
190.992500000000010
 11
150.4828
 21
188.282300000000020
  0
LINE
  8
PT3-Grafika_wekt5
  6
CONTINUOUS
 62
     7
 10
150.4828
 20
188.282300000000020
 11
149.7782
 21
188.282300000000020
  0
LINE
  8
PT3-Grafika_wekt5
  6
CONTINUOUS
 62
     7
 10
149.8043
 20
190.992500000000010
 11
149.8043
 21
191.655900000000000
  0
LINE
  8
PT3-Grafika_wekt5
  6
CONTINUOUS
 62
     7
 10
149.8043
 20
191.655900000000000
 11
157.5555
 21
191.655900000000000
  0
LINE
  8
PT3-Grafika_wekt5
  6
CONTINUOUS
 62
     7
 10
157.5555
 20
191.655900000000000
 11
157.5555
 21
191.143100000000000
  0
LINE
  8
PT3-Grafika_wekt5
  6
CONTINUOUS
 62
     7
 10
157.5555
 20
191.143100000000000
 11
149.8043
 21
191.143100000000000
  0
LINE
  8
PT3-Grafika_wekt5
  6
CONTINUOUS
 62
     7
 10
150.2172
 20
184.412100000000010
 11
150.2172
 21
184.995200000000010
  0
LINE
  8
PT3-Grafika_wekt5
  6
CONTINUOUS
 62
     7
 10
150.4828
 20
190.737100000000000
 11
156.8509
 21
190.737100000000000
  0
LINE
  8
PT3-Grafika_wekt5
  6
CONTINUOUS
 62
     7
 10
150.4828
 20
190.737200000000000
 11
150.6853
 21
190.737200000000000
  0
LINE
  8
PT3-Grafika_wekt5
  6
CONTINUOUS
 62
     7
 10
150.6853
 20
190.737200000000000
 11
150.6853
 21
185.581300000000000
  0
LINE
  8
PT3-Grafika_wekt5
  6
CONTINUOUS
 62
     7
 10
150.6853
 20
185.581300000000000
 11
150.5261
 21
185.581300000000000
  0
LINE
  8
PT3-Grafika_wekt5
  6
CONTINUOUS
 62
     7
 10
150.4828
 20
190.840199999999980
 11
156.8509
 21
190.840199999999980
  0
LINE
  8
PT3-Grafika_wekt5
  6
CONTINUOUS
 62
     7
 10
150.4828
 20
190.902100000000020
 11
150.4828
 21
190.992500000000010
  0
LINE
  8
PT3-Grafika_wekt5
  6
CONTINUOUS
 62
     7
 10
150.5261
 20
184.995900000000010
 11
149.7619
 21
184.994300000000010
  0
LINE
  8
PT3-Grafika_wekt5
  6
CONTINUOUS
 62
     7
 10
150.5261
 20
185.010400000000000
 11
150.5303
 21
185.010400000000000
  0
LINE
  8
PT3-Grafika_wekt5
  6
CONTINUOUS
 62
     7
 10
150.5261
 20
185.021799999999980
 11
150.5303
 21
185.021900000000020
  0
LINE
  8
PT3-Grafika_wekt5
  6
CONTINUOUS
 62
     7
 10
150.5261
 20
185.074900000000010
 11
150.5261
 21
184.995900000000010
  0
LINE
  8
PT3-Grafika_wekt5
  6
CONTINUOUS
 62
     7
 10
150.5261
 20
185.278099999999990
 11
150.5303
 21
185.278099999999990
  0
LINE
  8
PT3-Grafika_wekt5
  6
CONTINUOUS
 62
     7
 10
150.5261
 20
185.446200000000000
 11
150.5303
 21
185.446200000000000
  0
LINE
  8
PT3-Grafika_wekt5
  6
CONTINUOUS
 62
     7
 10
150.5261
 20
185.582600000000010
 11
156.7932
 21
185.582600000000010
  0
LINE
  8
PT3-Grafika_wekt5
  6
CONTINUOUS
 62
     7
 10
150.5261
 20
188.203199999999980
 11
150.5261
 21
185.074900000000010
  0
LINE
  8
PT3-Grafika_wekt5
  6
CONTINUOUS
 62
     7
 10
150.5261
 20
188.282300000000020
 11
150.5261
 21
188.203199999999980
  0
LINE
  8
PT3-Grafika_wekt5
  6
CONTINUOUS
 62
     7
 10
150.5303
 20
184.971400000000020
 11
150.5303
 21
185.580199999999990
  0
LINE
  8
PT3-Grafika_wekt5
  6
CONTINUOUS
 62
     7
 10
150.5303
 20
185.580199999999990
 11
156.7923
 21
185.580199999999990
  0
LINE
  8
PT3-Grafika_wekt5
  6
CONTINUOUS
 62
     7
 10
156.7923
 20
185.580199999999990
 11
156.7923
 21
185.063600000000010
  0
LINE
  8
PT3-Grafika_wekt5
  6
CONTINUOUS
 62
     7
 10
156.7923
 20
185.063600000000010
 11
150.5303
 21
185.063600000000010
  0
LINE
  8
PT3-Grafika_wekt5
  6
CONTINUOUS
 62
     7
 10
156.6484
 20
185.581300000000000
 11
156.6484
 21
190.737200000000000
  0
LINE
  8
PT3-Grafika_wekt5
  6
CONTINUOUS
 62
     7
 10
156.6484
 20
190.737200000000000
 11
156.8509
 21
190.737200000000000
  0
LINE
  8
PT3-Grafika_wekt5
  6
CONTINUOUS
 62
     7
 10
156.7923
 20
184.971400000000020
 11
150.5303
 21
184.971400000000020
  0
LINE
  8
PT3-Grafika_wekt5
  6
CONTINUOUS
 62
     7
 10
156.7923
 20
185.010400000000000
 11
156.7932
 21
185.010400000000000
  0
LINE
  8
PT3-Grafika_wekt5
  6
CONTINUOUS
 62
     7
 10
156.7923
 20
185.063600000000010
 11
156.7923
 21
184.971400000000020
  0
LINE
  8
PT3-Grafika_wekt5
  6
CONTINUOUS
 62
     7
 10
156.7923
 20
185.252500000000000
 11
156.7923
 21
185.262600000000020
  0
LINE
  8
PT3-Grafika_wekt5
  6
CONTINUOUS
 62
     7
 10
156.7923
 20
185.278099999999990
 11
156.7932
 21
185.278099999999990
  0
LINE
  8
PT3-Grafika_wekt5
  6
CONTINUOUS
 62
     7
 10
156.7923
 20
185.446200000000000
 11
156.7932
 21
185.446200000000000
  0
LINE
  8
PT3-Grafika_wekt5
  6
CONTINUOUS
 62
     7
 10
156.7923
 20
185.503500000000000
 11
156.7923
 21
185.580199999999990
  0
LINE
  8
PT3-Grafika_wekt5
  6
CONTINUOUS
 62
     7
 10
156.7932
 20
184.994300000000010
 11
156.7932
 21
188.282300000000020
  0
LINE
  8
PT3-Grafika_wekt5
  6
CONTINUOUS
 62
     7
 10
156.7932
 20
188.282300000000020
 11
157.5574
 21
188.282300000000020
  0
LINE
  8
PT3-Grafika_wekt5
  6
CONTINUOUS
 62
     7
 10
157.5574
 20
188.282300000000020
 11
157.5574
 21
185.074900000000010
  0
LINE
  8
PT3-Grafika_wekt5
  6
CONTINUOUS
 62
     7
 10
157.5574
 20
185.074900000000010
 11
156.7932
 21
185.074900000000010
  0
LINE
  8
PT3-Grafika_wekt5
  6
CONTINUOUS
 62
     7
 10
156.7932
 20
185.252500000000000
 11
156.7923
 21
185.252500000000000
  0
LINE
  8
PT3-Grafika_wekt5
  6
CONTINUOUS
 62
     7
 10
156.7932
 20
185.581300000000000
 11
156.6484
 21
185.581300000000000
  0
LINE
  8
PT3-Grafika_wekt5
  6
CONTINUOUS
 62
     7
 10
156.8509
 20
188.282300000000020
 11
156.8509
 21
190.992500000000010
  0
LINE
  8
PT3-Grafika_wekt5
  6
CONTINUOUS
 62
     7
 10
156.8509
 20
190.992500000000010
 11
157.5555
 21
190.992500000000010
  0
LINE
  8
PT3-Grafika_wekt5
  6
CONTINUOUS
 62
     7
 10
157.5555
 20
190.992500000000010
 11
157.5555
 21
188.282300000000020
  0
LINE
  8
PT3-Grafika_wekt5
  6
CONTINUOUS
 62
     7
 10
157.5555
 20
188.282300000000020
 11
156.8509
 21
188.282300000000020
  0
LINE
  8
PT3-Grafika_wekt5
  6
CONTINUOUS
 62
     7
 10
157.109
 20
184.412100000000010
 11
157.109
 21
184.995000000000000
  0
LINE
  8
PT3-Grafika_wekt5
  6
CONTINUOUS
 62
     7
 10
157.5555
 20
190.902100000000020
 11
157.5555
 21
190.992500000000010
  0
LINE
  8
PT3-Grafika_wekt5
  6
CONTINUOUS
 62
     7
 10
157.5555
 20
191.143100000000000
 11
157.5555
 21
190.902100000000020
  0
LINE
  8
PT3-Grafika_wekt5
  6
CONTINUOUS
 62
     7
 10
157.5555
 20
191.402899999999990
 11
157.5555
 21
191.655900000000000
  0
LINE
  8
PT3-Grafika_wekt5
  6
CONTINUOUS
 62
     7
 10
157.5574
 20
184.995900000000010
 11
156.7932
 21
184.994300000000010
  0
LINE
  8
PT3-Grafika_wekt5
  6
CONTINUOUS
 62
     7
 10
157.5574
 20
185.011399999999980
 11
157.5649
 21
185.011399999999980
  0
LINE
  8
PT3-Grafika_wekt5
  6
CONTINUOUS
 62
     7
 10
157.5649
 20
185.011399999999980
 11
157.5649
 21
184.413099999999990
  0
LINE
  8
PT3-Grafika_wekt5
  6
CONTINUOUS
 62
     7
 10
157.5574
 20
185.074900000000010
 11
157.5574
 21
184.995900000000010
  0
LINE
  8
PT3-Grafika_wekt5
  6
CONTINUOUS
 62
     7
 10
157.5649
 20
185.011399999999980
 11
157.5649
 21
191.402899999999990
  0
LINE
  8
PT3-Grafika_wekt5
  6
CONTINUOUS
 62
     7
 10
157.5649
 20
191.402899999999990
 11
157.5555
 21
191.402899999999990
  0
LINE
  8
PT3-Grafika_wekt5
  6
CONTINUOUS
 62
     7
 10
167.7688
 20
184.994300000000010
 11
167.7688
 21
188.282300000000020
  0
LINE
  8
PT3-Grafika_wekt5
  6
CONTINUOUS
 62
     7
 10
167.7688
 20
188.282300000000020
 11
168.533
 21
188.282300000000020
  0
LINE
  8
PT3-Grafika_wekt5
  6
CONTINUOUS
 62
     7
 10
168.533
 20
188.282300000000020
 11
168.533
 21
185.074900000000010
  0
LINE
  8
PT3-Grafika_wekt5
  6
CONTINUOUS
 62
     7
 10
168.533
 20
185.074900000000010
 11
167.7688
 21
185.074900000000010
  0
LINE
  8
PT3-Grafika_wekt5
  6
CONTINUOUS
 62
     7
 10
167.7757
 20
184.413099999999990
 11
167.7757
 21
184.994300000000010
  0
LINE
  8
PT3-Grafika_wekt5
  6
CONTINUOUS
 62
     7
 10
167.7757
 20
184.994300000000010
 11
167.7757
 21
184.437799999999980
  0
LINE
  8
PT3-Grafika_wekt5
  6
CONTINUOUS
 62
     7
 10
167.7757
 20
188.282300000000020
 11
167.7757
 21
191.402899999999990
  0
LINE
  8
PT3-Grafika_wekt5
  6
CONTINUOUS
 62
     7
 10
167.7757
 20
191.402899999999990
 11
167.8112
 21
191.402899999999990
  0
LINE
  8
PT3-Grafika_wekt5
  6
CONTINUOUS
 62
     7
 10
167.7851
 20
188.282300000000020
 11
167.7851
 21
190.992500000000010
  0
LINE
  8
PT3-Grafika_wekt5
  6
CONTINUOUS
 62
     7
 10
167.7851
 20
190.992500000000010
 11
168.4897
 21
190.992500000000010
  0
LINE
  8
PT3-Grafika_wekt5
  6
CONTINUOUS
 62
     7
 10
168.4897
 20
190.992500000000010
 11
168.4897
 21
188.282300000000020
  0
LINE
  8
PT3-Grafika_wekt5
  6
CONTINUOUS
 62
     7
 10
168.4897
 20
188.282300000000020
 11
167.7851
 21
188.282300000000020
  0
LINE
  8
PT3-Grafika_wekt5
  6
CONTINUOUS
 62
     7
 10
167.8112
 20
190.992500000000010
 11
167.8112
 21
191.655900000000000
  0
LINE
  8
PT3-Grafika_wekt5
  6
CONTINUOUS
 62
     7
 10
167.8112
 20
191.655900000000000
 11
175.5624
 21
191.655900000000000
  0
LINE
  8
PT3-Grafika_wekt5
  6
CONTINUOUS
 62
     7
 10
175.5624
 20
191.655900000000000
 11
175.5624
 21
191.143100000000000
  0
LINE
  8
PT3-Grafika_wekt5
  6
CONTINUOUS
 62
     7
 10
175.5624
 20
191.143100000000000
 11
167.8112
 21
191.143100000000000
  0
LINE
  8
PT3-Grafika_wekt5
  6
CONTINUOUS
 62
     7
 10
168.2241
 20
184.412100000000010
 11
168.2241
 21
184.995200000000010
  0
LINE
  8
PT3-Grafika_wekt5
  6
CONTINUOUS
 62
     7
 10
168.4897
 20
190.737100000000000
 11
174.8577
 21
190.737100000000000
  0
LINE
  8
PT3-Grafika_wekt5
  6
CONTINUOUS
 62
     7
 10
168.4897
 20
190.737200000000000
 11
168.6922
 21
190.737200000000000
  0
LINE
  8
PT3-Grafika_wekt5
  6
CONTINUOUS
 62
     7
 10
168.6922
 20
190.737200000000000
 11
168.6922
 21
185.581300000000000
  0
LINE
  8
PT3-Grafika_wekt5
  6
CONTINUOUS
 62
     7
 10
168.6922
 20
185.581300000000000
 11
168.533
 21
185.581300000000000
  0
LINE
  8
PT3-Grafika_wekt5
  6
CONTINUOUS
 62
     7
 10
168.4897
 20
190.840199999999980
 11
174.8577
 21
190.840199999999980
  0
LINE
  8
PT3-Grafika_wekt5
  6
CONTINUOUS
 62
     7
 10
168.4897
 20
190.902100000000020
 11
168.4897
 21
190.992500000000010
  0
LINE
  8
PT3-Grafika_wekt5
  6
CONTINUOUS
 62
     7
 10
168.533
 20
184.995900000000010
 11
167.7688
 21
184.994300000000010
  0
LINE
  8
PT3-Grafika_wekt5
  6
CONTINUOUS
 62
     7
 10
168.533
 20
185.010400000000000
 11
168.5372
 21
185.010400000000000
  0
LINE
  8
PT3-Grafika_wekt5
  6
CONTINUOUS
 62
     7
 10
168.533
 20
185.021799999999980
 11
168.5372
 21
185.021900000000020
  0
LINE
  8
PT3-Grafika_wekt5
  6
CONTINUOUS
 62
     7
 10
168.533
 20
185.074900000000010
 11
168.533
 21
184.995900000000010
  0
LINE
  8
PT3-Grafika_wekt5
  6
CONTINUOUS
 62
     7
 10
168.533
 20
185.278099999999990
 11
168.5372
 21
185.278099999999990
  0
LINE
  8
PT3-Grafika_wekt5
  6
CONTINUOUS
 62
     7
 10
168.533
 20
185.446200000000000
 11
168.5372
 21
185.446200000000000
  0
LINE
  8
PT3-Grafika_wekt5
  6
CONTINUOUS
 62
     7
 10
168.533
 20
185.582600000000010
 11
174.8001
 21
185.582600000000010
  0
LINE
  8
PT3-Grafika_wekt5
  6
CONTINUOUS
 62
     7
 10
168.533
 20
188.203199999999980
 11
168.533
 21
185.074900000000010
  0
LINE
  8
PT3-Grafika_wekt5
  6
CONTINUOUS
 62
     7
 10
168.533
 20
188.282300000000020
 11
168.533
 21
188.203199999999980
  0
LINE
  8
PT3-Grafika_wekt5
  6
CONTINUOUS
 62
     7
 10
168.5372
 20
184.971400000000020
 11
168.5372
 21
185.580199999999990
  0
LINE
  8
PT3-Grafika_wekt5
  6
CONTINUOUS
 62
     7
 10
168.5372
 20
185.580199999999990
 11
174.7992
 21
185.580199999999990
  0
LINE
  8
PT3-Grafika_wekt5
  6
CONTINUOUS
 62
     7
 10
174.7992
 20
185.580199999999990
 11
174.7992
 21
185.063600000000010
  0
LINE
  8
PT3-Grafika_wekt5
  6
CONTINUOUS
 62
     7
 10
174.7992
 20
185.063600000000010
 11
168.5372
 21
185.063600000000010
  0
LINE
  8
PT3-Grafika_wekt5
  6
CONTINUOUS
 62
     7
 10
174.6552
 20
185.581300000000000
 11
174.6552
 21
190.737200000000000
  0
LINE
  8
PT3-Grafika_wekt5
  6
CONTINUOUS
 62
     7
 10
174.6552
 20
190.737200000000000
 11
174.8577
 21
190.737200000000000
  0
LINE
  8
PT3-Grafika_wekt5
  6
CONTINUOUS
 62
     7
 10
174.7992
 20
184.971400000000020
 11
168.5372
 21
184.971400000000020
  0
LINE
  8
PT3-Grafika_wekt5
  6
CONTINUOUS
 62
     7
 10
174.7992
 20
185.010400000000000
 11
174.8001
 21
185.010400000000000
  0
LINE
  8
PT3-Grafika_wekt5
  6
CONTINUOUS
 62
     7
 10
174.7992
 20
185.063600000000010
 11
174.7992
 21
184.971400000000020
  0
LINE
  8
PT3-Grafika_wekt5
  6
CONTINUOUS
 62
     7
 10
174.7992
 20
185.252500000000000
 11
174.7992
 21
185.262600000000020
  0
LINE
  8
PT3-Grafika_wekt5
  6
CONTINUOUS
 62
     7
 10
174.7992
 20
185.278099999999990
 11
174.8001
 21
185.278099999999990
  0
LINE
  8
PT3-Grafika_wekt5
  6
CONTINUOUS
 62
     7
 10
174.7992
 20
185.446200000000000
 11
174.8001
 21
185.446200000000000
  0
LINE
  8
PT3-Grafika_wekt5
  6
CONTINUOUS
 62
     7
 10
174.7992
 20
185.503500000000000
 11
174.7992
 21
185.580199999999990
  0
LINE
  8
PT3-Grafika_wekt5
  6
CONTINUOUS
 62
     7
 10
174.8001
 20
184.994300000000010
 11
174.8001
 21
188.282300000000020
  0
LINE
  8
PT3-Grafika_wekt5
  6
CONTINUOUS
 62
     7
 10
174.8001
 20
188.282300000000020
 11
175.5643
 21
188.282300000000020
  0
LINE
  8
PT3-Grafika_wekt5
  6
CONTINUOUS
 62
     7
 10
175.5643
 20
188.282300000000020
 11
175.5643
 21
185.074900000000010
  0
LINE
  8
PT3-Grafika_wekt5
  6
CONTINUOUS
 62
     7
 10
175.5643
 20
185.074900000000010
 11
174.8001
 21
185.074900000000010
  0
LINE
  8
PT3-Grafika_wekt5
  6
CONTINUOUS
 62
     7
 10
174.8001
 20
185.252500000000000
 11
174.7992
 21
185.252500000000000
  0
LINE
  8
PT3-Grafika_wekt5
  6
CONTINUOUS
 62
     7
 10
174.8001
 20
185.581300000000000
 11
174.6552
 21
185.581300000000000
  0
LINE
  8
PT3-Grafika_wekt5
  6
CONTINUOUS
 62
     7
 10
174.8577
 20
188.282300000000020
 11
174.8577
 21
190.992500000000010
  0
LINE
  8
PT3-Grafika_wekt5
  6
CONTINUOUS
 62
     7
 10
174.8577
 20
190.992500000000010
 11
175.5624
 21
190.992500000000010
  0
LINE
  8
PT3-Grafika_wekt5
  6
CONTINUOUS
 62
     7
 10
175.5624
 20
190.992500000000010
 11
175.5624
 21
188.282300000000020
  0
LINE
  8
PT3-Grafika_wekt5
  6
CONTINUOUS
 62
     7
 10
175.5624
 20
188.282300000000020
 11
174.8577
 21
188.282300000000020
  0
LINE
  8
PT3-Grafika_wekt5
  6
CONTINUOUS
 62
     7
 10
175.1159
 20
184.412100000000010
 11
175.1159
 21
184.995000000000000
  0
LINE
  8
PT3-Grafika_wekt5
  6
CONTINUOUS
 62
     7
 10
175.5624
 20
190.902100000000020
 11
175.5624
 21
190.992500000000010
  0
LINE
  8
PT3-Grafika_wekt5
  6
CONTINUOUS
 62
     7
 10
175.5624
 20
191.143100000000000
 11
175.5624
 21
190.902100000000020
  0
LINE
  8
PT3-Grafika_wekt5
  6
CONTINUOUS
 62
     7
 10
175.5624
 20
191.402899999999990
 11
175.5624
 21
191.655900000000000
  0
LINE
  8
PT3-Grafika_wekt5
  6
CONTINUOUS
 62
     7
 10
175.5643
 20
184.995900000000010
 11
174.8001
 21
184.994300000000010
  0
LINE
  8
PT3-Grafika_wekt5
  6
CONTINUOUS
 62
     7
 10
175.5643
 20
185.011399999999980
 11
175.5718
 21
185.011399999999980
  0
LINE
  8
PT3-Grafika_wekt5
  6
CONTINUOUS
 62
     7
 10
175.5718
 20
185.011399999999980
 11
175.5718
 21
184.413099999999990
  0
LINE
  8
PT3-Grafika_wekt5
  6
CONTINUOUS
 62
     7
 10
175.5643
 20
185.074900000000010
 11
175.5643
 21
184.995900000000010
  0
LINE
  8
PT3-Grafika_wekt5
  6
CONTINUOUS
 62
     7
 10
175.5718
 20
185.011399999999980
 11
175.5718
 21
191.402899999999990
  0
LINE
  8
PT3-Grafika_wekt5
  6
CONTINUOUS
 62
     7
 10
175.5718
 20
191.402899999999990
 11
175.5624
 21
191.402899999999990
  0
LINE
  8
PT3-Grafika_wekt5
  6
CONTINUOUS
 62
     7
 10
403.2846
 20
195.911200000000010
 11
454.6987
 21
195.911200000000010
  0
LINE
  8
PT3-Grafika_wekt5
  6
CONTINUOUS
 62
     7
 10
454.6987
 20
195.911200000000010
 11
454.6987
 21
184.212699999999980
  0
LINE
  8
PT3-Grafika_wekt5
  6
CONTINUOUS
 62
     7
 10
454.6987
 20
184.212699999999980
 11
421.2915
 21
184.212699999999980
  0
LINE
  8
PT3-Grafika_wekt5
  6
CONTINUOUS
 62
     7
 10
454.6987
 20
183.812299999999990
 11
454.6987
 21
184.212699999999980
  0
LINE
  8
PT3-Grafika_wekt5
  6
CONTINUOUS
 62
     7
 10
41.0402
 20
183.812299999999990
 11
41.0402
 21
195.911200000000010
  0
LINE
  8
PT3-Grafika_wekt5
  6
CONTINUOUS
 62
     7
 10
41.0402
 20
195.911200000000010
 11
92.4543
 21
195.911200000000010
  0
LINE
  8
PT3-Grafika_wekt5
  6
CONTINUOUS
 62
     7
 10
41.0402
 20
184.212699999999980
 11
74.4474
 21
184.212699999999980
  0
LINE
  8
PT3-Grafika_wekt5
  6
CONTINUOUS
 62
     7
 10
37.7389
 20
160.809000000000000
 11
37.9148
 21
160.384400000000000
  0
LINE
  8
PT3-Grafika_wekt5
  6
CONTINUOUS
 62
     7
 10
37.9148
 20
160.384400000000000
 11
38.3392
 21
160.208599999999990
  0
LINE
  8
PT3-Grafika_wekt5
  6
CONTINUOUS
 62
     7
 10
38.3392
 20
160.208599999999990
 11
201.6474
 21
160.208599999999990
  0
LINE
  8
PT3-Grafika_wekt5
  6
CONTINUOUS
 62
     7
 10
37.839
 20
160.809000000000000
 11
201.6474
 21
160.809000000000000
  0
LINE
  8
PT3-Grafika_wekt5
  6
CONTINUOUS
 62
     7
 10
201.6474
 20
160.809000000000000
 11
37.7389
 21
160.809000000000000
  0
LINE
  8
PT3-Grafika_wekt5
  6
CONTINUOUS
 62
     7
 10
39.0394
 20
160.809000000000000
 11
39.0394
 21
161.209299999999980
  0
LINE
  8
PT3-Grafika_wekt5
  6
CONTINUOUS
 62
     7
 10
39.0394
 20
161.209299999999980
 11
71.9079
 21
182.562900000000010
  0
LINE
  8
PT3-Grafika_wekt5
  6
CONTINUOUS
 62
     7
 10
71.9079
 20
182.562900000000010
 11
44.0413
 21
182.562900000000010
  0
LINE
  8
PT3-Grafika_wekt5
  6
CONTINUOUS
 62
     7
 10
39.0394
 20
160.909200000000000
 11
201.6474
 21
160.909200000000000
  0
LINE
  8
PT3-Grafika_wekt5
  6
CONTINUOUS
 62
     7
 10
39.0394
 20
161.209299999999980
 11
74.7999
 21
184.441800000000000
  0
LINE
  8
PT3-Grafika_wekt5
  6
CONTINUOUS
 62
     7
 10
39.0394
 20
161.209299999999980
 11
201.6474
 21
161.209299999999980
  0
LINE
  8
PT3-Grafika_wekt5
  6
CONTINUOUS
 62
     7
 10
39.5396
 20
160.208599999999990
 11
39.8883
 21
159.859700000000000
  0
LINE
  8
PT3-Grafika_wekt5
  6
CONTINUOUS
 62
     7
 10
39.8883
 20
159.859700000000000
 11
201.6474
 21
159.859700000000000
  0
LINE
  8
PT3-Grafika_wekt5
  6
CONTINUOUS
 62
     7
 10
40.9902
 20
182.562900000000010
 11
40.9902
 21
195.110500000000000
  0
LINE
  8
PT3-Grafika_wekt5
  6
CONTINUOUS
 62
     7
 10
40.9902
 20
195.110500000000000
 11
40.9902
 21
183.412100000000010
  0
LINE
  8
PT3-Grafika_wekt5
  6
CONTINUOUS
 62
     7
 10
40.9902
 20
183.412100000000010
 11
41.0152
 21
183.412100000000010
  0
LINE
  8
PT3-Grafika_wekt5
  6
CONTINUOUS
 62
     7
 10
40.9902
 20
195.110500000000000
 11
41.0402
 21
195.110500000000000
  0
LINE
  8
PT3-Grafika_wekt5
  6
CONTINUOUS
 62
     7
 10
41.0152
 20
183.211900000000010
 11
41.0152
 21
183.812299999999990
  0
LINE
  8
PT3-Grafika_wekt5
  6
CONTINUOUS
 62
     7
 10
41.0152
 20
183.812299999999990
 11
41.0652
 21
183.812299999999990
  0
LINE
  8
PT3-Grafika_wekt5
  6
CONTINUOUS
 62
     7
 10
41.0652
 20
183.812299999999990
 11
41.0652
 21
183.387800000000000
  0
LINE
  8
PT3-Grafika_wekt5
  6
CONTINUOUS
 62
     7
 10
41.0652
 20
183.387800000000000
 11
41.0152
 21
183.387800000000000
  0
LINE
  8
PT3-Grafika_wekt5
  6
CONTINUOUS
 62
     7
 10
41.0402
 20
182.492099999999990
 11
41.0402
 21
183.812299999999990
  0
LINE
  8
PT3-Grafika_wekt5
  6
CONTINUOUS
 62
     7
 10
41.0402
 20
183.812299999999990
 11
73.8313
 21
183.812299999999990
  0
LINE
  8
PT3-Grafika_wekt5
  6
CONTINUOUS
 62
     7
 10
41.0402
 20
182.562900000000010
 11
40.9902
 21
182.562900000000010
  0
LINE
  8
PT3-Grafika_wekt5
  6
CONTINUOUS
 62
     7
 10
41.0402
 20
183.211900000000010
 11
72.9069
 21
183.211900000000010
  0
LINE
  8
PT3-Grafika_wekt5
  6
CONTINUOUS
 62
     7
 10
41.0652
 20
183.211900000000010
 11
41.0152
 21
183.211900000000010
  0
LINE
  8
PT3-Grafika_wekt5
  6
CONTINUOUS
 62
     7
 10
41.0652
 20
183.387800000000000
 11
41.0652
 21
183.211900000000010
  0
LINE
  8
PT3-Grafika_wekt5
  6
CONTINUOUS
 62
     7
 10
44.0413
 20
182.492099999999990
 11
41.0402
 21
182.492099999999990
  0
LINE
  8
PT3-Grafika_wekt5
  6
CONTINUOUS
 62
     7
 10
44.0413
 20
183.211900000000010
 11
44.0413
 21
182.492099999999990
  0
LINE
  8
PT3-Grafika_wekt5
  6
CONTINUOUS
 62
     7
 10
109.0165
 20
206.671100000000000
 11
39.0394
 21
161.209299999999980
  0
LINE
  8
PT3-Grafika_wekt5
  6
CONTINUOUS
 62
     7
 10
121.3787
 20
214.702300000000010
 11
123.5718
 21
216.127099999999980
  0
LINE
  8
PT3-Grafika_wekt5
  6
CONTINUOUS
 62
     7
 10
123.5718
 20
216.127099999999980
 11
327.1499
 21
216.127099999999980
  0
LINE
  8
PT3-Grafika_wekt5
  6
CONTINUOUS
 62
     7
 10
131.7019
 20
176.431700000000010
 11
131.7501
 21
182.757000000000010
  0
LINE
  8
PT3-Grafika_wekt5
  6
CONTINUOUS
 62
     7
 10
131.7501
 20
182.757000000000010
 11
131.7501
 21
182.405000000000000
  0
LINE
  8
PT3-Grafika_wekt5
  6
CONTINUOUS
 62
     7
 10
131.7501
 20
182.405000000000000
 11
131.7046
 21
176.431700000000010
  0
LINE
  8
PT3-Grafika_wekt5
  6
CONTINUOUS
 62
     7
 10
131.7019
 20
184.437999999999990
 11
131.7501
 21
190.763300000000020
  0
LINE
  8
PT3-Grafika_wekt5
  6
CONTINUOUS
 62
     7
 10
131.7501
 20
190.763300000000020
 11
131.7501
 21
190.411299999999980
  0
LINE
  8
PT3-Grafika_wekt5
  6
CONTINUOUS
 62
     7
 10
131.7501
 20
190.411299999999980
 11
131.7046
 21
184.437999999999990
  0
LINE
  8
PT3-Grafika_wekt5
  6
CONTINUOUS
 62
     7
 10
131.7174
 20
176.431600000000000
 11
131.7501
 21
180.726400000000010
  0
LINE
  8
PT3-Grafika_wekt5
  6
CONTINUOUS
 62
     7
 10
131.7501
 20
180.726400000000010
 11
131.7501
 21
182.405000000000000
  0
LINE
  8
PT3-Grafika_wekt5
  6
CONTINUOUS
 62
     7
 10
131.7501
 20
182.405000000000000
 11
131.7619
 21
182.405100000000000
  0
LINE
  8
PT3-Grafika_wekt5
  6
CONTINUOUS
 62
     7
 10
131.7174
 20
184.437900000000010
 11
131.7482
 21
188.481300000000000
  0
LINE
  8
PT3-Grafika_wekt5
  6
CONTINUOUS
 62
     7
 10
131.7501
 20
180.726400000000010
 11
131.7619
 21
180.726400000000010
  0
LINE
  8
PT3-Grafika_wekt5
  6
CONTINUOUS
 62
     7
 10
131.7501
 20
182.757000000000010
 11
131.7619
 21
182.757000000000010
  0
LINE
  8
PT3-Grafika_wekt5
  6
CONTINUOUS
 62
     7
 10
131.7501
 20
189.316599999999990
 11
131.7501
 21
190.411299999999980
  0
LINE
  8
PT3-Grafika_wekt5
  6
CONTINUOUS
 62
     7
 10
131.7501
 20
190.411299999999980
 11
131.7619
 21
190.411299999999980
  0
LINE
  8
PT3-Grafika_wekt5
  6
CONTINUOUS
 62
     7
 10
131.7501
 20
190.763300000000020
 11
131.7619
 21
190.763300000000020
  0
LINE
  8
PT3-Grafika_wekt5
  6
CONTINUOUS
 62
     7
 10
131.7619
 20
176.431500000000000
 11
131.7019
 21
176.431700000000010
  0
LINE
  8
PT3-Grafika_wekt5
  6
CONTINUOUS
 62
     7
 10
131.7619
 20
184.437799999999980
 11
131.7019
 21
184.437999999999990
  0
LINE
  8
PT3-Grafika_wekt5
  6
CONTINUOUS
 62
     7
 10
139.1021
 20
176.405900000000000
 11
139.4664
 21
176.404699999999990
  0
LINE
  8
PT3-Grafika_wekt5
  6
CONTINUOUS
 62
     7
 10
139.4664
 20
176.404699999999990
 11
139.4664
 21
176.406800000000000
  0
LINE
  8
PT3-Grafika_wekt5
  6
CONTINUOUS
 62
     7
 10
139.1021
 20
184.412199999999980
 11
139.4664
 21
184.410900000000000
  0
LINE
  8
PT3-Grafika_wekt5
  6
CONTINUOUS
 62
     7
 10
139.4664
 20
184.410900000000000
 11
139.4664
 21
184.413099999999990
  0
LINE
  8
PT3-Grafika_wekt5
  6
CONTINUOUS
 62
     7
 10
149.7088
 20
176.431700000000010
 11
149.757
 21
182.757000000000010
  0
LINE
  8
PT3-Grafika_wekt5
  6
CONTINUOUS
 62
     7
 10
149.757
 20
182.757000000000010
 11
149.757
 21
182.405000000000000
  0
LINE
  8
PT3-Grafika_wekt5
  6
CONTINUOUS
 62
     7
 10
149.757
 20
182.405000000000000
 11
149.7115
 21
176.431700000000010
  0
LINE
  8
PT3-Grafika_wekt5
  6
CONTINUOUS
 62
     7
 10
149.7088
 20
184.437999999999990
 11
149.757
 21
190.763300000000020
  0
LINE
  8
PT3-Grafika_wekt5
  6
CONTINUOUS
 62
     7
 10
149.757
 20
190.763300000000020
 11
149.757
 21
190.411299999999980
  0
LINE
  8
PT3-Grafika_wekt5
  6
CONTINUOUS
 62
     7
 10
149.757
 20
190.411299999999980
 11
149.7115
 21
184.437999999999990
  0
LINE
  8
PT3-Grafika_wekt5
  6
CONTINUOUS
 62
     7
 10
149.7243
 20
176.431600000000000
 11
149.757
 21
180.726400000000010
  0
LINE
  8
PT3-Grafika_wekt5
  6
CONTINUOUS
 62
     7
 10
149.757
 20
180.726400000000010
 11
149.757
 21
182.405000000000000
  0
LINE
  8
PT3-Grafika_wekt5
  6
CONTINUOUS
 62
     7
 10
149.757
 20
182.405000000000000
 11
149.7688
 21
182.405100000000000
  0
LINE
  8
PT3-Grafika_wekt5
  6
CONTINUOUS
 62
     7
 10
149.7243
 20
184.437900000000010
 11
149.7551
 21
188.481300000000000
  0
LINE
  8
PT3-Grafika_wekt5
  6
CONTINUOUS
 62
     7
 10
149.757
 20
180.726400000000010
 11
149.7688
 21
180.726400000000010
  0
LINE
  8
PT3-Grafika_wekt5
  6
CONTINUOUS
 62
     7
 10
149.757
 20
182.757000000000010
 11
149.7688
 21
182.757000000000010
  0
LINE
  8
PT3-Grafika_wekt5
  6
CONTINUOUS
 62
     7
 10
149.757
 20
189.316599999999990
 11
149.757
 21
190.411299999999980
  0
LINE
  8
PT3-Grafika_wekt5
  6
CONTINUOUS
 62
     7
 10
149.757
 20
190.411299999999980
 11
149.7688
 21
190.411299999999980
  0
LINE
  8
PT3-Grafika_wekt5
  6
CONTINUOUS
 62
     7
 10
149.757
 20
190.763300000000020
 11
149.7688
 21
190.763300000000020
  0
LINE
  8
PT3-Grafika_wekt5
  6
CONTINUOUS
 62
     7
 10
149.7688
 20
176.431500000000000
 11
149.7088
 21
176.431700000000010
  0
LINE
  8
PT3-Grafika_wekt5
  6
CONTINUOUS
 62
     7
 10
149.7688
 20
184.437799999999980
 11
149.7088
 21
184.437999999999990
  0
LINE
  8
PT3-Grafika_wekt5
  6
CONTINUOUS
 62
     7
 10
157.109
 20
176.405900000000000
 11
157.4733
 21
176.404699999999990
  0
LINE
  8
PT3-Grafika_wekt5
  6
CONTINUOUS
 62
     7
 10
157.4733
 20
176.404699999999990
 11
157.4733
 21
176.406800000000000
  0
LINE
  8
PT3-Grafika_wekt5
  6
CONTINUOUS
 62
     7
 10
157.109
 20
184.412199999999980
 11
157.4733
 21
184.410900000000000
  0
LINE
  8
PT3-Grafika_wekt5
  6
CONTINUOUS
 62
     7
 10
157.4733
 20
184.410900000000000
 11
157.4733
 21
184.413099999999990
  0
LINE
  8
PT3-Grafika_wekt5
  6
CONTINUOUS
 62
     7
 10
167.7157
 20
176.431700000000010
 11
167.764
 21
182.757000000000010
  0
LINE
  8
PT3-Grafika_wekt5
  6
CONTINUOUS
 62
     7
 10
167.764
 20
182.757000000000010
 11
167.764
 21
182.405000000000000
  0
LINE
  8
PT3-Grafika_wekt5
  6
CONTINUOUS
 62
     7
 10
167.764
 20
182.405000000000000
 11
167.7184
 21
176.431700000000010
  0
LINE
  8
PT3-Grafika_wekt5
  6
CONTINUOUS
 62
     7
 10
167.7157
 20
184.437999999999990
 11
167.764
 21
190.763300000000020
  0
LINE
  8
PT3-Grafika_wekt5
  6
CONTINUOUS
 62
     7
 10
167.764
 20
190.763300000000020
 11
167.764
 21
190.411299999999980
  0
LINE
  8
PT3-Grafika_wekt5
  6
CONTINUOUS
 62
     7
 10
167.764
 20
190.411299999999980
 11
167.7184
 21
184.437999999999990
  0
LINE
  8
PT3-Grafika_wekt5
  6
CONTINUOUS
 62
     7
 10
167.7312
 20
176.431600000000000
 11
167.764
 21
180.726400000000010
  0
LINE
  8
PT3-Grafika_wekt5
  6
CONTINUOUS
 62
     7
 10
167.764
 20
180.726400000000010
 11
167.764
 21
182.405000000000000
  0
LINE
  8
PT3-Grafika_wekt5
  6
CONTINUOUS
 62
     7
 10
167.764
 20
182.405000000000000
 11
167.7757
 21
182.405100000000000
  0
LINE
  8
PT3-Grafika_wekt5
  6
CONTINUOUS
 62
     7
 10
167.7312
 20
184.437900000000010
 11
167.762
 21
188.481300000000000
  0
LINE
  8
PT3-Grafika_wekt5
  6
CONTINUOUS
 62
     7
 10
167.764
 20
180.726400000000010
 11
167.7757
 21
180.726400000000010
  0
LINE
  8
PT3-Grafika_wekt5
  6
CONTINUOUS
 62
     7
 10
167.764
 20
182.757000000000010
 11
167.7757
 21
182.757000000000010
  0
LINE
  8
PT3-Grafika_wekt5
  6
CONTINUOUS
 62
     7
 10
167.764
 20
189.316599999999990
 11
167.764
 21
190.411299999999980
  0
LINE
  8
PT3-Grafika_wekt5
  6
CONTINUOUS
 62
     7
 10
167.764
 20
190.411299999999980
 11
167.7757
 21
190.411299999999980
  0
LINE
  8
PT3-Grafika_wekt5
  6
CONTINUOUS
 62
     7
 10
167.764
 20
190.763300000000020
 11
167.7757
 21
190.763300000000020
  0
LINE
  8
PT3-Grafika_wekt5
  6
CONTINUOUS
 62
     7
 10
167.7757
 20
176.431500000000000
 11
167.7157
 21
176.431700000000010
  0
LINE
  8
PT3-Grafika_wekt5
  6
CONTINUOUS
 62
     7
 10
167.7757
 20
184.437799999999980
 11
167.7157
 21
184.437999999999990
  0
LINE
  8
PT3-Grafika_wekt5
  6
CONTINUOUS
 62
     7
 10
175.1159
 20
176.405900000000000
 11
175.4802
 21
176.404699999999990
  0
LINE
  8
PT3-Grafika_wekt5
  6
CONTINUOUS
 62
     7
 10
175.4802
 20
176.404699999999990
 11
175.4802
 21
176.406800000000000
  0
LINE
  8
PT3-Grafika_wekt5
  6
CONTINUOUS
 62
     7
 10
175.1159
 20
184.412199999999980
 11
175.4802
 21
184.410900000000000
  0
LINE
  8
PT3-Grafika_wekt5
  6
CONTINUOUS
 62
     7
 10
175.4802
 20
184.410900000000000
 11
175.4802
 21
184.413099999999990
  0
LINE
  8
PT3-Grafika_wekt5
  6
CONTINUOUS
 62
     7
 10
177.7926
 20
183.812299999999990
 11
177.9684
 21
183.387800000000000
  0
LINE
  8
PT3-Grafika_wekt5
  6
CONTINUOUS
 62
     7
 10
177.9684
 20
183.387800000000000
 11
178.3929
 21
183.211900000000010
  0
LINE
  8
PT3-Grafika_wekt5
  6
CONTINUOUS
 62
     7
 10
178.3929
 20
183.211900000000010
 11
178.8173
 21
183.387800000000000
  0
LINE
  8
PT3-Grafika_wekt5
  6
CONTINUOUS
 62
     7
 10
178.8173
 20
183.387800000000000
 11
178.9931
 21
183.812299999999990
  0
LINE
  8
PT3-Grafika_wekt5
  6
CONTINUOUS
 62
     7
 10
178.9931
 20
183.812299999999990
 11
177.7926
 21
183.812299999999990
  0
LINE
  8
PT3-Grafika_wekt5
  6
CONTINUOUS
 62
     7
 10
179.0931
 20
183.412100000000010
 11
179.0931
 21
183.612200000000000
  0
LINE
  8
PT3-Grafika_wekt5
  6
CONTINUOUS
 62
     7
 10
179.0931
 20
183.612200000000000
 11
199.1008
 21
196.610500000000000
  0
LINE
  8
PT3-Grafika_wekt5
  6
CONTINUOUS
 62
     7
 10
199.1008
 20
196.610500000000000
 11
199.1008
 21
196.410399999999980
  0
LINE
  8
PT3-Grafika_wekt5
  6
CONTINUOUS
 62
     7
 10
199.1008
 20
196.410399999999980
 11
179.0931
 21
183.412100000000010
  0
LINE
  8
PT3-Grafika_wekt5
  6
CONTINUOUS
 62
     7
 10
179.0931
 20
183.412100000000010
 11
179.1639
 21
183.482900000000000
  0
LINE
  8
PT3-Grafika_wekt5
  6
CONTINUOUS
 62
     7
 10
179.1639
 20
183.482900000000000
 11
179.1789
 21
183.467800000000010
  0
LINE
  8
PT3-Grafika_wekt5
  6
CONTINUOUS
 62
     7
 10
179.942
 20
182.562900000000010
 11
179.0931
 21
183.412100000000010
  0
LINE
  8
PT3-Grafika_wekt5
  6
CONTINUOUS
 62
     7
 10
179.942
 20
182.562900000000010
 11
199.1008
 21
195.009700000000010
  0
LINE
  8
PT3-Grafika_wekt5
  6
CONTINUOUS
 62
     7
 10
199.1008
 20
195.009700000000010
 11
199.1008
 21
196.410399999999980
  0
LINE
  8
PT3-Grafika_wekt5
  6
CONTINUOUS
 62
     7
 10
199.1008
 20
196.410399999999980
 11
219.1085
 21
183.412100000000010
  0
LINE
  8
PT3-Grafika_wekt5
  6
CONTINUOUS
 62
     7
 10
219.1085
 20
183.412100000000010
 11
218.2596
 21
182.562900000000010
  0
LINE
  8
PT3-Grafika_wekt5
  6
CONTINUOUS
 62
     7
 10
218.2596
 20
182.562900000000010
 11
199.1008
 21
195.009700000000010
  0
LINE
  8
PT3-Grafika_wekt5
  6
CONTINUOUS
 62
     7
 10
180.6654
 20
183.032899999999980
 11
182.0942
 21
183.763499999999990
  0
LINE
  8
PT3-Grafika_wekt5
  6
CONTINUOUS
 62
     7
 10
182.0942
 20
183.763499999999990
 11
182.0942
 21
183.663400000000000
  0
LINE
  8
PT3-Grafika_wekt5
  6
CONTINUOUS
 62
     7
 10
182.0942
 20
183.663400000000000
 11
179.942
 21
182.562900000000010
  0
LINE
  8
PT3-Grafika_wekt5
  6
CONTINUOUS
 62
     7
 10
182.0942
 20
164.458900000000000
 11
214.3055
 21
164.458900000000000
  0
LINE
  8
PT3-Grafika_wekt5
  6
CONTINUOUS
 62
     7
 10
199.1008
 20
196.610500000000000
 11
219.1085
 21
183.612200000000000
  0
LINE
  8
PT3-Grafika_wekt5
  6
CONTINUOUS
 62
     7
 10
219.1085
 20
183.612200000000000
 11
219.1085
 21
183.412100000000010
  0
LINE
  8
PT3-Grafika_wekt5
  6
CONTINUOUS
 62
     7
 10
219.1085
 20
183.412100000000010
 11
219.1792
 21
183.341299999999990
  0
LINE
  8
PT3-Grafika_wekt5
  6
CONTINUOUS
 62
     7
 10
219.1792
 20
183.341299999999990
 11
218.3304
 21
182.492099999999990
  0
LINE
  8
PT3-Grafika_wekt5
  6
CONTINUOUS
 62
     7
 10
218.3304
 20
182.492099999999990
 11
218.2596
 21
182.562900000000010
  0
LINE
  8
PT3-Grafika_wekt5
  6
CONTINUOUS
 62
     7
 10
218.2596
 20
182.562900000000010
 11
216.1073
 21
183.663400000000000
  0
LINE
  8
PT3-Grafika_wekt5
  6
CONTINUOUS
 62
     7
 10
216.1073
 20
183.663400000000000
 11
216.1073
 21
183.763499999999990
  0
LINE
  8
PT3-Grafika_wekt5
  6
CONTINUOUS
 62
     7
 10
216.1073
 20
183.763499999999990
 11
217.5362
 21
183.032899999999980
  0
LINE
  8
PT3-Grafika_wekt5
  6
CONTINUOUS
 62
     7
 10
205.3591
 20
161.209299999999980
 11
214.3055
 21
161.209299999999980
  0
LINE
  8
PT3-Grafika_wekt5
  6
CONTINUOUS
 62
     7
 10
219.2085
 20
183.812299999999990
 11
219.3844
 21
183.387800000000000
  0
LINE
  8
PT3-Grafika_wekt5
  6
CONTINUOUS
 62
     7
 10
219.3844
 20
183.387800000000000
 11
219.8087
 21
183.211900000000010
  0
LINE
  8
PT3-Grafika_wekt5
  6
CONTINUOUS
 62
     7
 10
219.8087
 20
183.211900000000010
 11
220.2331
 21
183.387800000000000
  0
LINE
  8
PT3-Grafika_wekt5
  6
CONTINUOUS
 62
     7
 10
220.2331
 20
183.387800000000000
 11
220.409
 21
183.812299999999990
  0
LINE
  8
PT3-Grafika_wekt5
  6
CONTINUOUS
 62
     7
 10
220.409
 20
183.812299999999990
 11
219.2085
 21
183.812299999999990
  0
LINE
  8
PT3-Grafika_wekt5
  6
CONTINUOUS
 62
     7
 10
224.2905
 20
161.209299999999980
 11
242.6175
 21
161.209299999999980
  0
LINE
  8
PT3-Grafika_wekt5
  6
CONTINUOUS
 62
     7
 10
242.6175
 20
161.209299999999980
 11
242.6175
 21
161.038000000000010
  0
LINE
  8
PT3-Grafika_wekt5
  6
CONTINUOUS
 62
     7
 10
244.4589
 20
162.405599999999990
 11
247.6195
 21
164.459000000000000
  0
LINE
  8
PT3-Grafika_wekt5
  6
CONTINUOUS
 62
     7
 10
361.8632
 20
160.909200000000000
 11
361.8632
 21
160.809000000000000
  0
LINE
  8
PT3-Grafika_wekt5
  6
CONTINUOUS
 62
     7
 10
279.5659
 20
185.213500000000010
 11
280.2319
 21
185.646099999999990
  0
LINE
  8
PT3-Grafika_wekt5
  6
CONTINUOUS
 62
     7
 10
356.8613
 20
160.809000000000000
 11
363.1637
 21
160.809000000000000
  0
LINE
  8
PT3-Grafika_wekt5
  6
CONTINUOUS
 62
     7
 10
363.1637
 20
160.809000000000000
 11
362.9879
 21
160.384400000000000
  0
LINE
  8
PT3-Grafika_wekt5
  6
CONTINUOUS
 62
     7
 10
362.9879
 20
160.384400000000000
 11
362.5635
 21
160.208599999999990
  0
LINE
  8
PT3-Grafika_wekt5
  6
CONTINUOUS
 62
     7
 10
362.5635
 20
160.208599999999990
 11
356.8613
 21
160.208599999999990
  0
LINE
  8
PT3-Grafika_wekt5
  6
CONTINUOUS
 62
     7
 10
304.9937
 20
201.733000000000000
 11
335.8032
 21
221.749000000000000
  0
LINE
  8
PT3-Grafika_wekt5
  6
CONTINUOUS
 62
     7
 10
335.8032
 20
221.749000000000000
 11
428.9889
 21
161.209299999999980
  0
LINE
  8
PT3-Grafika_wekt5
  6
CONTINUOUS
 62
     7
 10
428.9889
 20
161.209299999999980
 11
356.8613
 21
161.209299999999980
  0
LINE
  8
PT3-Grafika_wekt5
  6
CONTINUOUS
 62
     7
 10
356.8613
 20
159.859700000000000
 11
361.0143
 21
159.859700000000000
  0
LINE
  8
PT3-Grafika_wekt5
  6
CONTINUOUS
 62
     7
 10
361.0143
 20
159.859700000000000
 11
361.1752
 21
160.020600000000000
  0
LINE
  8
PT3-Grafika_wekt5
  6
CONTINUOUS
 62
     7
 10
356.8613
 20
164.458900000000000
 11
361.8632
 21
161.209299999999980
  0
LINE
  8
PT3-Grafika_wekt5
  6
CONTINUOUS
 62
     7
 10
361.8632
 20
161.209299999999980
 11
361.8632
 21
160.909200000000000
  0
LINE
  8
PT3-Grafika_wekt5
  6
CONTINUOUS
 62
     7
 10
361.8632
 20
160.909200000000000
 11
428.9889
 21
160.909200000000000
  0
LINE
  8
PT3-Grafika_wekt5
  6
CONTINUOUS
 62
     7
 10
428.9889
 20
160.909200000000000
 11
428.9889
 21
160.809000000000000
  0
LINE
  8
PT3-Grafika_wekt5
  6
CONTINUOUS
 62
     7
 10
344.4565
 20
216.127099999999980
 11
372.1672
 21
216.127099999999980
  0
LINE
  8
PT3-Grafika_wekt5
  6
CONTINUOUS
 62
     7
 10
372.1672
 20
216.127099999999980
 11
381.57
 21
210.018500000000020
  0
LINE
  8
PT3-Grafika_wekt5
  6
CONTINUOUS
 62
     7
 10
361.0143
 20
159.859700000000000
 11
428.1401
 21
159.859700000000000
  0
LINE
  8
PT3-Grafika_wekt5
  6
CONTINUOUS
 62
     7
 10
428.1401
 20
159.859700000000000
 11
428.4887
 21
160.208599999999990
  0
LINE
  8
PT3-Grafika_wekt5
  6
CONTINUOUS
 62
     7
 10
361.3231
 20
160.168600000000000
 11
361.363
 21
160.208599999999990
  0
LINE
  8
PT3-Grafika_wekt5
  6
CONTINUOUS
 62
     7
 10
361.363
 20
160.208599999999990
 11
361.3629
 21
160.208399999999980
  0
LINE
  8
PT3-Grafika_wekt5
  6
CONTINUOUS
 62
     7
 10
362.5635
 20
160.208599999999990
 11
429.6891
 21
160.208599999999990
  0
LINE
  8
PT3-Grafika_wekt5
  6
CONTINUOUS
 62
     7
 10
429.6891
 20
160.208599999999990
 11
430.1137
 21
160.384400000000000
  0
LINE
  8
PT3-Grafika_wekt5
  6
CONTINUOUS
 62
     7
 10
430.1137
 20
160.384400000000000
 11
430.2894
 21
160.809000000000000
  0
LINE
  8
PT3-Grafika_wekt5
  6
CONTINUOUS
 62
     7
 10
430.2894
 20
160.809000000000000
 11
363.1637
 21
160.809000000000000
  0
LINE
  8
PT3-Grafika_wekt5
  6
CONTINUOUS
 62
     7
 10
363.1637
 20
160.809000000000000
 11
457.9
 21
160.809000000000000
  0
LINE
  8
PT3-Grafika_wekt5
  6
CONTINUOUS
 62
     7
 10
386.0717
 20
207.093899999999990
 11
456.6996
 21
161.209299999999980
  0
LINE
  8
PT3-Grafika_wekt5
  6
CONTINUOUS
 62
     7
 10
456.6996
 20
161.209299999999980
 11
428.9889
 21
161.209299999999980
  0
LINE
  8
PT3-Grafika_wekt5
  6
CONTINUOUS
 62
     7
 10
428.9889
 20
161.209299999999980
 11
428.9889
 21
160.909200000000000
  0
LINE
  8
PT3-Grafika_wekt5
  6
CONTINUOUS
 62
     7
 10
428.9889
 20
160.909200000000000
 11
456.6996
 21
160.909200000000000
  0
LINE
  8
PT3-Grafika_wekt5
  6
CONTINUOUS
 62
     7
 10
456.6996
 20
160.909200000000000
 11
456.6996
 21
160.809000000000000
  0
LINE
  8
PT3-Grafika_wekt5
  6
CONTINUOUS
 62
     7
 10
421.9077
 20
183.812299999999990
 11
454.6987
 21
183.812299999999990
  0
LINE
  8
PT3-Grafika_wekt5
  6
CONTINUOUS
 62
     7
 10
454.6987
 20
183.812299999999990
 11
454.6987
 21
183.211900000000010
  0
LINE
  8
PT3-Grafika_wekt5
  6
CONTINUOUS
 62
     7
 10
454.6987
 20
183.211900000000010
 11
422.8321
 21
183.211900000000010
  0
LINE
  8
PT3-Grafika_wekt5
  6
CONTINUOUS
 62
     7
 10
423.831
 20
182.562900000000010
 11
451.6976
 21
182.562900000000010
  0
LINE
  8
PT3-Grafika_wekt5
  6
CONTINUOUS
 62
     7
 10
451.6976
 20
182.562900000000010
 11
451.6976
 21
183.211900000000010
  0
LINE
  8
PT3-Grafika_wekt5
  6
CONTINUOUS
 62
     7
 10
428.1401
 20
159.859700000000000
 11
455.8507
 21
159.859700000000000
  0
LINE
  8
PT3-Grafika_wekt5
  6
CONTINUOUS
 62
     7
 10
455.8507
 20
159.859700000000000
 11
456.1993
 21
160.208599999999990
  0
LINE
  8
PT3-Grafika_wekt5
  6
CONTINUOUS
 62
     7
 10
429.6891
 20
160.208599999999990
 11
457.3998
 21
160.208599999999990
  0
LINE
  8
PT3-Grafika_wekt5
  6
CONTINUOUS
 62
     7
 10
457.3998
 20
160.208599999999990
 11
457.8242
 21
160.384400000000000
  0
LINE
  8
PT3-Grafika_wekt5
  6
CONTINUOUS
 62
     7
 10
457.8242
 20
160.384400000000000
 11
458
 21
160.809000000000000
  0
LINE
  8
PT3-Grafika_wekt5
  6
CONTINUOUS
 62
     7
 10
458
 20
160.809000000000000
 11
430.2894
 21
160.809000000000000
  0
LINE
  8
PT3-Grafika_wekt5
  6
CONTINUOUS
 62
     7
 10
451.6976
 20
164.458900000000000
 11
456.6996
 21
161.209299999999980
  0
LINE
  8
PT3-Grafika_wekt5
  6
CONTINUOUS
 62
     7
 10
456.6996
 20
161.209299999999980
 11
456.6996
 21
160.909200000000000
  0
LINE
  8
PT3-Grafika_wekt5
  6
CONTINUOUS
 62
     7
 10
451.6976
 20
182.492099999999990
 11
454.6987
 21
182.492099999999990
  0
LINE
  8
PT3-Grafika_wekt5
  6
CONTINUOUS
 62
     7
 10
454.6987
 20
182.492099999999990
 11
454.6987
 21
182.562900000000010
  0
LINE
  8
PT3-Grafika_wekt5
  6
CONTINUOUS
 62
     7
 10
454.6987
 20
182.562900000000010
 11
451.6976
 21
182.562900000000010
  0
LINE
  8
PT3-Grafika_wekt5
  6
CONTINUOUS
 62
     7
 10
454.6487
 20
182.562900000000010
 11
454.6487
 21
183.211900000000010
  0
LINE
  8
PT3-Grafika_wekt5
  6
CONTINUOUS
 62
     7
 10
454.6737
 20
183.211900000000010
 11
454.6737
 21
183.812299999999990
  0
LINE
  8
PT3-Grafika_wekt5
  6
CONTINUOUS
 62
     7
 10
454.6737
 20
183.812299999999990
 11
454.7238
 21
183.812299999999990
  0
LINE
  8
PT3-Grafika_wekt5
  6
CONTINUOUS
 62
     7
 10
454.7238
 20
183.812299999999990
 11
454.7238
 21
183.387800000000000
  0
LINE
  8
PT3-Grafika_wekt5
  6
CONTINUOUS
 62
     7
 10
454.7238
 20
183.387800000000000
 11
454.6737
 21
183.387800000000000
  0
LINE
  8
PT3-Grafika_wekt5
  6
CONTINUOUS
 62
     7
 10
454.6987
 20
182.562900000000010
 11
454.6987
 21
183.211900000000010
  0
LINE
  8
PT3-Grafika_wekt5
  6
CONTINUOUS
 62
     7
 10
454.6987
 20
195.110500000000000
 11
454.7488
 21
195.110500000000000
  0
LINE
  8
PT3-Grafika_wekt5
  6
CONTINUOUS
 62
     7
 10
454.7488
 20
195.110500000000000
 11
454.7488
 21
183.412100000000010
  0
LINE
  8
PT3-Grafika_wekt5
  6
CONTINUOUS
 62
     7
 10
454.7488
 20
183.412100000000010
 11
454.7238
 21
183.412100000000010
  0
LINE
  8
PT3-Grafika_wekt5
  6
CONTINUOUS
 62
     7
 10
454.7238
 20
183.211900000000010
 11
454.6737
 21
183.211900000000010
  0
LINE
  8
PT3-Grafika_wekt5
  6
CONTINUOUS
 62
     7
 10
454.7238
 20
183.387800000000000
 11
454.7238
 21
183.211900000000010
  0
LINE
  8
PT3-Grafika_wekt5
  6
CONTINUOUS
 62
     7
 10
454.7488
 20
182.562900000000010
 11
454.6487
 21
182.562900000000010
  0
LINE
  8
PT3-Grafika_wekt5
  6
CONTINUOUS
 62
     7
 10
454.7488
 20
183.412100000000010
 11
454.7488
 21
182.562900000000010
  0
LINE
  8
PT3-Grafika_wekt5
  6
CONTINUOUS
 62
     7
 10
391.8742
 20
203.324200000000020
 11
391.8742
 21
210.233000000000000
  0
LINE
  8
PT3-Grafika_wekt5
  6
CONTINUOUS
 62
     7
 10
391.8742
 20
210.233000000000000
 11
398.2766
 21
210.233000000000000
  0
LINE
  8
PT3-Grafika_wekt5
  6
CONTINUOUS
 62
     7
 10
398.2766
 20
210.233000000000000
 11
398.2766
 21
199.164699999999980
  0
LINE
  8
PT3-Grafika_wekt5
  6
CONTINUOUS
 62
     7
 10
131.7439
 20
187.915599999999980
 11
131.755
 21
187.915599999999980
  0
LINE
  8
PT3-Grafika_wekt5
  6
CONTINUOUS
 62
     7
 10
131.7501
 20
189.316599999999990
 11
131.7619
 21
189.316599999999990
  0
LINE
  8
PT3-Grafika_wekt5
  6
CONTINUOUS
 62
     7
 10
149.7508
 20
187.915599999999980
 11
149.7619
 21
187.915599999999980
  0
LINE
  8
PT3-Grafika_wekt5
  6
CONTINUOUS
 62
     7
 10
149.757
 20
189.316599999999990
 11
149.7688
 21
189.316599999999990
  0
LINE
  8
PT3-Grafika_wekt5
  6
CONTINUOUS
 62
     7
 10
167.7577
 20
187.915599999999980
 11
167.7688
 21
187.915599999999980
  0
LINE
  8
PT3-Grafika_wekt5
  6
CONTINUOUS
 62
     7
 10
167.7639
 20
189.316599999999990
 11
167.7757
 21
189.316599999999990
  0
LINE
  8
PT3-Grafika_wekt5
  6
CONTINUOUS
 62
     7
 10
180.1962
 20
182.692900000000010
 11
180.5576
 21
182.692900000000010
  0
LINE
  8
PT3-Grafika_wekt5
  6
CONTINUOUS
 62
     7
 10
180.5576
 20
182.692900000000010
 11
181.8935
 21
183.560800000000000
  0
LINE
  8
PT3-Grafika_wekt5
  6
CONTINUOUS
 62
     7
 10
216.3082
 20
183.560800000000000
 11
217.644
 21
182.692900000000010
  0
LINE
  8
PT3-Grafika_wekt5
  6
CONTINUOUS
 62
     7
 10
217.644
 20
182.692900000000010
 11
218.0054
 21
182.692900000000010
  0
LINE
  8
PT3-Grafika_wekt5
  6
CONTINUOUS
 62
     7
 10
360.3531
 20
160.020600000000000
 11
360.3985
 21
160.020600000000000
  0
LINE
  8
PT3-Grafika_wekt5
  6
CONTINUOUS
 62
     7
 10
360.3985
 20
160.020600000000000
 11
360.5011
 21
160.168600000000000
  0
LINE
  8
PT3-Grafika_wekt5
  6
CONTINUOUS
 62
     7
 10
360.3985
 20
160.020600000000000
 11
361.2204
 21
160.020600000000000
  0
LINE
  8
PT3-Grafika_wekt5
  6
CONTINUOUS
 62
     7
 10
361.2204
 20
160.020600000000000
 11
361.3232
 21
160.168700000000000
  0
LINE
  8
PT3-Grafika_wekt5
  6
CONTINUOUS
 62
     7
 10
361.3062
 20
159.859700000000000
 11
361.463
 21
159.757900000000010
  0
LINE
  8
PT3-Grafika_wekt5
  6
CONTINUOUS
 62
     7
 10
361.463
 20
159.757900000000010
 11
361.463
 21
159.859700000000000
  0
LINE
  8
PT3-Grafika_wekt5
  6
CONTINUOUS
 62
     7
 10
279.4647
 20
161.209299999999980
 11
279.4647
 21
185.213500000000010
  0
LINE
  8
PT3-Grafika_wekt5
  6
CONTINUOUS
 62
     7
 10
279.4647
 20
185.213500000000010
 11
291.5125
 21
185.213500000000010
  0
LINE
  8
PT3-Grafika_wekt5
  6
CONTINUOUS
 62
     7
 10
291.5125
 20
185.213500000000010
 11
291.5125
 21
160.155500000000020
  0
LINE
  8
PT3-Grafika_wekt5
  6
CONTINUOUS
 62
     7
 10
291.5125
 20
185.213500000000010
 11
293.1257
 21
185.213500000000010
  0
LINE
  8
PT3-Grafika_wekt5
  6
CONTINUOUS
 62
     7
 10
293.1257
 20
185.213500000000010
 11
293.1257
 21
159.859700000000000
  0
LINE
  8
PT3-Grafika_wekt5
  6
CONTINUOUS
 62
     7
 10
75.2638
 20
195.911200000000010
 11
75.2638
 21
200.225200000000000
  0
LINE
  8
PT3-Grafika_wekt5
  6
CONTINUOUS
 62
     7
 10
75.2638
 20
200.225200000000000
 11
94.6713
 21
200.225200000000000
  0
LINE
  8
PT3-Grafika_wekt5
  6
CONTINUOUS
 62
     7
 10
94.6713
 20
200.225200000000000
 11
94.6713
 21
197.351400000000010
  0
LINE
  8
PT3-Grafika_wekt5
  6
CONTINUOUS
 62
     7
 10
280.2319
 20
185.213500000000010
 11
280.2319
 21
195.221299999999990
  0
LINE
  8
PT3-Grafika_wekt5
  6
CONTINUOUS
 62
     7
 10
280.2319
 20
195.221299999999990
 11
289.2353
 21
195.221299999999990
  0
LINE
  8
PT3-Grafika_wekt5
  6
CONTINUOUS
 62
     7
 10
289.2353
 20
195.221299999999990
 11
289.2353
 21
185.213500000000010
  0
LINE
  8
PT3-Grafika_wekt5
  6
CONTINUOUS
 62
     7
 10
73.1226
 20
99.346300000000014
 11
73.1226
 21
99.646600000000007
  0
LINE
  8
PT3-Grafika_wekt5
  6
CONTINUOUS
 62
     7
 10
73.1226
 20
99.646600000000007
 11
89.7289
 21
99.646600000000007
  0
LINE
  8
PT3-Grafika_wekt5
  6
CONTINUOUS
 62
     7
 10
89.7289
 20
99.646600000000007
 11
89.7289
 21
99.346300000000014
  0
LINE
  8
PT3-Grafika_wekt5
  6
CONTINUOUS
 62
     7
 10
89.7289
 20
99.346300000000014
 11
73.1226
 21
99.346300000000014
  0
LINE
  8
PT3-Grafika_wekt5
  6
CONTINUOUS
 62
     7
 10
73.1226
 20
100.146999999999990
 11
73.3226
 21
100.347199999999990
  0
LINE
  8
PT3-Grafika_wekt5
  6
CONTINUOUS
 62
     7
 10
73.3226
 20
100.347199999999990
 11
73.3226
 21
118.661499999999990
  0
LINE
  8
PT3-Grafika_wekt5
  6
CONTINUOUS
 62
     7
 10
73.3226
 20
118.661499999999990
 11
73.1226
 21
118.861600000000010
  0
LINE
  8
PT3-Grafika_wekt5
  6
CONTINUOUS
 62
     7
 10
73.3226
 20
100.347199999999990
 11
89.5288
 21
100.347199999999990
  0
LINE
  8
PT3-Grafika_wekt5
  6
CONTINUOUS
 62
     7
 10
89.5288
 20
100.347199999999990
 11
89.5288
 21
111.656000000000010
  0
LINE
  8
PT3-Grafika_wekt5
  6
CONTINUOUS
 62
     7
 10
89.5288
 20
111.656000000000010
 11
73.3226
 21
111.656000000000010
  0
LINE
  8
PT3-Grafika_wekt5
  6
CONTINUOUS
 62
     7
 10
73.3226
 20
112.356500000000010
 11
89.5288
 21
112.356500000000010
  0
LINE
  8
PT3-Grafika_wekt5
  6
CONTINUOUS
 62
     7
 10
89.5288
 20
112.356500000000010
 11
89.5288
 21
118.661499999999990
  0
LINE
  8
PT3-Grafika_wekt5
  6
CONTINUOUS
 62
     7
 10
89.5288
 20
118.661499999999990
 11
73.3226
 21
118.661499999999990
  0
LINE
  8
PT3-Grafika_wekt5
  6
CONTINUOUS
 62
     7
 10
81.0255
 20
100.347199999999990
 11
81.0255
 21
111.656000000000010
  0
LINE
  8
PT3-Grafika_wekt5
  6
CONTINUOUS
 62
     7
 10
81.8259
 20
100.347199999999990
 11
81.8259
 21
111.656000000000010
  0
LINE
  8
PT3-Grafika_wekt5
  6
CONTINUOUS
 62
     7
 10
89.5288
 20
100.347199999999990
 11
89.5288
 21
118.661499999999990
  0
LINE
  8
PT3-Grafika_wekt5
  6
CONTINUOUS
 62
     7
 10
89.5288
 20
118.661499999999990
 11
89.7289
 21
118.861600000000010
  0
LINE
  8
PT3-Grafika_wekt5
  6
CONTINUOUS
 62
     7
 10
89.7289
 20
100.146999999999990
 11
89.5288
 21
100.347199999999990
  0
LINE
  8
PT3-Grafika_wekt5
  6
CONTINUOUS
 62
     7
 10
95.8812
 20
99.346300000000014
 11
95.8812
 21
99.646600000000007
  0
LINE
  8
PT3-Grafika_wekt5
  6
CONTINUOUS
 62
     7
 10
95.8812
 20
99.646600000000007
 11
112.4876
 21
99.646600000000007
  0
LINE
  8
PT3-Grafika_wekt5
  6
CONTINUOUS
 62
     7
 10
112.4876
 20
99.646600000000007
 11
112.4876
 21
99.346300000000014
  0
LINE
  8
PT3-Grafika_wekt5
  6
CONTINUOUS
 62
     7
 10
112.4876
 20
99.346300000000014
 11
95.8812
 21
99.346300000000014
  0
LINE
  8
PT3-Grafika_wekt5
  6
CONTINUOUS
 62
     7
 10
95.8812
 20
100.146999999999990
 11
96.0814
 21
100.347199999999990
  0
LINE
  8
PT3-Grafika_wekt5
  6
CONTINUOUS
 62
     7
 10
96.0814
 20
100.347199999999990
 11
96.0814
 21
118.661499999999990
  0
LINE
  8
PT3-Grafika_wekt5
  6
CONTINUOUS
 62
     7
 10
96.0814
 20
118.661499999999990
 11
95.8812
 21
118.861600000000010
  0
LINE
  8
PT3-Grafika_wekt5
  6
CONTINUOUS
 62
     7
 10
96.0814
 20
100.347199999999990
 11
112.2876
 21
100.347199999999990
  0
LINE
  8
PT3-Grafika_wekt5
  6
CONTINUOUS
 62
     7
 10
112.2876
 20
100.347199999999990
 11
112.2876
 21
111.656000000000010
  0
LINE
  8
PT3-Grafika_wekt5
  6
CONTINUOUS
 62
     7
 10
112.2876
 20
111.656000000000010
 11
96.0814
 21
111.656000000000010
  0
LINE
  8
PT3-Grafika_wekt5
  6
CONTINUOUS
 62
     7
 10
96.0814
 20
112.356500000000010
 11
112.2876
 21
112.356500000000010
  0
LINE
  8
PT3-Grafika_wekt5
  6
CONTINUOUS
 62
     7
 10
112.2876
 20
112.356500000000010
 11
112.2876
 21
118.661499999999990
  0
LINE
  8
PT3-Grafika_wekt5
  6
CONTINUOUS
 62
     7
 10
112.2876
 20
118.661499999999990
 11
96.0814
 21
118.661499999999990
  0
LINE
  8
PT3-Grafika_wekt5
  6
CONTINUOUS
 62
     7
 10
103.7843
 20
100.347199999999990
 11
103.7843
 21
111.656000000000010
  0
LINE
  8
PT3-Grafika_wekt5
  6
CONTINUOUS
 62
     7
 10
104.5846
 20
100.347199999999990
 11
104.5846
 21
111.656000000000010
  0
LINE
  8
PT3-Grafika_wekt5
  6
CONTINUOUS
 62
     7
 10
112.2876
 20
100.347199999999990
 11
112.2876
 21
118.661499999999990
  0
LINE
  8
PT3-Grafika_wekt5
  6
CONTINUOUS
 62
     7
 10
112.2876
 20
118.661499999999990
 11
112.4876
 21
118.861600000000010
  0
LINE
  8
PT3-Grafika_wekt5
  6
CONTINUOUS
 62
     7
 10
112.4876
 20
100.146999999999990
 11
112.2876
 21
100.347199999999990
  0
LINE
  8
PT3-Grafika_wekt5
  6
CONTINUOUS
 62
     7
 10
43.5412
 20
99.346300000000014
 11
43.5412
 21
99.646600000000007
  0
LINE
  8
PT3-Grafika_wekt5
  6
CONTINUOUS
 62
     7
 10
43.5412
 20
99.646600000000007
 11
44.0413
 21
99.646600000000007
  0
LINE
  8
PT3-Grafika_wekt5
  6
CONTINUOUS
 62
     7
 10
44.0413
 20
99.346300000000014
 11
43.5412
 21
99.346300000000014
  0
LINE
  8
PT3-Grafika_wekt5
  6
CONTINUOUS
 62
     7
 10
50.3638
 20
99.346300000000014
 11
50.3638
 21
99.646600000000007
  0
LINE
  8
PT3-Grafika_wekt5
  6
CONTINUOUS
 62
     7
 10
50.3638
 20
99.646600000000007
 11
66.9702
 21
99.646600000000007
  0
LINE
  8
PT3-Grafika_wekt5
  6
CONTINUOUS
 62
     7
 10
66.9702
 20
99.646600000000007
 11
66.9702
 21
99.346300000000014
  0
LINE
  8
PT3-Grafika_wekt5
  6
CONTINUOUS
 62
     7
 10
66.9702
 20
99.346300000000014
 11
50.3638
 21
99.346300000000014
  0
LINE
  8
PT3-Grafika_wekt5
  6
CONTINUOUS
 62
     7
 10
50.3638
 20
100.146999999999990
 11
50.5639
 21
100.347199999999990
  0
LINE
  8
PT3-Grafika_wekt5
  6
CONTINUOUS
 62
     7
 10
50.5639
 20
100.347199999999990
 11
50.5639
 21
118.661499999999990
  0
LINE
  8
PT3-Grafika_wekt5
  6
CONTINUOUS
 62
     7
 10
50.5639
 20
118.661499999999990
 11
50.3638
 21
118.861600000000010
  0
LINE
  8
PT3-Grafika_wekt5
  6
CONTINUOUS
 62
     7
 10
50.5639
 20
100.347199999999990
 11
66.7701
 21
100.347199999999990
  0
LINE
  8
PT3-Grafika_wekt5
  6
CONTINUOUS
 62
     7
 10
66.7701
 20
100.347199999999990
 11
66.7701
 21
111.656000000000010
  0
LINE
  8
PT3-Grafika_wekt5
  6
CONTINUOUS
 62
     7
 10
66.7701
 20
111.656000000000010
 11
50.5639
 21
111.656000000000010
  0
LINE
  8
PT3-Grafika_wekt5
  6
CONTINUOUS
 62
     7
 10
50.5639
 20
112.356500000000010
 11
66.7701
 21
112.356500000000010
  0
LINE
  8
PT3-Grafika_wekt5
  6
CONTINUOUS
 62
     7
 10
66.7701
 20
112.356500000000010
 11
66.7701
 21
118.661499999999990
  0
LINE
  8
PT3-Grafika_wekt5
  6
CONTINUOUS
 62
     7
 10
66.7701
 20
118.661499999999990
 11
50.5639
 21
118.661499999999990
  0
LINE
  8
PT3-Grafika_wekt5
  6
CONTINUOUS
 62
     7
 10
58.2668
 20
100.347199999999990
 11
58.2668
 21
111.656000000000010
  0
LINE
  8
PT3-Grafika_wekt5
  6
CONTINUOUS
 62
     7
 10
59.0671
 20
100.347199999999990
 11
59.0671
 21
111.656000000000010
  0
LINE
  8
PT3-Grafika_wekt5
  6
CONTINUOUS
 62
     7
 10
66.7701
 20
100.347199999999990
 11
66.7701
 21
118.661499999999990
  0
LINE
  8
PT3-Grafika_wekt5
  6
CONTINUOUS
 62
     7
 10
66.7701
 20
118.661499999999990
 11
66.9702
 21
118.861600000000010
  0
LINE
  8
PT3-Grafika_wekt5
  6
CONTINUOUS
 62
     7
 10
66.9702
 20
100.146999999999990
 11
66.7701
 21
100.347199999999990
  0
LINE
  8
PT3-Grafika_wekt5
  6
CONTINUOUS
 62
     7
 10
406.3502
 20
99.346300000000014
 11
406.3502
 21
99.646600000000007
  0
LINE
  8
PT3-Grafika_wekt5
  6
CONTINUOUS
 62
     7
 10
406.3502
 20
99.646600000000007
 11
407.0505
 21
100.347199999999990
  0
LINE
  8
PT3-Grafika_wekt5
  6
CONTINUOUS
 62
     7
 10
407.0505
 20
100.347199999999990
 11
407.0505
 21
116.659899999999990
  0
LINE
  8
PT3-Grafika_wekt5
  6
CONTINUOUS
 62
     7
 10
407.0505
 20
116.659899999999990
 11
406.3502
 21
117.360500000000000
  0
LINE
  8
PT3-Grafika_wekt5
  6
CONTINUOUS
 62
     7
 10
406.3502
 20
117.360500000000000
 11
417.9546
 21
117.360500000000000
  0
LINE
  8
PT3-Grafika_wekt5
  6
CONTINUOUS
 62
     7
 10
417.9546
 20
117.360500000000000
 11
417.2544
 21
116.659899999999990
  0
LINE
  8
PT3-Grafika_wekt5
  6
CONTINUOUS
 62
     7
 10
417.2544
 20
116.659899999999990
 11
407.0505
 21
116.659899999999990
  0
LINE
  8
PT3-Grafika_wekt5
  6
CONTINUOUS
 62
     7
 10
406.3502
 20
99.646600000000007
 11
417.9546
 21
99.646600000000007
  0
LINE
  8
PT3-Grafika_wekt5
  6
CONTINUOUS
 62
     7
 10
417.9546
 20
99.646600000000007
 11
417.2544
 21
100.347199999999990
  0
LINE
  8
PT3-Grafika_wekt5
  6
CONTINUOUS
 62
     7
 10
417.2544
 20
100.347199999999990
 11
407.0505
 21
100.347199999999990
  0
LINE
  8
PT3-Grafika_wekt5
  6
CONTINUOUS
 62
     7
 10
417.2544
 20
100.347199999999990
 11
417.2544
 21
116.659899999999990
  0
LINE
  8
PT3-Grafika_wekt5
  6
CONTINUOUS
 62
     7
 10
417.9546
 20
99.346300000000014
 11
406.3502
 21
99.346300000000014
  0
LINE
  8
PT3-Grafika_wekt5
  6
CONTINUOUS
 62
     7
 10
417.9546
 20
99.646600000000007
 11
417.9546
 21
99.346300000000014
  0
LINE
  8
PT3-Grafika_wekt5
  6
CONTINUOUS
 62
     7
 10
120.9408
 20
152.187700000000010
 11
121.6411
 21
151.487200000000000
  0
LINE
  8
PT3-Grafika_wekt5
  6
CONTINUOUS
 62
     7
 10
121.6411
 20
151.487200000000000
 11
121.6411
 21
149.655500000000020
  0
LINE
  8
PT3-Grafika_wekt5
  6
CONTINUOUS
 62
     7
 10
121.6411
 20
151.487200000000000
 11
132.2452
 21
151.487200000000000
  0
LINE
  8
PT3-Grafika_wekt5
  6
CONTINUOUS
 62
     7
 10
132.2452
 20
151.487200000000000
 11
132.2452
 21
150.845900000000000
  0
LINE
  8
PT3-Grafika_wekt5
  6
CONTINUOUS
 62
     7
 10
132.2452
 20
151.487200000000000
 11
132.9454
 21
152.187700000000010
  0
LINE
  8
PT3-Grafika_wekt5
  6
CONTINUOUS
 62
     7
 10
143.6991
 20
152.187700000000010
 11
143.7494
 21
152.137299999999980
  0
LINE
  8
PT3-Grafika_wekt5
  6
CONTINUOUS
 62
     7
 10
144.1979
 20
152.187700000000010
 11
143.6991
 21
152.187700000000010
  0
LINE
  8
PT3-Grafika_wekt5
  6
CONTINUOUS
 62
     7
 10
52.6642
 20
136.375400000000010
 11
52.6642
 21
136.675600000000000
  0
LINE
  8
PT3-Grafika_wekt5
  6
CONTINUOUS
 62
     7
 10
52.6642
 20
136.675600000000000
 11
53.3645
 21
137.376200000000010
  0
LINE
  8
PT3-Grafika_wekt5
  6
CONTINUOUS
 62
     7
 10
53.3645
 20
137.376200000000010
 11
53.3645
 21
151.487200000000000
  0
LINE
  8
PT3-Grafika_wekt5
  6
CONTINUOUS
 62
     7
 10
53.3645
 20
151.487200000000000
 11
52.6642
 21
152.187700000000010
  0
LINE
  8
PT3-Grafika_wekt5
  6
CONTINUOUS
 62
     7
 10
52.6642
 20
136.675600000000000
 11
64.6687
 21
136.675600000000000
  0
LINE
  8
PT3-Grafika_wekt5
  6
CONTINUOUS
 62
     7
 10
64.6687
 20
136.675600000000000
 11
63.9685
 21
137.376200000000010
  0
LINE
  8
PT3-Grafika_wekt5
  6
CONTINUOUS
 62
     7
 10
63.9685
 20
137.376200000000010
 11
53.3645
 21
137.376200000000010
  0
LINE
  8
PT3-Grafika_wekt5
  6
CONTINUOUS
 62
     7
 10
53.3645
 20
151.487200000000000
 11
63.9685
 21
151.487200000000000
  0
LINE
  8
PT3-Grafika_wekt5
  6
CONTINUOUS
 62
     7
 10
63.9685
 20
151.487200000000000
 11
63.9685
 21
137.376200000000010
  0
LINE
  8
PT3-Grafika_wekt5
  6
CONTINUOUS
 62
     7
 10
63.9685
 20
151.487200000000000
 11
64.6687
 21
152.187700000000010
  0
LINE
  8
PT3-Grafika_wekt5
  6
CONTINUOUS
 62
     7
 10
64.6687
 20
136.375400000000010
 11
52.6642
 21
136.375400000000010
  0
LINE
  8
PT3-Grafika_wekt5
  6
CONTINUOUS
 62
     7
 10
64.6687
 20
136.675600000000000
 11
64.6687
 21
136.375400000000010
  0
LINE
  8
PT3-Grafika_wekt5
  6
CONTINUOUS
 62
     7
 10
75.4229
 20
136.375400000000010
 11
75.4229
 21
136.675600000000000
  0
LINE
  8
PT3-Grafika_wekt5
  6
CONTINUOUS
 62
     7
 10
75.4229
 20
136.675600000000000
 11
76.1232
 21
137.376200000000010
  0
LINE
  8
PT3-Grafika_wekt5
  6
CONTINUOUS
 62
     7
 10
76.1232
 20
137.376200000000010
 11
76.1232
 21
151.487200000000000
  0
LINE
  8
PT3-Grafika_wekt5
  6
CONTINUOUS
 62
     7
 10
76.1232
 20
151.487200000000000
 11
75.4229
 21
152.187700000000010
  0
LINE
  8
PT3-Grafika_wekt5
  6
CONTINUOUS
 62
     7
 10
75.4229
 20
136.675600000000000
 11
87.4275
 21
136.675600000000000
  0
LINE
  8
PT3-Grafika_wekt5
  6
CONTINUOUS
 62
     7
 10
87.4275
 20
136.675600000000000
 11
86.7272
 21
137.376200000000010
  0
LINE
  8
PT3-Grafika_wekt5
  6
CONTINUOUS
 62
     7
 10
86.7272
 20
137.376200000000010
 11
76.1232
 21
137.376200000000010
  0
LINE
  8
PT3-Grafika_wekt5
  6
CONTINUOUS
 62
     7
 10
76.1232
 20
151.487200000000000
 11
86.7272
 21
151.487200000000000
  0
LINE
  8
PT3-Grafika_wekt5
  6
CONTINUOUS
 62
     7
 10
86.7272
 20
151.487200000000000
 11
86.7272
 21
137.376200000000010
  0
LINE
  8
PT3-Grafika_wekt5
  6
CONTINUOUS
 62
     7
 10
86.7272
 20
151.487200000000000
 11
87.4275
 21
152.187700000000010
  0
LINE
  8
PT3-Grafika_wekt5
  6
CONTINUOUS
 62
     7
 10
87.4275
 20
136.375400000000010
 11
75.4229
 21
136.375400000000010
  0
LINE
  8
PT3-Grafika_wekt5
  6
CONTINUOUS
 62
     7
 10
87.4275
 20
136.675600000000000
 11
87.4275
 21
136.375400000000010
  0
LINE
  8
PT3-Grafika_wekt5
  6
CONTINUOUS
 62
     7
 10
98.1821
 20
136.375400000000010
 11
98.1821
 21
136.675600000000000
  0
LINE
  8
PT3-Grafika_wekt5
  6
CONTINUOUS
 62
     7
 10
98.1821
 20
136.675600000000000
 11
98.8824
 21
137.376200000000010
  0
LINE
  8
PT3-Grafika_wekt5
  6
CONTINUOUS
 62
     7
 10
98.8824
 20
137.376200000000010
 11
98.8824
 21
151.487200000000000
  0
LINE
  8
PT3-Grafika_wekt5
  6
CONTINUOUS
 62
     7
 10
98.8824
 20
151.487200000000000
 11
98.1821
 21
152.187700000000010
  0
LINE
  8
PT3-Grafika_wekt5
  6
CONTINUOUS
 62
     7
 10
98.1821
 20
136.675600000000000
 11
110.1867
 21
136.675600000000000
  0
LINE
  8
PT3-Grafika_wekt5
  6
CONTINUOUS
 62
     7
 10
110.1867
 20
136.675600000000000
 11
109.4864
 21
137.376200000000010
  0
LINE
  8
PT3-Grafika_wekt5
  6
CONTINUOUS
 62
     7
 10
109.4864
 20
137.376200000000010
 11
98.8824
 21
137.376200000000010
  0
LINE
  8
PT3-Grafika_wekt5
  6
CONTINUOUS
 62
     7
 10
98.8824
 20
151.487200000000000
 11
109.4864
 21
151.487200000000000
  0
LINE
  8
PT3-Grafika_wekt5
  6
CONTINUOUS
 62
     7
 10
109.4864
 20
151.487200000000000
 11
109.4864
 21
137.376200000000010
  0
LINE
  8
PT3-Grafika_wekt5
  6
CONTINUOUS
 62
     7
 10
109.4864
 20
151.487200000000000
 11
110.1867
 21
152.187700000000010
  0
LINE
  8
PT3-Grafika_wekt5
  6
CONTINUOUS
 62
     7
 10
110.1867
 20
136.375400000000010
 11
98.1821
 21
136.375400000000010
  0
LINE
  8
PT3-Grafika_wekt5
  6
CONTINUOUS
 62
     7
 10
110.1867
 20
136.675600000000000
 11
110.1867
 21
136.375400000000010
  0
LINE
  8
PT3-Grafika_wekt5
  6
CONTINUOUS
 62
     7
 10
43.5412
 20
136.375400000000010
 11
43.5412
 21
136.675600000000000
  0
LINE
  8
PT3-Grafika_wekt5
  6
CONTINUOUS
 62
     7
 10
43.5412
 20
136.675600000000000
 11
44.0413
 21
136.675600000000000
  0
LINE
  8
PT3-Grafika_wekt5
  6
CONTINUOUS
 62
     7
 10
44.0413
 20
136.375400000000010
 11
43.5412
 21
136.375400000000010
  0
LINE
  8
PT3-Grafika_wekt5
  6
CONTINUOUS
 62
     7
 10
361.7232
 20
153.858700000000000
 11
361.7232
 21
153.889000000000010
  0
LINE
  8
PT3-Grafika_wekt5
  6
CONTINUOUS
 62
     7
 10
361.7232
 20
153.889000000000010
 11
361.7565
 21
153.855700000000010
  0
LINE
  8
PT3-Grafika_wekt5
  6
CONTINUOUS
 62
     7
 10
369.196
 20
153.188500000000000
 11
372.6273
 21
153.188500000000000
  0
LINE
  8
PT3-Grafika_wekt5
  6
CONTINUOUS
 62
     7
 10
372.6273
 20
153.188500000000000
 11
372.6273
 21
152.880799999999990
  0
LINE
  8
PT3-Grafika_wekt5
  6
CONTINUOUS
 62
     7
 10
372.6273
 20
153.188500000000000
 11
373.3276
 21
153.889000000000010
  0
LINE
  8
PT3-Grafika_wekt5
  6
CONTINUOUS
 62
     7
 10
406.3502
 20
135.874900000000000
 11
406.3502
 21
136.175199999999990
  0
LINE
  8
PT3-Grafika_wekt5
  6
CONTINUOUS
 62
     7
 10
406.3502
 20
136.175199999999990
 11
407.0505
 21
136.875699999999990
  0
LINE
  8
PT3-Grafika_wekt5
  6
CONTINUOUS
 62
     7
 10
407.0505
 20
136.875699999999990
 11
407.0505
 21
153.188500000000000
  0
LINE
  8
PT3-Grafika_wekt5
  6
CONTINUOUS
 62
     7
 10
407.0505
 20
153.188500000000000
 11
406.3502
 21
153.889000000000010
  0
LINE
  8
PT3-Grafika_wekt5
  6
CONTINUOUS
 62
     7
 10
406.3502
 20
153.889000000000010
 11
417.9546
 21
153.889000000000010
  0
LINE
  8
PT3-Grafika_wekt5
  6
CONTINUOUS
 62
     7
 10
417.9546
 20
153.889000000000010
 11
417.2544
 21
153.188500000000000
  0
LINE
  8
PT3-Grafika_wekt5
  6
CONTINUOUS
 62
     7
 10
417.2544
 20
153.188500000000000
 11
407.0505
 21
153.188500000000000
  0
LINE
  8
PT3-Grafika_wekt5
  6
CONTINUOUS
 62
     7
 10
406.3502
 20
136.175199999999990
 11
417.9546
 21
136.175199999999990
  0
LINE
  8
PT3-Grafika_wekt5
  6
CONTINUOUS
 62
     7
 10
417.9546
 20
136.175199999999990
 11
417.2544
 21
136.875699999999990
  0
LINE
  8
PT3-Grafika_wekt5
  6
CONTINUOUS
 62
     7
 10
417.2544
 20
136.875699999999990
 11
407.0505
 21
136.875699999999990
  0
LINE
  8
PT3-Grafika_wekt5
  6
CONTINUOUS
 62
     7
 10
417.2544
 20
136.875699999999990
 11
417.2544
 21
153.188500000000000
  0
LINE
  8
PT3-Grafika_wekt5
  6
CONTINUOUS
 62
     7
 10
417.9546
 20
135.874900000000000
 11
406.3502
 21
135.874900000000000
  0
LINE
  8
PT3-Grafika_wekt5
  6
CONTINUOUS
 62
     7
 10
417.9546
 20
136.175199999999990
 11
417.9546
 21
135.874900000000000
  0
LINE
  8
PT3-Grafika_wekt5
  6
CONTINUOUS
 62
     7
 10
191.5979
 20
169.901500000000000
 11
191.5979
 21
170.201799999999990
  0
LINE
  8
PT3-Grafika_wekt5
  6
CONTINUOUS
 62
     7
 10
191.5979
 20
170.201799999999990
 11
192.2982
 21
170.902300000000000
  0
LINE
  8
PT3-Grafika_wekt5
  6
CONTINUOUS
 62
     7
 10
192.2982
 20
170.902300000000000
 11
192.2982
 21
181.210300000000020
  0
LINE
  8
PT3-Grafika_wekt5
  6
CONTINUOUS
 62
     7
 10
192.2982
 20
181.210300000000020
 11
191.5979
 21
181.910900000000000
  0
LINE
  8
PT3-Grafika_wekt5
  6
CONTINUOUS
 62
     7
 10
191.5979
 20
181.910900000000000
 11
206.6037
 21
181.910900000000000
  0
LINE
  8
PT3-Grafika_wekt5
  6
CONTINUOUS
 62
     7
 10
206.6037
 20
181.910900000000000
 11
205.9034
 21
181.210300000000020
  0
LINE
  8
PT3-Grafika_wekt5
  6
CONTINUOUS
 62
     7
 10
205.9034
 20
181.210300000000020
 11
192.2982
 21
181.210300000000020
  0
LINE
  8
PT3-Grafika_wekt5
  6
CONTINUOUS
 62
     7
 10
191.5979
 20
170.201799999999990
 11
206.6037
 21
170.201799999999990
  0
LINE
  8
PT3-Grafika_wekt5
  6
CONTINUOUS
 62
     7
 10
206.6037
 20
170.201799999999990
 11
205.9034
 21
170.902300000000000
  0
LINE
  8
PT3-Grafika_wekt5
  6
CONTINUOUS
 62
     7
 10
205.9034
 20
170.902300000000000
 11
192.2982
 21
170.902300000000000
  0
LINE
  8
PT3-Grafika_wekt5
  6
CONTINUOUS
 62
     7
 10
205.9034
 20
170.902300000000000
 11
205.9034
 21
181.210300000000020
  0
LINE
  8
PT3-Grafika_wekt5
  6
CONTINUOUS
 62
     7
 10
206.6037
 20
169.901500000000000
 11
191.5979
 21
169.901500000000000
  0
LINE
  8
PT3-Grafika_wekt5
  6
CONTINUOUS
 62
     7
 10
206.6037
 20
170.201799999999990
 11
206.6037
 21
169.901500000000000
  0
LINE
  8
PT3-Grafika_wekt5
  6
CONTINUOUS
 62
     7
 10
43.5412
 20
169.901500000000000
 11
43.5412
 21
170.201799999999990
  0
LINE
  8
PT3-Grafika_wekt5
  6
CONTINUOUS
 62
     7
 10
43.5412
 20
170.201799999999990
 11
44.0413
 21
170.201799999999990
  0
LINE
  8
PT3-Grafika_wekt5
  6
CONTINUOUS
 62
     7
 10
44.0413
 20
169.901500000000000
 11
43.5412
 21
169.901500000000000
  0
LINE
  8
PT3-Grafika_wekt5
  6
CONTINUOUS
 62
     7
 10
381.57
 20
200.854199999999990
 11
381.57
 21
210.233000000000000
  0
LINE
  8
PT3-Grafika_wekt5
  6
CONTINUOUS
 62
     7
 10
381.57
 20
210.233000000000000
 11
381.57
 21
205.013700000000000
  0
LINE
  8
PT3-Grafika_wekt5
  6
CONTINUOUS
 62
     7
 10
381.57
 20
210.233000000000000
 11
386.0717
 21
210.233000000000000
  0
LINE
  8
PT3-Grafika_wekt5
  6
CONTINUOUS
 62
     7
 10
386.0717
 20
210.233000000000000
 11
386.0717
 21
205.229199999999990
  0
LINE
  8
PT3-Grafika_wekt5
  6
CONTINUOUS
 62
     7
 10
203.8487
 20
158.187200000000020
 11
204.6438
 21
159.036400000000010
  0
LINE
  8
PT3-Grafika_wekt5
  6
CONTINUOUS
 62
     7
 10
204.6438
 20
159.036400000000010
 11
204.6613
 21
159.036400000000010
  0
LINE
  8
PT3-Grafika_wekt5
  6
CONTINUOUS
 62
     7
 10
204.6613
 20
159.036400000000010
 11
204.6613
 21
161.038000000000010
  0
LINE
  8
PT3-Grafika_wekt5
  6
CONTINUOUS
 62
     7
 10
204.6613
 20
161.038000000000010
 11
279.4647
 21
161.038000000000010
  0
LINE
  8
PT3-Grafika_wekt5
  6
CONTINUOUS
 62
     7
 10
204.6438
 20
159.036400000000010
 11
317.3124
 21
148.931700000000010
  0
LINE
  8
PT3-Grafika_wekt5
  6
CONTINUOUS
 62
     7
 10
317.3124
 20
148.931700000000010
 11
316.5173
 21
148.082499999999980
  0
LINE
  8
PT3-Grafika_wekt5
  6
CONTINUOUS
 62
     7
 10
316.5173
 20
148.082499999999980
 11
203.8487
 21
158.187200000000020
  0
LINE
  8
PT3-Grafika_wekt5
  6
CONTINUOUS
 62
     7
 10
204.6613
 20
159.036400000000010
 11
317.33
 21
148.931700000000010
  0
LINE
  8
PT3-Grafika_wekt5
  6
CONTINUOUS
 62
     7
 10
317.33
 20
148.931700000000010
 11
316.5348
 21
148.082499999999980
  0
LINE
  8
PT3-Grafika_wekt5
  6
CONTINUOUS
 62
     7
 10
316.5348
 20
148.082499999999980
 11
316.5173
 21
148.082499999999980
  0
LINE
  8
PT3-Grafika_wekt5
  6
CONTINUOUS
 62
     7
 10
204.6613
 20
159.236600000000010
 11
317.33
 21
149.131800000000000
  0
LINE
  8
PT3-Grafika_wekt5
  6
CONTINUOUS
 62
     7
 10
317.33
 20
149.131800000000000
 11
317.33
 21
148.931700000000010
  0
LINE
  8
PT3-Grafika_wekt5
  6
CONTINUOUS
 62
     7
 10
317.33
 20
148.931700000000010
 11
317.3962
 21
148.860900000000020
  0
LINE
  8
PT3-Grafika_wekt5
  6
CONTINUOUS
 62
     7
 10
317.3962
 20
148.860900000000020
 11
316.6011
 21
148.011799999999990
  0
LINE
  8
PT3-Grafika_wekt5
  6
CONTINUOUS
 62
     7
 10
316.6011
 20
148.011799999999990
 11
316.5348
 21
148.082499999999980
  0
LINE
  8
PT3-Grafika_wekt5
  6
CONTINUOUS
 62
     7
 10
204.6613
 20
161.038000000000010
 11
317.33
 21
150.933300000000000
  0
LINE
  8
PT3-Grafika_wekt5
  6
CONTINUOUS
 62
     7
 10
317.33
 20
150.933300000000000
 11
317.33
 21
149.131800000000000
  0
LINE
  8
PT3-Grafika_wekt5
  6
CONTINUOUS
 62
     7
 10
317.33
 20
149.131800000000000
 11
394.3421
 21
149.131800000000000
  0
LINE
  8
PT3-Grafika_wekt5
  6
CONTINUOUS
 62
     7
 10
394.3421
 20
149.131800000000000
 11
394.3421
 21
148.931700000000010
  0
LINE
  8
PT3-Grafika_wekt5
  6
CONTINUOUS
 62
     7
 10
394.3421
 20
148.931700000000010
 11
317.33
 21
148.931700000000010
  0
LINE
  8
PT3-Grafika_wekt5
  6
CONTINUOUS
 62
     7
 10
315.2195
 20
147.485400000000000
 11
315.2195
 21
147.585500000000000
  0
LINE
  8
PT3-Grafika_wekt5
  6
CONTINUOUS
 62
     7
 10
315.2195
 20
147.585500000000000
 11
316.6587
 21
148.011799999999990
  0
LINE
  8
PT3-Grafika_wekt5
  6
CONTINUOUS
 62
     7
 10
315.2195
 20
147.485400000000000
 11
316.9967
 21
148.011799999999990
  0
LINE
  8
PT3-Grafika_wekt5
  6
CONTINUOUS
 62
     7
 10
315.2256
 20
147.485400000000000
 11
315.2195
 21
147.485400000000000
  0
LINE
  8
PT3-Grafika_wekt5
  6
CONTINUOUS
 62
     7
 10
316.6011
 20
148.011799999999990
 11
317.3018
 21
148.011799999999990
  0
LINE
  8
PT3-Grafika_wekt5
  6
CONTINUOUS
 62
     7
 10
317.3018
 20
148.011799999999990
 11
318.0969
 21
148.860900000000020
  0
LINE
  8
PT3-Grafika_wekt5
  6
CONTINUOUS
 62
     7
 10
318.0969
 20
148.860900000000020
 11
317.3962
 21
148.860900000000020
  0
LINE
  8
PT3-Grafika_wekt5
  6
CONTINUOUS
 62
     7
 10
317.3124
 20
148.931700000000010
 11
317.3475
 21
148.931700000000010
  0
LINE
  8
PT3-Grafika_wekt5
  6
CONTINUOUS
 62
     7
 10
317.33
 20
150.933300000000000
 11
394.3421
 21
150.933300000000000
  0
LINE
  8
PT3-Grafika_wekt5
  6
CONTINUOUS
 62
     7
 10
394.3421
 20
150.933300000000000
 11
281.6726
 21
161.038000000000010
  0
LINE
  8
PT3-Grafika_wekt5
  6
CONTINUOUS
 62
     7
 10
317.3681
 20
148.082499999999980
 11
392.8463
 21
148.082499999999980
  0
LINE
  8
PT3-Grafika_wekt5
  6
CONTINUOUS
 62
     7
 10
392.8463
 20
148.082499999999980
 11
390.8303
 21
147.485400000000000
  0
LINE
  8
PT3-Grafika_wekt5
  6
CONTINUOUS
 62
     7
 10
390.8303
 20
147.485400000000000
 11
318.1661
 21
147.485400000000000
  0
LINE
  8
PT3-Grafika_wekt5
  6
CONTINUOUS
 62
     7
 10
317.415
 20
150.532899999999980
 11
317.6207
 21
150.002200000000020
  0
LINE
  8
PT3-Grafika_wekt5
  6
CONTINUOUS
 62
     7
 10
317.6207
 20
150.002200000000020
 11
318.1177
 21
149.782400000000000
  0
LINE
  8
PT3-Grafika_wekt5
  6
CONTINUOUS
 62
     7
 10
318.1177
 20
149.782400000000000
 11
318.1352
 21
149.782400000000000
  0
LINE
  8
PT3-Grafika_wekt5
  6
CONTINUOUS
 62
     7
 10
318.1352
 20
149.782400000000000
 11
318.6321
 21
150.002200000000020
  0
LINE
  8
PT3-Grafika_wekt5
  6
CONTINUOUS
 62
     7
 10
318.6321
 20
150.002200000000020
 11
318.6146
 21
150.002200000000020
  0
LINE
  8
PT3-Grafika_wekt5
  6
CONTINUOUS
 62
     7
 10
318.6146
 20
150.002200000000020
 11
318.1177
 21
149.782400000000000
  0
LINE
  8
PT3-Grafika_wekt5
  6
CONTINUOUS
 62
     7
 10
318.0307
 20
148.931700000000010
 11
318.0969
 21
148.860900000000020
  0
LINE
  8
PT3-Grafika_wekt5
  6
CONTINUOUS
 62
     7
 10
318.1251
 20
149.782400000000000
 11
318.1265
 21
149.782400000000000
  0
LINE
  8
PT3-Grafika_wekt5
  6
CONTINUOUS
 62
     7
 10
318.1265
 20
149.782400000000000
 11
318.6234
 21
150.002200000000020
  0
LINE
  8
PT3-Grafika_wekt5
  6
CONTINUOUS
 62
     7
 10
318.6234
 20
150.002200000000020
 11
318.8292
 21
150.532899999999980
  0
LINE
  8
PT3-Grafika_wekt5
  6
CONTINUOUS
 62
     7
 10
318.8292
 20
150.532899999999980
 11
395.8326
 21
150.532899999999980
  0
LINE
  8
PT3-Grafika_wekt5
  6
CONTINUOUS
 62
     7
 10
395.8326
 20
150.532899999999980
 11
395.6268
 21
150.002200000000020
  0
LINE
  8
PT3-Grafika_wekt5
  6
CONTINUOUS
 62
     7
 10
395.6268
 20
150.002200000000020
 11
395.1298
 21
149.782400000000000
  0
LINE
  8
PT3-Grafika_wekt5
  6
CONTINUOUS
 62
     7
 10
395.1298
 20
149.782400000000000
 11
395.1473
 21
149.782400000000000
  0
LINE
  8
PT3-Grafika_wekt5
  6
CONTINUOUS
 62
     7
 10
395.1473
 20
149.782400000000000
 11
395.6443
 21
150.002200000000020
  0
LINE
  8
PT3-Grafika_wekt5
  6
CONTINUOUS
 62
     7
 10
395.6443
 20
150.002200000000020
 11
395.6268
 21
150.002200000000020
  0
LINE
  8
PT3-Grafika_wekt5
  6
CONTINUOUS
 62
     7
 10
318.1352
 20
149.782400000000000
 11
395.1386
 21
149.782400000000000
  0
LINE
  8
PT3-Grafika_wekt5
  6
CONTINUOUS
 62
     7
 10
395.1386
 20
149.782400000000000
 11
395.6355
 21
150.002200000000020
  0
LINE
  8
PT3-Grafika_wekt5
  6
CONTINUOUS
 62
     7
 10
318.6146
 20
150.002200000000020
 11
318.8204
 21
150.532899999999980
  0
LINE
  8
PT3-Grafika_wekt5
  6
CONTINUOUS
 62
     7
 10
318.8204
 20
150.532899999999980
 11
318.838
 21
150.532899999999980
  0
LINE
  8
PT3-Grafika_wekt5
  6
CONTINUOUS
 62
     7
 10
318.838
 20
150.532899999999980
 11
318.6321
 21
150.002200000000020
  0
LINE
  8
PT3-Grafika_wekt5
  6
CONTINUOUS
 62
     7
 10
318.8204
 20
150.532899999999980
 11
394.5207
 21
150.532899999999980
  0
LINE
  8
PT3-Grafika_wekt5
  6
CONTINUOUS
 62
     7
 10
392.8463
 20
148.082499999999980
 11
393.547
 21
148.082499999999980
  0
LINE
  8
PT3-Grafika_wekt5
  6
CONTINUOUS
 62
     7
 10
393.547
 20
148.082499999999980
 11
394.3421
 21
148.931700000000010
  0
LINE
  8
PT3-Grafika_wekt5
  6
CONTINUOUS
 62
     7
 10
394.3421
 20
148.931700000000010
 11
318.0307
 21
148.931700000000010
  0
LINE
  8
PT3-Grafika_wekt5
  6
CONTINUOUS
 62
     7
 10
393.5295
 20
148.082499999999980
 11
393.5645
 21
148.082499999999980
  0
LINE
  8
PT3-Grafika_wekt5
  6
CONTINUOUS
 62
     7
 10
393.5645
 20
148.082499999999980
 11
394.3596
 21
148.931700000000010
  0
LINE
  8
PT3-Grafika_wekt5
  6
CONTINUOUS
 62
     7
 10
394.3596
 20
148.931700000000010
 11
394.3421
 21
148.931700000000010
  0
LINE
  8
PT3-Grafika_wekt5
  6
CONTINUOUS
 62
     7
 10
393.6414
 20
148.931700000000010
 11
392.8463
 21
148.082499999999980
  0
LINE
  8
PT3-Grafika_wekt5
  6
CONTINUOUS
 62
     7
 10
394.3047
 20
148.931700000000010
 11
394.3245
 21
148.931700000000010
  0
LINE
  8
PT3-Grafika_wekt5
  6
CONTINUOUS
 62
     7
 10
394.3245
 20
148.931700000000010
 11
393.5295
 21
148.082499999999980
  0
LINE
  8
PT3-Grafika_wekt5
  6
CONTINUOUS
 62
     7
 10
394.3421
 20
148.933300000000000
 11
394.3596
 21
148.931700000000010
  0
LINE
  8
PT3-Grafika_wekt5
  6
CONTINUOUS
 62
     7
 10
394.3421
 20
149.131800000000000
 11
394.3421
 21
149.782400000000000
  0
LINE
  8
PT3-Grafika_wekt5
  6
CONTINUOUS
 62
     7
 10
394.3421
 20
150.532899999999980
 11
394.3421
 21
150.933300000000000
  0
LINE
  8
PT3-Grafika_wekt5
  6
CONTINUOUS
 62
     7
 10
395.6443
 20
150.002200000000020
 11
395.8501
 21
150.532899999999980
  0
LINE
  8
PT3-Grafika_wekt5
  6
CONTINUOUS
 62
     7
 10
395.8501
 20
150.532899999999980
 11
395.8326
 21
150.532899999999980
  0
LINE
  8
PT3-Grafika_wekt5
  6
CONTINUOUS
 62
     7
 10
395.8326
 20
150.532899999999980
 11
395.8413
 21
150.532899999999980
  0
LINE
  8
PT3-Grafika_wekt5
  6
CONTINUOUS
 62
     7
 10
380.1492
 20
99.846800000000002
 11
380.6177
 21
99.846800000000002
  0
LINE
  8
PT3-Grafika_wekt5
  6
CONTINUOUS
 62
     7
 10
380.6177
 20
99.846800000000002
 11
380.6177
 21
100.146999999999990
  0
LINE
  8
PT3-Grafika_wekt5
  6
CONTINUOUS
 62
     7
 10
380.6177
 20
100.146999999999990
 11
380.1492
 21
100.146999999999990
  0
LINE
  8
PT3-Grafika_wekt5
  6
CONTINUOUS
 62
     7
 10
380.1492
 20
100.847600000000000
 11
383.5179
 21
100.847600000000000
  0
LINE
  8
PT3-Grafika_wekt5
  6
CONTINUOUS
 62
     7
 10
383.5179
 20
100.847600000000000
 11
383.5179
 21
133.172800000000000
  0
LINE
  8
PT3-Grafika_wekt5
  6
CONTINUOUS
 62
     7
 10
383.5179
 20
133.172800000000000
 11
380.1492
 21
133.172800000000000
  0
LINE
  8
PT3-Grafika_wekt5
  6
CONTINUOUS
 62
     7
 10
380.1492
 20
108.853800000000010
 11
383.5085
 21
108.853800000000010
  0
LINE
  8
PT3-Grafika_wekt5
  6
CONTINUOUS
 62
     7
 10
380.1492
 20
109.254200000000000
 11
383.5085
 21
109.254200000000000
  0
LINE
  8
PT3-Grafika_wekt5
  6
CONTINUOUS
 62
     7
 10
380.1492
 20
122.264299999999990
 11
383.5085
 21
122.264299999999990
  0
LINE
  8
PT3-Grafika_wekt5
  6
CONTINUOUS
 62
     7
 10
380.1492
 20
122.664600000000010
 11
383.5085
 21
122.664600000000010
  0
LINE
  8
PT3-Grafika_wekt5
  6
CONTINUOUS
 62
     7
 10
380.1492
 20
133.873300000000000
 11
383.7629
 21
133.873300000000000
  0
LINE
  8
PT3-Grafika_wekt5
  6
CONTINUOUS
 62
     7
 10
383.7629
 20
133.873300000000000
 11
383.5179
 21
133.172800000000000
  0
LINE
  8
PT3-Grafika_wekt5
  6
CONTINUOUS
 62
     7
 10
380.6177
 20
99.846800000000002
 11
385.1686
 21
99.846800000000002
  0
LINE
  8
PT3-Grafika_wekt5
  6
CONTINUOUS
 62
     7
 10
385.1686
 20
99.846800000000002
 11
385.1686
 21
100.146999999999990
  0
LINE
  8
PT3-Grafika_wekt5
  6
CONTINUOUS
 62
     7
 10
385.1686
 20
100.146999999999990
 11
380.6177
 21
100.146999999999990
  0
LINE
  8
PT3-Grafika_wekt5
  6
CONTINUOUS
 62
     7
 10
383.3539
 20
100.847600000000000
 11
383.3539
 21
108.853800000000010
  0
LINE
  8
PT3-Grafika_wekt5
  6
CONTINUOUS
 62
     7
 10
383.3539
 20
109.254200000000000
 11
383.3539
 21
122.264299999999990
  0
LINE
  8
PT3-Grafika_wekt5
  6
CONTINUOUS
 62
     7
 10
383.3539
 20
122.664600000000010
 11
383.3539
 21
133.172800000000000
  0
LINE
  8
PT3-Grafika_wekt5
  6
CONTINUOUS
 62
     7
 10
383.5179
 20
100.847600000000000
 11
383.7629
 21
100.146999999999990
  0
LINE
  8
PT3-Grafika_wekt5
  6
CONTINUOUS
 62
     7
 10
383.7629
 20
100.146999999999990
 11
383.7629
 21
133.873300000000000
  0
LINE
  8
PT3-Grafika_wekt5
  6
CONTINUOUS
 62
     7
 10
383.2943
 20
133.873300000000000
 11
383.7629
 21
133.873300000000000
  0
LINE
  8
PT3-Grafika_wekt5
  6
CONTINUOUS
 62
     7
 10
383.7629
 20
133.873300000000000
 11
383.7629
 21
100.146999999999990
  0
LINE
  8
PT3-Grafika_wekt5
  6
CONTINUOUS
 62
     7
 10
383.7629
 20
100.146999999999990
 11
384.0079
 21
100.847600000000000
  0
LINE
  8
PT3-Grafika_wekt5
  6
CONTINUOUS
 62
     7
 10
384.0079
 20
100.847600000000000
 11
384.0079
 21
133.172800000000000
  0
LINE
  8
PT3-Grafika_wekt5
  6
CONTINUOUS
 62
     7
 10
384.0079
 20
133.172800000000000
 11
383.7629
 21
133.873300000000000
  0
LINE
  8
PT3-Grafika_wekt5
  6
CONTINUOUS
 62
     7
 10
383.7629
 20
133.873300000000000
 11
388.3139
 21
133.873300000000000
  0
LINE
  8
PT3-Grafika_wekt5
  6
CONTINUOUS
 62
     7
 10
388.3139
 20
133.873300000000000
 11
388.0687
 21
133.172800000000000
  0
LINE
  8
PT3-Grafika_wekt5
  6
CONTINUOUS
 62
     7
 10
388.0687
 20
133.172800000000000
 11
384.0079
 21
133.172800000000000
  0
LINE
  8
PT3-Grafika_wekt5
  6
CONTINUOUS
 62
     7
 10
384.0079
 20
100.847600000000000
 11
388.0687
 21
100.847600000000000
  0
LINE
  8
PT3-Grafika_wekt5
  6
CONTINUOUS
 62
     7
 10
388.0687
 20
100.847600000000000
 11
388.0687
 21
133.172800000000000
  0
LINE
  8
PT3-Grafika_wekt5
  6
CONTINUOUS
 62
     7
 10
384.0079
 20
113.857699999999990
 11
388.0594
 21
113.857699999999990
  0
LINE
  8
PT3-Grafika_wekt5
  6
CONTINUOUS
 62
     7
 10
384.0079
 20
114.258000000000010
 11
388.0594
 21
114.258000000000010
  0
LINE
  8
PT3-Grafika_wekt5
  6
CONTINUOUS
 62
     7
 10
384.0079
 20
127.268200000000010
 11
388.0594
 21
127.268200000000010
  0
LINE
  8
PT3-Grafika_wekt5
  6
CONTINUOUS
 62
     7
 10
384.0079
 20
127.668499999999990
 11
388.0594
 21
127.668499999999990
  0
LINE
  8
PT3-Grafika_wekt5
  6
CONTINUOUS
 62
     7
 10
385.1686
 20
99.846800000000002
 11
385.1686
 21
100.146999999999990
  0
LINE
  8
PT3-Grafika_wekt5
  6
CONTINUOUS
 62
     7
 10
385.1686
 20
100.146999999999990
 11
389.7195
 21
100.146999999999990
  0
LINE
  8
PT3-Grafika_wekt5
  6
CONTINUOUS
 62
     7
 10
389.7195
 20
100.146999999999990
 11
389.7195
 21
99.846800000000002
  0
LINE
  8
PT3-Grafika_wekt5
  6
CONTINUOUS
 62
     7
 10
389.7195
 20
99.846800000000002
 11
385.1686
 21
99.846800000000002
  0
LINE
  8
PT3-Grafika_wekt5
  6
CONTINUOUS
 62
     7
 10
387.9047
 20
100.847600000000000
 11
387.9047
 21
113.857699999999990
  0
LINE
  8
PT3-Grafika_wekt5
  6
CONTINUOUS
 62
     7
 10
387.9047
 20
114.258000000000010
 11
387.9047
 21
127.268200000000010
  0
LINE
  8
PT3-Grafika_wekt5
  6
CONTINUOUS
 62
     7
 10
387.9047
 20
127.668499999999990
 11
387.9047
 21
133.172800000000000
  0
LINE
  8
PT3-Grafika_wekt5
  6
CONTINUOUS
 62
     7
 10
388.0687
 20
100.847600000000000
 11
388.3139
 21
100.146999999999990
  0
LINE
  8
PT3-Grafika_wekt5
  6
CONTINUOUS
 62
     7
 10
388.3139
 20
100.146999999999990
 11
388.3139
 21
133.873300000000000
  0
LINE
  8
PT3-Grafika_wekt5
  6
CONTINUOUS
 62
     7
 10
362.2902
 20
133.873300000000000
 11
362.7588
 21
133.873300000000000
  0
LINE
  8
PT3-Grafika_wekt5
  6
CONTINUOUS
 62
     7
 10
362.7588
 20
133.873300000000000
 11
362.7588
 21
100.146999999999990
  0
LINE
  8
PT3-Grafika_wekt5
  6
CONTINUOUS
 62
     7
 10
362.7588
 20
100.146999999999990
 11
363.0039
 21
100.847600000000000
  0
LINE
  8
PT3-Grafika_wekt5
  6
CONTINUOUS
 62
     7
 10
363.0039
 20
100.847600000000000
 11
363.0039
 21
133.172800000000000
  0
LINE
  8
PT3-Grafika_wekt5
  6
CONTINUOUS
 62
     7
 10
363.0039
 20
133.172800000000000
 11
362.7588
 21
133.873300000000000
  0
LINE
  8
PT3-Grafika_wekt5
  6
CONTINUOUS
 62
     7
 10
362.7588
 20
133.873300000000000
 11
367.3097
 21
133.873300000000000
  0
LINE
  8
PT3-Grafika_wekt5
  6
CONTINUOUS
 62
     7
 10
367.3097
 20
133.873300000000000
 11
367.0646
 21
133.172800000000000
  0
LINE
  8
PT3-Grafika_wekt5
  6
CONTINUOUS
 62
     7
 10
367.0646
 20
133.172800000000000
 11
363.0039
 21
133.172800000000000
  0
LINE
  8
PT3-Grafika_wekt5
  6
CONTINUOUS
 62
     7
 10
363.0039
 20
100.847600000000000
 11
367.0646
 21
100.847600000000000
  0
LINE
  8
PT3-Grafika_wekt5
  6
CONTINUOUS
 62
     7
 10
367.0646
 20
100.847600000000000
 11
367.0646
 21
133.172800000000000
  0
LINE
  8
PT3-Grafika_wekt5
  6
CONTINUOUS
 62
     7
 10
363.0039
 20
113.857699999999990
 11
367.0552
 21
113.857699999999990
  0
LINE
  8
PT3-Grafika_wekt5
  6
CONTINUOUS
 62
     7
 10
363.0039
 20
114.258000000000010
 11
367.0552
 21
114.258000000000010
  0
LINE
  8
PT3-Grafika_wekt5
  6
CONTINUOUS
 62
     7
 10
363.0039
 20
127.268200000000010
 11
367.0552
 21
127.268200000000010
  0
LINE
  8
PT3-Grafika_wekt5
  6
CONTINUOUS
 62
     7
 10
363.0039
 20
127.668499999999990
 11
367.0552
 21
127.668499999999990
  0
LINE
  8
PT3-Grafika_wekt5
  6
CONTINUOUS
 62
     7
 10
364.1645
 20
99.846800000000002
 11
364.1645
 21
100.146999999999990
  0
LINE
  8
PT3-Grafika_wekt5
  6
CONTINUOUS
 62
     7
 10
364.1645
 20
100.146999999999990
 11
368.7153
 21
100.146999999999990
  0
LINE
  8
PT3-Grafika_wekt5
  6
CONTINUOUS
 62
     7
 10
368.7153
 20
100.146999999999990
 11
368.7153
 21
99.846800000000002
  0
LINE
  8
PT3-Grafika_wekt5
  6
CONTINUOUS
 62
     7
 10
368.7153
 20
99.846800000000002
 11
364.1645
 21
99.846800000000002
  0
LINE
  8
PT3-Grafika_wekt5
  6
CONTINUOUS
 62
     7
 10
366.9006
 20
100.847600000000000
 11
366.9006
 21
113.857699999999990
  0
LINE
  8
PT3-Grafika_wekt5
  6
CONTINUOUS
 62
     7
 10
366.9006
 20
114.258000000000010
 11
366.9006
 21
127.268200000000010
  0
LINE
  8
PT3-Grafika_wekt5
  6
CONTINUOUS
 62
     7
 10
366.9006
 20
127.668499999999990
 11
366.9006
 21
133.172800000000000
  0
LINE
  8
PT3-Grafika_wekt5
  6
CONTINUOUS
 62
     7
 10
367.0646
 20
100.847600000000000
 11
367.3097
 21
100.146999999999990
  0
LINE
  8
PT3-Grafika_wekt5
  6
CONTINUOUS
 62
     7
 10
367.3097
 20
100.146999999999990
 11
367.3097
 21
133.873300000000000
  0
LINE
  8
PT3-Grafika_wekt5
  6
CONTINUOUS
 62
     7
 10
369.6471
 20
99.846800000000002
 11
370.1156
 21
99.846800000000002
  0
LINE
  8
PT3-Grafika_wekt5
  6
CONTINUOUS
 62
     7
 10
370.1156
 20
99.846800000000002
 11
370.1156
 21
100.146999999999990
  0
LINE
  8
PT3-Grafika_wekt5
  6
CONTINUOUS
 62
     7
 10
370.1156
 20
100.146999999999990
 11
369.6471
 21
100.146999999999990
  0
LINE
  8
PT3-Grafika_wekt5
  6
CONTINUOUS
 62
     7
 10
369.6471
 20
100.847600000000000
 11
373.0158
 21
100.847600000000000
  0
LINE
  8
PT3-Grafika_wekt5
  6
CONTINUOUS
 62
     7
 10
373.0158
 20
100.847600000000000
 11
373.0158
 21
133.172800000000000
  0
LINE
  8
PT3-Grafika_wekt5
  6
CONTINUOUS
 62
     7
 10
373.0158
 20
133.172800000000000
 11
369.6471
 21
133.172800000000000
  0
LINE
  8
PT3-Grafika_wekt5
  6
CONTINUOUS
 62
     7
 10
369.6471
 20
108.853800000000010
 11
373.0064
 21
108.853800000000010
  0
LINE
  8
PT3-Grafika_wekt5
  6
CONTINUOUS
 62
     7
 10
369.6471
 20
109.254200000000000
 11
373.0064
 21
109.254200000000000
  0
LINE
  8
PT3-Grafika_wekt5
  6
CONTINUOUS
 62
     7
 10
369.6471
 20
122.264299999999990
 11
373.0064
 21
122.264299999999990
  0
LINE
  8
PT3-Grafika_wekt5
  6
CONTINUOUS
 62
     7
 10
369.6471
 20
122.664600000000010
 11
373.0064
 21
122.664600000000010
  0
LINE
  8
PT3-Grafika_wekt5
  6
CONTINUOUS
 62
     7
 10
369.6471
 20
133.873300000000000
 11
373.2609
 21
133.873300000000000
  0
LINE
  8
PT3-Grafika_wekt5
  6
CONTINUOUS
 62
     7
 10
373.2609
 20
133.873300000000000
 11
373.0158
 21
133.172800000000000
  0
LINE
  8
PT3-Grafika_wekt5
  6
CONTINUOUS
 62
     7
 10
370.1156
 20
99.846800000000002
 11
374.6666
 21
99.846800000000002
  0
LINE
  8
PT3-Grafika_wekt5
  6
CONTINUOUS
 62
     7
 10
374.6666
 20
99.846800000000002
 11
374.6666
 21
100.146999999999990
  0
LINE
  8
PT3-Grafika_wekt5
  6
CONTINUOUS
 62
     7
 10
374.6666
 20
100.146999999999990
 11
370.1156
 21
100.146999999999990
  0
LINE
  8
PT3-Grafika_wekt5
  6
CONTINUOUS
 62
     7
 10
372.8518
 20
100.847600000000000
 11
372.8518
 21
108.853800000000010
  0
LINE
  8
PT3-Grafika_wekt5
  6
CONTINUOUS
 62
     7
 10
372.8518
 20
109.254200000000000
 11
372.8518
 21
122.264299999999990
  0
LINE
  8
PT3-Grafika_wekt5
  6
CONTINUOUS
 62
     7
 10
372.8518
 20
122.664600000000010
 11
372.8518
 21
133.172800000000000
  0
LINE
  8
PT3-Grafika_wekt5
  6
CONTINUOUS
 62
     7
 10
373.0158
 20
100.847600000000000
 11
373.2609
 21
100.146999999999990
  0
LINE
  8
PT3-Grafika_wekt5
  6
CONTINUOUS
 62
     7
 10
373.2609
 20
100.146999999999990
 11
373.2609
 21
133.873300000000000
  0
LINE
  8
PT3-Grafika_wekt5
  6
CONTINUOUS
 62
     7
 10
372.7923
 20
133.873300000000000
 11
373.2609
 21
133.873300000000000
  0
LINE
  8
PT3-Grafika_wekt5
  6
CONTINUOUS
 62
     7
 10
373.2609
 20
133.873300000000000
 11
373.2609
 21
100.146999999999990
  0
LINE
  8
PT3-Grafika_wekt5
  6
CONTINUOUS
 62
     7
 10
373.2609
 20
100.146999999999990
 11
373.5059
 21
100.847600000000000
  0
LINE
  8
PT3-Grafika_wekt5
  6
CONTINUOUS
 62
     7
 10
373.5059
 20
100.847600000000000
 11
373.5059
 21
133.172800000000000
  0
LINE
  8
PT3-Grafika_wekt5
  6
CONTINUOUS
 62
     7
 10
373.5059
 20
133.172800000000000
 11
373.2609
 21
133.873300000000000
  0
LINE
  8
PT3-Grafika_wekt5
  6
CONTINUOUS
 62
     7
 10
373.2609
 20
133.873300000000000
 11
377.8117
 21
133.873300000000000
  0
LINE
  8
PT3-Grafika_wekt5
  6
CONTINUOUS
 62
     7
 10
377.8117
 20
133.873300000000000
 11
377.5667
 21
133.172800000000000
  0
LINE
  8
PT3-Grafika_wekt5
  6
CONTINUOUS
 62
     7
 10
377.5667
 20
133.172800000000000
 11
373.5059
 21
133.172800000000000
  0
LINE
  8
PT3-Grafika_wekt5
  6
CONTINUOUS
 62
     7
 10
373.5059
 20
100.847600000000000
 11
377.5667
 21
100.847600000000000
  0
LINE
  8
PT3-Grafika_wekt5
  6
CONTINUOUS
 62
     7
 10
377.5667
 20
100.847600000000000
 11
377.5667
 21
133.172800000000000
  0
LINE
  8
PT3-Grafika_wekt5
  6
CONTINUOUS
 62
     7
 10
373.5059
 20
113.857699999999990
 11
377.5573
 21
113.857699999999990
  0
LINE
  8
PT3-Grafika_wekt5
  6
CONTINUOUS
 62
     7
 10
373.5059
 20
114.258000000000010
 11
377.5573
 21
114.258000000000010
  0
LINE
  8
PT3-Grafika_wekt5
  6
CONTINUOUS
 62
     7
 10
373.5059
 20
127.268200000000010
 11
377.5573
 21
127.268200000000010
  0
LINE
  8
PT3-Grafika_wekt5
  6
CONTINUOUS
 62
     7
 10
373.5059
 20
127.668499999999990
 11
377.5573
 21
127.668499999999990
  0
LINE
  8
PT3-Grafika_wekt5
  6
CONTINUOUS
 62
     7
 10
374.6666
 20
99.846800000000002
 11
374.6666
 21
100.146999999999990
  0
LINE
  8
PT3-Grafika_wekt5
  6
CONTINUOUS
 62
     7
 10
374.6666
 20
100.146999999999990
 11
379.2174
 21
100.146999999999990
  0
LINE
  8
PT3-Grafika_wekt5
  6
CONTINUOUS
 62
     7
 10
379.2174
 20
100.146999999999990
 11
379.2174
 21
99.846800000000002
  0
LINE
  8
PT3-Grafika_wekt5
  6
CONTINUOUS
 62
     7
 10
379.2174
 20
99.846800000000002
 11
374.6666
 21
99.846800000000002
  0
LINE
  8
PT3-Grafika_wekt5
  6
CONTINUOUS
 62
     7
 10
377.4027
 20
100.847600000000000
 11
377.4027
 21
113.857699999999990
  0
LINE
  8
PT3-Grafika_wekt5
  6
CONTINUOUS
 62
     7
 10
377.4027
 20
114.258000000000010
 11
377.4027
 21
127.268200000000010
  0
LINE
  8
PT3-Grafika_wekt5
  6
CONTINUOUS
 62
     7
 10
377.4027
 20
127.668499999999990
 11
377.4027
 21
133.172800000000000
  0
LINE
  8
PT3-Grafika_wekt5
  6
CONTINUOUS
 62
     7
 10
377.5667
 20
100.847600000000000
 11
377.8117
 21
100.146999999999990
  0
LINE
  8
PT3-Grafika_wekt5
  6
CONTINUOUS
 62
     7
 10
377.8117
 20
100.146999999999990
 11
377.8117
 21
133.873300000000000
  0
LINE
  8
PT3-Grafika_wekt5
  6
CONTINUOUS
 62
     7
 10
352.2567
 20
100.146999999999990
 11
352.2567
 21
133.873300000000000
  0
LINE
  8
PT3-Grafika_wekt5
  6
CONTINUOUS
 62
     7
 10
352.2567
 20
133.873300000000000
 11
352.5018
 21
133.172800000000000
  0
LINE
  8
PT3-Grafika_wekt5
  6
CONTINUOUS
 62
     7
 10
352.5018
 20
133.172800000000000
 11
352.5018
 21
100.847600000000000
  0
LINE
  8
PT3-Grafika_wekt5
  6
CONTINUOUS
 62
     7
 10
352.5018
 20
100.847600000000000
 11
352.2567
 21
100.146999999999990
  0
LINE
  8
PT3-Grafika_wekt5
  6
CONTINUOUS
 62
     7
 10
352.5018
 20
100.847600000000000
 11
356.5626
 21
100.847600000000000
  0
LINE
  8
PT3-Grafika_wekt5
  6
CONTINUOUS
 62
     7
 10
356.5626
 20
100.847600000000000
 11
356.5626
 21
133.172800000000000
  0
LINE
  8
PT3-Grafika_wekt5
  6
CONTINUOUS
 62
     7
 10
356.5626
 20
133.172800000000000
 11
352.5018
 21
133.172800000000000
  0
LINE
  8
PT3-Grafika_wekt5
  6
CONTINUOUS
 62
     7
 10
352.5018
 20
113.857699999999990
 11
356.5532
 21
113.857699999999990
  0
LINE
  8
PT3-Grafika_wekt5
  6
CONTINUOUS
 62
     7
 10
352.5018
 20
114.258000000000010
 11
356.5532
 21
114.258000000000010
  0
LINE
  8
PT3-Grafika_wekt5
  6
CONTINUOUS
 62
     7
 10
352.5018
 20
127.268200000000010
 11
356.5532
 21
127.268200000000010
  0
LINE
  8
PT3-Grafika_wekt5
  6
CONTINUOUS
 62
     7
 10
352.5018
 20
127.668499999999990
 11
356.5532
 21
127.668499999999990
  0
LINE
  8
PT3-Grafika_wekt5
  6
CONTINUOUS
 62
     7
 10
353.1938
 20
133.873300000000000
 11
356.8076
 21
133.873300000000000
  0
LINE
  8
PT3-Grafika_wekt5
  6
CONTINUOUS
 62
     7
 10
356.8076
 20
133.873300000000000
 11
356.5626
 21
133.172800000000000
  0
LINE
  8
PT3-Grafika_wekt5
  6
CONTINUOUS
 62
     7
 10
353.6624
 20
99.846800000000002
 11
353.6624
 21
100.146999999999990
  0
LINE
  8
PT3-Grafika_wekt5
  6
CONTINUOUS
 62
     7
 10
353.6624
 20
100.146999999999990
 11
358.2133
 21
100.146999999999990
  0
LINE
  8
PT3-Grafika_wekt5
  6
CONTINUOUS
 62
     7
 10
358.2133
 20
100.146999999999990
 11
358.2133
 21
99.846800000000002
  0
LINE
  8
PT3-Grafika_wekt5
  6
CONTINUOUS
 62
     7
 10
358.2133
 20
99.846800000000002
 11
353.6624
 21
99.846800000000002
  0
LINE
  8
PT3-Grafika_wekt5
  6
CONTINUOUS
 62
     7
 10
356.3985
 20
100.847600000000000
 11
356.3985
 21
113.857699999999990
  0
LINE
  8
PT3-Grafika_wekt5
  6
CONTINUOUS
 62
     7
 10
356.3985
 20
114.258000000000010
 11
356.3985
 21
127.268200000000010
  0
LINE
  8
PT3-Grafika_wekt5
  6
CONTINUOUS
 62
     7
 10
356.3985
 20
127.668499999999990
 11
356.3985
 21
133.172800000000000
  0
LINE
  8
PT3-Grafika_wekt5
  6
CONTINUOUS
 62
     7
 10
356.5626
 20
100.847600000000000
 11
356.8076
 21
100.146999999999990
  0
LINE
  8
PT3-Grafika_wekt5
  6
CONTINUOUS
 62
     7
 10
356.8076
 20
100.146999999999990
 11
356.8076
 21
133.873300000000000
  0
LINE
  8
PT3-Grafika_wekt5
  6
CONTINUOUS
 62
     7
 10
359.145
 20
99.846800000000002
 11
359.6136
 21
99.846800000000002
  0
LINE
  8
PT3-Grafika_wekt5
  6
CONTINUOUS
 62
     7
 10
359.6136
 20
99.846800000000002
 11
359.6136
 21
100.146999999999990
  0
LINE
  8
PT3-Grafika_wekt5
  6
CONTINUOUS
 62
     7
 10
359.6136
 20
100.146999999999990
 11
359.145
 21
100.146999999999990
  0
LINE
  8
PT3-Grafika_wekt5
  6
CONTINUOUS
 62
     7
 10
359.145
 20
100.847600000000000
 11
362.5137
 21
100.847600000000000
  0
LINE
  8
PT3-Grafika_wekt5
  6
CONTINUOUS
 62
     7
 10
362.5137
 20
100.847600000000000
 11
362.5137
 21
133.172800000000000
  0
LINE
  8
PT3-Grafika_wekt5
  6
CONTINUOUS
 62
     7
 10
362.5137
 20
133.172800000000000
 11
359.145
 21
133.172800000000000
  0
LINE
  8
PT3-Grafika_wekt5
  6
CONTINUOUS
 62
     7
 10
359.145
 20
108.853800000000010
 11
362.5043
 21
108.853800000000010
  0
LINE
  8
PT3-Grafika_wekt5
  6
CONTINUOUS
 62
     7
 10
359.145
 20
109.254200000000000
 11
362.5043
 21
109.254200000000000
  0
LINE
  8
PT3-Grafika_wekt5
  6
CONTINUOUS
 62
     7
 10
359.145
 20
122.264299999999990
 11
362.5043
 21
122.264299999999990
  0
LINE
  8
PT3-Grafika_wekt5
  6
CONTINUOUS
 62
     7
 10
359.145
 20
122.664600000000010
 11
362.5043
 21
122.664600000000010
  0
LINE
  8
PT3-Grafika_wekt5
  6
CONTINUOUS
 62
     7
 10
359.145
 20
133.873300000000000
 11
362.7588
 21
133.873300000000000
  0
LINE
  8
PT3-Grafika_wekt5
  6
CONTINUOUS
 62
     7
 10
362.7588
 20
133.873300000000000
 11
362.5137
 21
133.172800000000000
  0
LINE
  8
PT3-Grafika_wekt5
  6
CONTINUOUS
 62
     7
 10
359.6136
 20
99.846800000000002
 11
364.1645
 21
99.846800000000002
  0
LINE
  8
PT3-Grafika_wekt5
  6
CONTINUOUS
 62
     7
 10
364.1645
 20
99.846800000000002
 11
364.1645
 21
100.146999999999990
  0
LINE
  8
PT3-Grafika_wekt5
  6
CONTINUOUS
 62
     7
 10
364.1645
 20
100.146999999999990
 11
359.6136
 21
100.146999999999990
  0
LINE
  8
PT3-Grafika_wekt5
  6
CONTINUOUS
 62
     7
 10
362.3498
 20
100.847600000000000
 11
362.3498
 21
108.853800000000010
  0
LINE
  8
PT3-Grafika_wekt5
  6
CONTINUOUS
 62
     7
 10
362.3498
 20
109.254200000000000
 11
362.3498
 21
122.264299999999990
  0
LINE
  8
PT3-Grafika_wekt5
  6
CONTINUOUS
 62
     7
 10
362.3498
 20
122.664600000000010
 11
362.3498
 21
133.172800000000000
  0
LINE
  8
PT3-Grafika_wekt5
  6
CONTINUOUS
 62
     7
 10
362.5137
 20
100.847600000000000
 11
362.7588
 21
100.146999999999990
  0
LINE
  8
PT3-Grafika_wekt5
  6
CONTINUOUS
 62
     7
 10
362.7588
 20
100.146999999999990
 11
362.7588
 21
133.873300000000000
  0
LINE
  8
PT3-Grafika_wekt5
  6
CONTINUOUS
 62
     7
 10
338.1409
 20
99.846800000000002
 11
338.6094
 21
99.846800000000002
  0
LINE
  8
PT3-Grafika_wekt5
  6
CONTINUOUS
 62
     7
 10
338.6094
 20
99.846800000000002
 11
338.6094
 21
100.146999999999990
  0
LINE
  8
PT3-Grafika_wekt5
  6
CONTINUOUS
 62
     7
 10
338.6094
 20
100.146999999999990
 11
338.1409
 21
100.146999999999990
  0
LINE
  8
PT3-Grafika_wekt5
  6
CONTINUOUS
 62
     7
 10
338.1409
 20
100.847600000000000
 11
341.5096
 21
100.847600000000000
  0
LINE
  8
PT3-Grafika_wekt5
  6
CONTINUOUS
 62
     7
 10
341.5096
 20
100.847600000000000
 11
341.5096
 21
133.172800000000000
  0
LINE
  8
PT3-Grafika_wekt5
  6
CONTINUOUS
 62
     7
 10
341.5096
 20
133.172800000000000
 11
338.1409
 21
133.172800000000000
  0
LINE
  8
PT3-Grafika_wekt5
  6
CONTINUOUS
 62
     7
 10
338.1409
 20
108.853800000000010
 11
341.5003
 21
108.853800000000010
  0
LINE
  8
PT3-Grafika_wekt5
  6
CONTINUOUS
 62
     7
 10
338.1409
 20
109.254200000000000
 11
341.5003
 21
109.254200000000000
  0
LINE
  8
PT3-Grafika_wekt5
  6
CONTINUOUS
 62
     7
 10
338.1409
 20
122.264299999999990
 11
341.5003
 21
122.264299999999990
  0
LINE
  8
PT3-Grafika_wekt5
  6
CONTINUOUS
 62
     7
 10
338.1409
 20
122.664600000000010
 11
341.5003
 21
122.664600000000010
  0
LINE
  8
PT3-Grafika_wekt5
  6
CONTINUOUS
 62
     7
 10
338.6094
 20
99.846800000000002
 11
343.1604
 21
99.846800000000002
  0
LINE
  8
PT3-Grafika_wekt5
  6
CONTINUOUS
 62
     7
 10
343.1604
 20
99.846800000000002
 11
343.1604
 21
100.146999999999990
  0
LINE
  8
PT3-Grafika_wekt5
  6
CONTINUOUS
 62
     7
 10
343.1604
 20
100.146999999999990
 11
338.6094
 21
100.146999999999990
  0
LINE
  8
PT3-Grafika_wekt5
  6
CONTINUOUS
 62
     7
 10
341.3456
 20
100.847600000000000
 11
341.3456
 21
108.853800000000010
  0
LINE
  8
PT3-Grafika_wekt5
  6
CONTINUOUS
 62
     7
 10
341.3456
 20
109.254200000000000
 11
341.3456
 21
122.264299999999990
  0
LINE
  8
PT3-Grafika_wekt5
  6
CONTINUOUS
 62
     7
 10
341.3456
 20
122.664600000000010
 11
341.3456
 21
133.172800000000000
  0
LINE
  8
PT3-Grafika_wekt5
  6
CONTINUOUS
 62
     7
 10
341.5096
 20
100.847600000000000
 11
341.7547
 21
100.146999999999990
  0
LINE
  8
PT3-Grafika_wekt5
  6
CONTINUOUS
 62
     7
 10
341.7547
 20
100.146999999999990
 11
341.7547
 21
133.873300000000000
  0
LINE
  8
PT3-Grafika_wekt5
  6
CONTINUOUS
 62
     7
 10
341.7547
 20
133.873300000000000
 11
341.5096
 21
133.172800000000000
  0
LINE
  8
PT3-Grafika_wekt5
  6
CONTINUOUS
 62
     7
 10
341.7547
 20
100.146999999999990
 11
341.7547
 21
133.873300000000000
  0
LINE
  8
PT3-Grafika_wekt5
  6
CONTINUOUS
 62
     7
 10
341.7547
 20
133.873300000000000
 11
341.9998
 21
133.172800000000000
  0
LINE
  8
PT3-Grafika_wekt5
  6
CONTINUOUS
 62
     7
 10
341.9998
 20
133.172800000000000
 11
341.9998
 21
100.847600000000000
  0
LINE
  8
PT3-Grafika_wekt5
  6
CONTINUOUS
 62
     7
 10
341.9998
 20
100.847600000000000
 11
341.7547
 21
100.146999999999990
  0
LINE
  8
PT3-Grafika_wekt5
  6
CONTINUOUS
 62
     7
 10
341.9998
 20
100.847600000000000
 11
346.0605
 21
100.847600000000000
  0
LINE
  8
PT3-Grafika_wekt5
  6
CONTINUOUS
 62
     7
 10
346.0605
 20
100.847600000000000
 11
346.0605
 21
133.172800000000000
  0
LINE
  8
PT3-Grafika_wekt5
  6
CONTINUOUS
 62
     7
 10
346.0605
 20
133.172800000000000
 11
341.9998
 21
133.172800000000000
  0
LINE
  8
PT3-Grafika_wekt5
  6
CONTINUOUS
 62
     7
 10
341.9998
 20
113.857699999999990
 11
346.0511
 21
113.857699999999990
  0
LINE
  8
PT3-Grafika_wekt5
  6
CONTINUOUS
 62
     7
 10
341.9998
 20
114.258000000000010
 11
346.0511
 21
114.258000000000010
  0
LINE
  8
PT3-Grafika_wekt5
  6
CONTINUOUS
 62
     7
 10
341.9998
 20
127.268200000000010
 11
346.0511
 21
127.268200000000010
  0
LINE
  8
PT3-Grafika_wekt5
  6
CONTINUOUS
 62
     7
 10
341.9998
 20
127.668499999999990
 11
346.0511
 21
127.668499999999990
  0
LINE
  8
PT3-Grafika_wekt5
  6
CONTINUOUS
 62
     7
 10
343.1604
 20
99.846800000000002
 11
343.1604
 21
100.146999999999990
  0
LINE
  8
PT3-Grafika_wekt5
  6
CONTINUOUS
 62
     7
 10
343.1604
 20
100.146999999999990
 11
347.7113
 21
100.146999999999990
  0
LINE
  8
PT3-Grafika_wekt5
  6
CONTINUOUS
 62
     7
 10
347.7113
 20
100.146999999999990
 11
347.7113
 21
99.846800000000002
  0
LINE
  8
PT3-Grafika_wekt5
  6
CONTINUOUS
 62
     7
 10
347.7113
 20
99.846800000000002
 11
343.1604
 21
99.846800000000002
  0
LINE
  8
PT3-Grafika_wekt5
  6
CONTINUOUS
 62
     7
 10
345.8966
 20
100.847600000000000
 11
345.8966
 21
113.857699999999990
  0
LINE
  8
PT3-Grafika_wekt5
  6
CONTINUOUS
 62
     7
 10
345.8966
 20
114.258000000000010
 11
345.8966
 21
127.268200000000010
  0
LINE
  8
PT3-Grafika_wekt5
  6
CONTINUOUS
 62
     7
 10
345.8966
 20
127.668499999999990
 11
345.8966
 21
133.172800000000000
  0
LINE
  8
PT3-Grafika_wekt5
  6
CONTINUOUS
 62
     7
 10
346.0605
 20
100.847600000000000
 11
346.3055
 21
100.146999999999990
  0
LINE
  8
PT3-Grafika_wekt5
  6
CONTINUOUS
 62
     7
 10
346.3055
 20
100.146999999999990
 11
346.3055
 21
133.873300000000000
  0
LINE
  8
PT3-Grafika_wekt5
  6
CONTINUOUS
 62
     7
 10
346.3055
 20
133.873300000000000
 11
346.0605
 21
133.172800000000000
  0
LINE
  8
PT3-Grafika_wekt5
  6
CONTINUOUS
 62
     7
 10
348.643
 20
99.846800000000002
 11
349.1115
 21
99.846800000000002
  0
LINE
  8
PT3-Grafika_wekt5
  6
CONTINUOUS
 62
     7
 10
349.1115
 20
99.846800000000002
 11
349.1115
 21
100.146999999999990
  0
LINE
  8
PT3-Grafika_wekt5
  6
CONTINUOUS
 62
     7
 10
349.1115
 20
100.146999999999990
 11
348.643
 21
100.146999999999990
  0
LINE
  8
PT3-Grafika_wekt5
  6
CONTINUOUS
 62
     7
 10
348.643
 20
100.847600000000000
 11
352.0117
 21
100.847600000000000
  0
LINE
  8
PT3-Grafika_wekt5
  6
CONTINUOUS
 62
     7
 10
352.0117
 20
100.847600000000000
 11
352.0117
 21
133.172800000000000
  0
LINE
  8
PT3-Grafika_wekt5
  6
CONTINUOUS
 62
     7
 10
352.0117
 20
133.172800000000000
 11
348.643
 21
133.172800000000000
  0
LINE
  8
PT3-Grafika_wekt5
  6
CONTINUOUS
 62
     7
 10
348.643
 20
108.853800000000010
 11
352.0023
 21
108.853800000000010
  0
LINE
  8
PT3-Grafika_wekt5
  6
CONTINUOUS
 62
     7
 10
348.643
 20
109.254200000000000
 11
352.0023
 21
109.254200000000000
  0
LINE
  8
PT3-Grafika_wekt5
  6
CONTINUOUS
 62
     7
 10
348.643
 20
122.264299999999990
 11
352.0023
 21
122.264299999999990
  0
LINE
  8
PT3-Grafika_wekt5
  6
CONTINUOUS
 62
     7
 10
348.643
 20
122.664600000000010
 11
352.0023
 21
122.664600000000010
  0
LINE
  8
PT3-Grafika_wekt5
  6
CONTINUOUS
 62
     7
 10
349.1115
 20
99.846800000000002
 11
353.6624
 21
99.846800000000002
  0
LINE
  8
PT3-Grafika_wekt5
  6
CONTINUOUS
 62
     7
 10
353.6624
 20
99.846800000000002
 11
353.6624
 21
100.146999999999990
  0
LINE
  8
PT3-Grafika_wekt5
  6
CONTINUOUS
 62
     7
 10
353.6624
 20
100.146999999999990
 11
349.1115
 21
100.146999999999990
  0
LINE
  8
PT3-Grafika_wekt5
  6
CONTINUOUS
 62
     7
 10
351.8477
 20
100.847600000000000
 11
351.8477
 21
108.853800000000010
  0
LINE
  8
PT3-Grafika_wekt5
  6
CONTINUOUS
 62
     7
 10
351.8477
 20
109.254200000000000
 11
351.8477
 21
122.264299999999990
  0
LINE
  8
PT3-Grafika_wekt5
  6
CONTINUOUS
 62
     7
 10
351.8477
 20
122.664600000000010
 11
351.8477
 21
133.172800000000000
  0
LINE
  8
PT3-Grafika_wekt5
  6
CONTINUOUS
 62
     7
 10
352.0117
 20
100.847600000000000
 11
352.2567
 21
100.146999999999990
  0
LINE
  8
PT3-Grafika_wekt5
  6
CONTINUOUS
 62
     7
 10
352.2567
 20
100.146999999999990
 11
352.2567
 21
133.873300000000000
  0
LINE
  8
PT3-Grafika_wekt5
  6
CONTINUOUS
 62
     7
 10
352.2567
 20
133.873300000000000
 11
352.0117
 21
133.172800000000000
  0
LINE
  8
PT3-Grafika_wekt5
  6
CONTINUOUS
 62
     7
 10
327.6388
 20
99.846800000000002
 11
328.1074
 21
99.846800000000002
  0
LINE
  8
PT3-Grafika_wekt5
  6
CONTINUOUS
 62
     7
 10
328.1074
 20
99.846800000000002
 11
328.1074
 21
100.146999999999990
  0
LINE
  8
PT3-Grafika_wekt5
  6
CONTINUOUS
 62
     7
 10
328.1074
 20
100.146999999999990
 11
327.6388
 21
100.146999999999990
  0
LINE
  8
PT3-Grafika_wekt5
  6
CONTINUOUS
 62
     7
 10
327.6388
 20
100.847600000000000
 11
331.0075
 21
100.847600000000000
  0
LINE
  8
PT3-Grafika_wekt5
  6
CONTINUOUS
 62
     7
 10
331.0075
 20
100.847600000000000
 11
331.0075
 21
133.172800000000000
  0
LINE
  8
PT3-Grafika_wekt5
  6
CONTINUOUS
 62
     7
 10
331.0075
 20
133.172800000000000
 11
327.6388
 21
133.172800000000000
  0
LINE
  8
PT3-Grafika_wekt5
  6
CONTINUOUS
 62
     7
 10
327.6388
 20
108.853800000000010
 11
330.9982
 21
108.853800000000010
  0
LINE
  8
PT3-Grafika_wekt5
  6
CONTINUOUS
 62
     7
 10
327.6388
 20
109.254200000000000
 11
330.9982
 21
109.254200000000000
  0
LINE
  8
PT3-Grafika_wekt5
  6
CONTINUOUS
 62
     7
 10
327.6388
 20
122.264299999999990
 11
330.9982
 21
122.264299999999990
  0
LINE
  8
PT3-Grafika_wekt5
  6
CONTINUOUS
 62
     7
 10
327.6388
 20
122.664600000000010
 11
330.9982
 21
122.664600000000010
  0
LINE
  8
PT3-Grafika_wekt5
  6
CONTINUOUS
 62
     7
 10
328.1074
 20
99.846800000000002
 11
332.6583
 21
99.846800000000002
  0
LINE
  8
PT3-Grafika_wekt5
  6
CONTINUOUS
 62
     7
 10
332.6583
 20
99.846800000000002
 11
332.6583
 21
100.146999999999990
  0
LINE
  8
PT3-Grafika_wekt5
  6
CONTINUOUS
 62
     7
 10
332.6583
 20
100.146999999999990
 11
328.1074
 21
100.146999999999990
  0
LINE
  8
PT3-Grafika_wekt5
  6
CONTINUOUS
 62
     7
 10
330.8436
 20
100.847600000000000
 11
330.8436
 21
108.853800000000010
  0
LINE
  8
PT3-Grafika_wekt5
  6
CONTINUOUS
 62
     7
 10
330.8436
 20
109.254200000000000
 11
330.8436
 21
122.264299999999990
  0
LINE
  8
PT3-Grafika_wekt5
  6
CONTINUOUS
 62
     7
 10
330.8436
 20
122.664600000000010
 11
330.8436
 21
133.172800000000000
  0
LINE
  8
PT3-Grafika_wekt5
  6
CONTINUOUS
 62
     7
 10
331.0075
 20
100.847600000000000
 11
331.2526
 21
100.146999999999990
  0
LINE
  8
PT3-Grafika_wekt5
  6
CONTINUOUS
 62
     7
 10
331.2526
 20
100.146999999999990
 11
331.2526
 21
133.873300000000000
  0
LINE
  8
PT3-Grafika_wekt5
  6
CONTINUOUS
 62
     7
 10
331.2526
 20
133.873300000000000
 11
331.0075
 21
133.172800000000000
  0
LINE
  8
PT3-Grafika_wekt5
  6
CONTINUOUS
 62
     7
 10
331.2526
 20
100.146999999999990
 11
331.2526
 21
133.873300000000000
  0
LINE
  8
PT3-Grafika_wekt5
  6
CONTINUOUS
 62
     7
 10
331.2526
 20
133.873300000000000
 11
331.4977
 21
133.172800000000000
  0
LINE
  8
PT3-Grafika_wekt5
  6
CONTINUOUS
 62
     7
 10
331.4977
 20
133.172800000000000
 11
331.4977
 21
100.847600000000000
  0
LINE
  8
PT3-Grafika_wekt5
  6
CONTINUOUS
 62
     7
 10
331.4977
 20
100.847600000000000
 11
331.2526
 21
100.146999999999990
  0
LINE
  8
PT3-Grafika_wekt5
  6
CONTINUOUS
 62
     7
 10
331.4977
 20
100.847600000000000
 11
335.5584
 21
100.847600000000000
  0
LINE
  8
PT3-Grafika_wekt5
  6
CONTINUOUS
 62
     7
 10
335.5584
 20
100.847600000000000
 11
335.5584
 21
133.172800000000000
  0
LINE
  8
PT3-Grafika_wekt5
  6
CONTINUOUS
 62
     7
 10
335.5584
 20
133.172800000000000
 11
331.4977
 21
133.172800000000000
  0
LINE
  8
PT3-Grafika_wekt5
  6
CONTINUOUS
 62
     7
 10
331.4977
 20
113.857699999999990
 11
335.549
 21
113.857699999999990
  0
LINE
  8
PT3-Grafika_wekt5
  6
CONTINUOUS
 62
     7
 10
331.4977
 20
114.258000000000010
 11
335.549
 21
114.258000000000010
  0
LINE
  8
PT3-Grafika_wekt5
  6
CONTINUOUS
 62
     7
 10
331.4977
 20
127.268200000000010
 11
335.549
 21
127.268200000000010
  0
LINE
  8
PT3-Grafika_wekt5
  6
CONTINUOUS
 62
     7
 10
331.4977
 20
127.668499999999990
 11
335.549
 21
127.668499999999990
  0
LINE
  8
PT3-Grafika_wekt5
  6
CONTINUOUS
 62
     7
 10
332.6583
 20
99.846800000000002
 11
332.6583
 21
100.146999999999990
  0
LINE
  8
PT3-Grafika_wekt5
  6
CONTINUOUS
 62
     7
 10
332.6583
 20
100.146999999999990
 11
337.2092
 21
100.146999999999990
  0
LINE
  8
PT3-Grafika_wekt5
  6
CONTINUOUS
 62
     7
 10
337.2092
 20
100.146999999999990
 11
337.2092
 21
99.846800000000002
  0
LINE
  8
PT3-Grafika_wekt5
  6
CONTINUOUS
 62
     7
 10
337.2092
 20
99.846800000000002
 11
332.6583
 21
99.846800000000002
  0
LINE
  8
PT3-Grafika_wekt5
  6
CONTINUOUS
 62
     7
 10
335.3945
 20
100.847600000000000
 11
335.3945
 21
113.857699999999990
  0
LINE
  8
PT3-Grafika_wekt5
  6
CONTINUOUS
 62
     7
 10
335.3945
 20
114.258000000000010
 11
335.3945
 21
127.268200000000010
  0
LINE
  8
PT3-Grafika_wekt5
  6
CONTINUOUS
 62
     7
 10
335.3945
 20
127.668499999999990
 11
335.3945
 21
133.172800000000000
  0
LINE
  8
PT3-Grafika_wekt5
  6
CONTINUOUS
 62
     7
 10
335.5584
 20
100.847600000000000
 11
335.8035
 21
100.146999999999990
  0
LINE
  8
PT3-Grafika_wekt5
  6
CONTINUOUS
 62
     7
 10
335.8035
 20
100.146999999999990
 11
335.8035
 21
133.873300000000000
  0
LINE
  8
PT3-Grafika_wekt5
  6
CONTINUOUS
 62
     7
 10
335.8035
 20
133.873300000000000
 11
335.5584
 21
133.172800000000000
  0
LINE
  8
PT3-Grafika_wekt5
  6
CONTINUOUS
 62
     7
 10
317.1368
 20
99.846800000000002
 11
317.6054
 21
99.846800000000002
  0
LINE
  8
PT3-Grafika_wekt5
  6
CONTINUOUS
 62
     7
 10
317.6054
 20
99.846800000000002
 11
317.6054
 21
100.146999999999990
  0
LINE
  8
PT3-Grafika_wekt5
  6
CONTINUOUS
 62
     7
 10
317.6054
 20
100.146999999999990
 11
317.1368
 21
100.146999999999990
  0
LINE
  8
PT3-Grafika_wekt5
  6
CONTINUOUS
 62
     7
 10
317.1368
 20
100.847600000000000
 11
320.5055
 21
100.847600000000000
  0
LINE
  8
PT3-Grafika_wekt5
  6
CONTINUOUS
 62
     7
 10
320.5055
 20
100.847600000000000
 11
320.5055
 21
133.172800000000000
  0
LINE
  8
PT3-Grafika_wekt5
  6
CONTINUOUS
 62
     7
 10
320.5055
 20
133.172800000000000
 11
317.1368
 21
133.172800000000000
  0
LINE
  8
PT3-Grafika_wekt5
  6
CONTINUOUS
 62
     7
 10
317.1368
 20
108.853800000000010
 11
320.4961
 21
108.853800000000010
  0
LINE
  8
PT3-Grafika_wekt5
  6
CONTINUOUS
 62
     7
 10
317.1368
 20
109.254200000000000
 11
320.4961
 21
109.254200000000000
  0
LINE
  8
PT3-Grafika_wekt5
  6
CONTINUOUS
 62
     7
 10
317.1368
 20
122.264299999999990
 11
320.4961
 21
122.264299999999990
  0
LINE
  8
PT3-Grafika_wekt5
  6
CONTINUOUS
 62
     7
 10
317.1368
 20
122.664600000000010
 11
320.4961
 21
122.664600000000010
  0
LINE
  8
PT3-Grafika_wekt5
  6
CONTINUOUS
 62
     7
 10
317.6054
 20
99.846800000000002
 11
322.1563
 21
99.846800000000002
  0
LINE
  8
PT3-Grafika_wekt5
  6
CONTINUOUS
 62
     7
 10
322.1563
 20
99.846800000000002
 11
322.1563
 21
100.146999999999990
  0
LINE
  8
PT3-Grafika_wekt5
  6
CONTINUOUS
 62
     7
 10
322.1563
 20
100.146999999999990
 11
317.6054
 21
100.146999999999990
  0
LINE
  8
PT3-Grafika_wekt5
  6
CONTINUOUS
 62
     7
 10
320.3415
 20
100.847600000000000
 11
320.3415
 21
108.853800000000010
  0
LINE
  8
PT3-Grafika_wekt5
  6
CONTINUOUS
 62
     7
 10
320.3415
 20
109.254200000000000
 11
320.3415
 21
122.264299999999990
  0
LINE
  8
PT3-Grafika_wekt5
  6
CONTINUOUS
 62
     7
 10
320.3415
 20
122.664600000000010
 11
320.3415
 21
133.172800000000000
  0
LINE
  8
PT3-Grafika_wekt5
  6
CONTINUOUS
 62
     7
 10
320.5055
 20
100.847600000000000
 11
320.7505
 21
100.146999999999990
  0
LINE
  8
PT3-Grafika_wekt5
  6
CONTINUOUS
 62
     7
 10
320.7505
 20
100.146999999999990
 11
320.7505
 21
133.873300000000000
  0
LINE
  8
PT3-Grafika_wekt5
  6
CONTINUOUS
 62
     7
 10
320.7505
 20
133.873300000000000
 11
320.5055
 21
133.172800000000000
  0
LINE
  8
PT3-Grafika_wekt5
  6
CONTINUOUS
 62
     7
 10
320.7505
 20
100.146999999999990
 11
320.7505
 21
133.873300000000000
  0
LINE
  8
PT3-Grafika_wekt5
  6
CONTINUOUS
 62
     7
 10
320.7505
 20
133.873300000000000
 11
320.9956
 21
133.172800000000000
  0
LINE
  8
PT3-Grafika_wekt5
  6
CONTINUOUS
 62
     7
 10
320.9956
 20
133.172800000000000
 11
320.9956
 21
100.847600000000000
  0
LINE
  8
PT3-Grafika_wekt5
  6
CONTINUOUS
 62
     7
 10
320.9956
 20
100.847600000000000
 11
320.7505
 21
100.146999999999990
  0
LINE
  8
PT3-Grafika_wekt5
  6
CONTINUOUS
 62
     7
 10
320.9956
 20
100.847600000000000
 11
325.0564
 21
100.847600000000000
  0
LINE
  8
PT3-Grafika_wekt5
  6
CONTINUOUS
 62
     7
 10
325.0564
 20
100.847600000000000
 11
325.0564
 21
133.172800000000000
  0
LINE
  8
PT3-Grafika_wekt5
  6
CONTINUOUS
 62
     7
 10
325.0564
 20
133.172800000000000
 11
320.9956
 21
133.172800000000000
  0
LINE
  8
PT3-Grafika_wekt5
  6
CONTINUOUS
 62
     7
 10
320.9956
 20
113.857699999999990
 11
325.0471
 21
113.857699999999990
  0
LINE
  8
PT3-Grafika_wekt5
  6
CONTINUOUS
 62
     7
 10
320.9956
 20
114.258000000000010
 11
325.0471
 21
114.258000000000010
  0
LINE
  8
PT3-Grafika_wekt5
  6
CONTINUOUS
 62
     7
 10
320.9956
 20
127.268200000000010
 11
325.0471
 21
127.268200000000010
  0
LINE
  8
PT3-Grafika_wekt5
  6
CONTINUOUS
 62
     7
 10
320.9956
 20
127.668499999999990
 11
325.0471
 21
127.668499999999990
  0
LINE
  8
PT3-Grafika_wekt5
  6
CONTINUOUS
 62
     7
 10
322.1562
 20
99.846800000000002
 11
322.1562
 21
100.146999999999990
  0
LINE
  8
PT3-Grafika_wekt5
  6
CONTINUOUS
 62
     7
 10
322.1562
 20
100.146999999999990
 11
326.7071
 21
100.146999999999990
  0
LINE
  8
PT3-Grafika_wekt5
  6
CONTINUOUS
 62
     7
 10
326.7071
 20
100.146999999999990
 11
326.7071
 21
99.846800000000002
  0
LINE
  8
PT3-Grafika_wekt5
  6
CONTINUOUS
 62
     7
 10
326.7071
 20
99.846800000000002
 11
322.1562
 21
99.846800000000002
  0
LINE
  8
PT3-Grafika_wekt5
  6
CONTINUOUS
 62
     7
 10
324.8924
 20
100.847600000000000
 11
324.8924
 21
113.857699999999990
  0
LINE
  8
PT3-Grafika_wekt5
  6
CONTINUOUS
 62
     7
 10
324.8924
 20
114.258000000000010
 11
324.8924
 21
127.268200000000010
  0
LINE
  8
PT3-Grafika_wekt5
  6
CONTINUOUS
 62
     7
 10
324.8924
 20
127.668499999999990
 11
324.8924
 21
133.172800000000000
  0
LINE
  8
PT3-Grafika_wekt5
  6
CONTINUOUS
 62
     7
 10
325.0564
 20
100.847600000000000
 11
325.3015
 21
100.146999999999990
  0
LINE
  8
PT3-Grafika_wekt5
  6
CONTINUOUS
 62
     7
 10
325.3015
 20
100.146999999999990
 11
325.3015
 21
133.873300000000000
  0
LINE
  8
PT3-Grafika_wekt5
  6
CONTINUOUS
 62
     7
 10
325.3015
 20
133.873300000000000
 11
325.0564
 21
133.172800000000000
  0
LINE
  8
PT3-Grafika_wekt5
  6
CONTINUOUS
 62
     7
 10
113.0467
 20
148.428200000000000
 11
113.2113
 21
148.003600000000010
  0
LINE
  8
PT3-Grafika_wekt5
  6
CONTINUOUS
 62
     7
 10
113.2113
 20
148.003600000000010
 11
113.6088
 21
147.827800000000000
  0
LINE
  8
PT3-Grafika_wekt5
  6
CONTINUOUS
 62
     7
 10
113.6088
 20
147.827800000000000
 11
113.6264
 21
147.827800000000000
  0
LINE
  8
PT3-Grafika_wekt5
  6
CONTINUOUS
 62
     7
 10
113.6264
 20
147.827800000000000
 11
114.0239
 21
148.003600000000010
  0
LINE
  8
PT3-Grafika_wekt5
  6
CONTINUOUS
 62
     7
 10
114.0239
 20
148.003600000000010
 11
114.0064
 21
148.003600000000010
  0
LINE
  8
PT3-Grafika_wekt5
  6
CONTINUOUS
 62
     7
 10
114.0064
 20
148.003600000000010
 11
113.6088
 21
147.827800000000000
  0
LINE
  8
PT3-Grafika_wekt5
  6
CONTINUOUS
 62
     7
 10
113.1491
 20
148.428200000000000
 11
114.2735
 21
148.428200000000000
  0
LINE
  8
PT3-Grafika_wekt5
  6
CONTINUOUS
 62
     7
 10
114.2735
 20
148.428200000000000
 11
114.1798
 21
148.428200000000000
  0
LINE
  8
PT3-Grafika_wekt5
  6
CONTINUOUS
 62
     7
 10
114.1798
 20
148.428200000000000
 11
114.0151
 21
148.003600000000010
  0
LINE
  8
PT3-Grafika_wekt5
  6
CONTINUOUS
 62
     7
 10
114.0151
 20
148.003600000000010
 11
113.6176
 21
147.827800000000000
  0
LINE
  8
PT3-Grafika_wekt5
  6
CONTINUOUS
 62
     7
 10
113.6176
 20
147.827800000000000
 11
114.7246
 21
147.827800000000000
  0
LINE
  8
PT3-Grafika_wekt5
  6
CONTINUOUS
 62
     7
 10
114.0064
 20
148.003600000000010
 11
114.1711
 21
148.428200000000000
  0
LINE
  8
PT3-Grafika_wekt5
  6
CONTINUOUS
 62
     7
 10
114.1711
 20
148.428200000000000
 11
113.0467
 21
148.428200000000000
  0
LINE
  8
PT3-Grafika_wekt5
  6
CONTINUOUS
 62
     7
 10
114.0239
 20
148.003600000000010
 11
114.1886
 21
148.428200000000000
  0
LINE
  8
PT3-Grafika_wekt5
  6
CONTINUOUS
 62
     7
 10
114.1886
 20
148.428200000000000
 11
114.1711
 21
148.428200000000000
  0
LINE
  8
PT3-Grafika_wekt5
  6
CONTINUOUS
 62
     7
 10
114.256
 20
148.328100000000010
 11
115.0511
 21
147.478999999999980
  0
LINE
  8
PT3-Grafika_wekt5
  6
CONTINUOUS
 62
     7
 10
115.0511
 20
147.478999999999980
 11
115.0861
 21
147.478999999999980
  0
LINE
  8
PT3-Grafika_wekt5
  6
CONTINUOUS
 62
     7
 10
115.0861
 20
147.478999999999980
 11
154.4602
 21
151.898900000000000
  0
LINE
  8
PT3-Grafika_wekt5
  6
CONTINUOUS
 62
     7
 10
154.4602
 20
151.898900000000000
 11
153.6651
 21
152.747999999999990
  0
LINE
  8
PT3-Grafika_wekt5
  6
CONTINUOUS
 62
     7
 10
153.6651
 20
152.747999999999990
 11
153.6301
 21
152.747999999999990
  0
LINE
  8
PT3-Grafika_wekt5
  6
CONTINUOUS
 62
     7
 10
153.6301
 20
152.747999999999990
 11
114.256
 21
148.328100000000010
  0
LINE
  8
PT3-Grafika_wekt5
  6
CONTINUOUS
 62
     7
 10
114.2735
 20
148.330100000000020
 11
114.2735
 21
148.828500000000020
  0
LINE
  8
PT3-Grafika_wekt5
  6
CONTINUOUS
 62
     7
 10
114.2735
 20
148.828500000000020
 11
153.6476
 21
153.248400000000000
  0
LINE
  8
PT3-Grafika_wekt5
  6
CONTINUOUS
 62
     7
 10
153.6476
 20
153.248400000000000
 11
153.6476
 21
152.948199999999990
  0
LINE
  8
PT3-Grafika_wekt5
  6
CONTINUOUS
 62
     7
 10
153.6476
 20
152.948199999999990
 11
114.2735
 21
148.528300000000000
  0
LINE
  8
PT3-Grafika_wekt5
  6
CONTINUOUS
 62
     7
 10
114.2756
 20
148.330400000000000
 11
114.3398
 21
148.398900000000000
  0
LINE
  8
PT3-Grafika_wekt5
  6
CONTINUOUS
 62
     7
 10
114.3398
 20
148.398900000000000
 11
114.3918
 21
148.343300000000000
  0
LINE
  8
PT3-Grafika_wekt5
  6
CONTINUOUS
 62
     7
 10
115.0511
 20
147.478999999999980
 11
154.4251
 21
151.898900000000000
  0
LINE
  8
PT3-Grafika_wekt5
  6
CONTINUOUS
 62
     7
 10
154.4251
 20
151.898900000000000
 11
153.6301
 21
152.747999999999990
  0
LINE
  8
PT3-Grafika_wekt5
  6
CONTINUOUS
 62
     7
 10
153.6301
 20
152.747999999999990
 11
153.6476
 21
152.747999999999990
  0
LINE
  8
PT3-Grafika_wekt5
  6
CONTINUOUS
 62
     7
 10
153.6476
 20
152.747999999999990
 11
153.6476
 21
152.948199999999990
  0
LINE
  8
PT3-Grafika_wekt5
  6
CONTINUOUS
 62
     7
 10
153.6476
 20
152.948199999999990
 11
170.693
 21
152.948199999999990
  0
LINE
  8
PT3-Grafika_wekt5
  6
CONTINUOUS
 62
     7
 10
170.693
 20
152.948199999999990
 11
170.693
 21
152.750100000000000
  0
LINE
  8
PT3-Grafika_wekt5
  6
CONTINUOUS
 62
     7
 10
115.0686
 20
147.478999999999980
 11
115.7693
 21
147.478999999999980
  0
LINE
  8
PT3-Grafika_wekt5
  6
CONTINUOUS
 62
     7
 10
115.7693
 20
147.478999999999980
 11
115.9567
 21
147.500000000000000
  0
LINE
  8
PT3-Grafika_wekt5
  6
CONTINUOUS
 62
     7
 10
115.7693
 20
147.478999999999980
 11
117.7853
 21
146.945300000000000
  0
LINE
  8
PT3-Grafika_wekt5
  6
CONTINUOUS
 62
     7
 10
117.7853
 20
146.945300000000000
 11
117.7853
 21
147.045300000000000
  0
LINE
  8
PT3-Grafika_wekt5
  6
CONTINUOUS
 62
     7
 10
117.7853
 20
147.045300000000000
 11
116.068
 21
147.500000000000000
  0
LINE
  8
PT3-Grafika_wekt5
  6
CONTINUOUS
 62
     7
 10
117.7853
 20
146.945300000000000
 11
117.7929
 21
146.945300000000000
  0
LINE
  8
PT3-Grafika_wekt5
  6
CONTINUOUS
 62
     7
 10
117.7853
 20
147.045300000000000
 11
117.7929
 21
147.045300000000000
  0
LINE
  8
PT3-Grafika_wekt5
  6
CONTINUOUS
 62
     7
 10
153.6476
 20
153.248400000000000
 11
170.693
 21
153.248400000000000
  0
LINE
  8
PT3-Grafika_wekt5
  6
CONTINUOUS
 62
     7
 10
170.693
 20
153.248400000000000
 11
170.693
 21
152.948199999999990
  0
LINE
  8
PT3-Grafika_wekt5
  6
CONTINUOUS
 62
     7
 10
170.693
 20
152.948199999999990
 11
200.7759
 21
156.322999999999980
  0
LINE
  8
PT3-Grafika_wekt5
  6
CONTINUOUS
 62
     7
 10
200.7759
 20
156.322999999999980
 11
200.7759
 21
156.122900000000020
  0
LINE
  8
PT3-Grafika_wekt5
  6
CONTINUOUS
 62
     7
 10
200.7759
 20
156.122900000000020
 11
201.6474
 21
156.123099999999990
  0
LINE
  8
PT3-Grafika_wekt5
  6
CONTINUOUS
 62
     7
 10
153.6651
 20
152.747999999999990
 11
170.6755
 21
152.747999999999990
  0
LINE
  8
PT3-Grafika_wekt5
  6
CONTINUOUS
 62
     7
 10
170.6755
 20
151.898900000000000
 11
154.4426
 21
151.898900000000000
  0
LINE
  8
PT3-Grafika_wekt5
  6
CONTINUOUS
 62
     7
 10
154.4426
 20
151.898900000000000
 11
115.0686
 21
147.478999999999980
  0
LINE
  8
PT3-Grafika_wekt5
  6
CONTINUOUS
 62
     7
 10
154.4251
 20
151.898900000000000
 11
154.4426
 21
151.898900000000000
  0
LINE
  8
PT3-Grafika_wekt5
  6
CONTINUOUS
 62
     7
 10
154.4426
 20
151.898900000000000
 11
154.4426
 21
151.899000000000000
  0
LINE
  8
PT3-Grafika_wekt5
  6
CONTINUOUS
 62
     7
 10
154.4426
 20
151.898900000000000
 11
154.4602
 21
151.898900000000000
  0
LINE
  8
PT3-Grafika_wekt5
  6
CONTINUOUS
 62
     7
 10
170.4685
 20
152.747999999999990
 11
170.6755
 21
152.747999999999990
  0
LINE
  8
PT3-Grafika_wekt5
  6
CONTINUOUS
 62
     7
 10
170.6755
 20
152.747999999999990
 11
170.6755
 21
151.809599999999990
  0
LINE
  8
PT3-Grafika_wekt5
  6
CONTINUOUS
 62
     7
 10
170.6755
 20
151.809599999999990
 11
170.6948
 21
151.809599999999990
  0
LINE
  8
PT3-Grafika_wekt5
  6
CONTINUOUS
 62
     7
 10
170.6755
 20
151.809599999999990
 11
200.7585
 21
155.184399999999980
  0
LINE
  8
PT3-Grafika_wekt5
  6
CONTINUOUS
 62
     7
 10
200.7585
 20
155.184399999999980
 11
200.7585
 21
156.122900000000020
  0
LINE
  8
PT3-Grafika_wekt5
  6
CONTINUOUS
 62
     7
 10
200.7585
 20
156.122900000000020
 11
170.6755
 21
152.747999999999990
  0
LINE
  8
PT3-Grafika_wekt5
  6
CONTINUOUS
 62
     7
 10
170.693
 20
151.809599999999990
 11
200.7759
 21
155.184399999999980
  0
LINE
  8
PT3-Grafika_wekt5
  6
CONTINUOUS
 62
     7
 10
200.7759
 20
155.184399999999980
 11
201.4551
 21
155.184000000000000
  0
LINE
  8
PT3-Grafika_wekt5
  6
CONTINUOUS
 62
     7
 10
170.693
 20
153.248400000000000
 11
200.7759
 21
156.623200000000000
  0
LINE
  8
PT3-Grafika_wekt5
  6
CONTINUOUS
 62
     7
 10
200.7759
 20
156.623200000000000
 11
200.7759
 21
156.322999999999980
  0
LINE
  8
PT3-Grafika_wekt5
  6
CONTINUOUS
 62
     7
 10
200.7759
 20
156.322999999999980
 11
201.6474
 21
156.323199999999990
  0
LINE
  8
PT3-Grafika_wekt5
  6
CONTINUOUS
 62
     7
 10
170.7021
 20
151.809599999999990
 11
170.7104
 21
151.809599999999990
  0
LINE
  8
PT3-Grafika_wekt5
  6
CONTINUOUS
 62
     7
 10
170.7104
 20
151.809599999999990
 11
171.7263
 21
151.923599999999990
  0
LINE
  8
PT3-Grafika_wekt5
  6
CONTINUOUS
 62
     7
 10
200.7585
 20
155.184399999999980
 11
200.7933
 21
155.184399999999980
  0
LINE
  8
PT3-Grafika_wekt5
  6
CONTINUOUS
 62
     7
 10
200.7933
 20
155.184399999999980
 11
200.7933
 21
156.122900000000020
  0
LINE
  8
PT3-Grafika_wekt5
  6
CONTINUOUS
 62
     7
 10
200.7585
 20
156.122900000000020
 11
200.7785
 21
156.122900000000020
  0
LINE
  8
PT3-Grafika_wekt5
  6
CONTINUOUS
 62
     7
 10
200.7759
 20
156.623200000000000
 11
201.6474
 21
156.623400000000000
  0
LINE
  8
PT3-Grafika_wekt5
  6
CONTINUOUS
 62
     7
 10
200.7933
 20
155.273399999999980
 11
201.3354
 21
155.273100000000000
  0
LINE
  8
PT3-Grafika_wekt5
  6
CONTINUOUS
 62
     7
 10
201.3354
 20
155.273100000000000
 11
201.4015
 21
155.230400000000000
  0
LINE
  8
PT3-Grafika_wekt5
  6
CONTINUOUS
 62
     7
 10
201.152
 20
156.623300000000000
 11
201.4399
 21
156.655700000000000
  0
LINE
  8
PT3-Grafika_wekt5
  6
CONTINUOUS
 62
     7
 10
201.4373
 20
156.682199999999990
 11
201.4431
 21
156.623400000000000
  0
LINE
  8
PT3-Grafika_wekt5
  6
CONTINUOUS
 62
     7
 10
201.6474
 20
156.705800000000010
 11
201.4373
 21
156.682199999999990
  0
LINE
  8
PT3-Grafika_wekt5
  6
CONTINUOUS
 62
     7
 10
115.6064
 20
147.500000000000000
 11
121.8697
 21
147.500000000000000
  0
LINE
  8
PT3-Grafika_wekt5
  6
CONTINUOUS
 62
     7
 10
121.8697
 20
147.500000000000000
 11
153.9979
 21
151.106600000000010
  0
LINE
  8
PT3-Grafika_wekt5
  6
CONTINUOUS
 62
     7
 10
121.5894
 20
147.500000000000000
 11
153.9979
 21
151.138000000000010
  0
LINE
  8
PT3-Grafika_wekt5
  6
CONTINUOUS
 62
     7
 10
153.9979
 20
151.138000000000010
 11
153.9979
 21
151.809599999999990
  0
LINE
  8
PT3-Grafika_wekt5
  6
CONTINUOUS
 62
     7
 10
153.6967
 20
152.714299999999980
 11
153.9979
 21
152.747999999999990
  0
LINE
  8
PT3-Grafika_wekt5
  6
CONTINUOUS
 62
     7
 10
153.9979
 20
152.747999999999990
 11
153.9979
 21
152.392600000000020
  0
LINE
  8
PT3-Grafika_wekt5
  6
CONTINUOUS
 62
     7
 10
153.9979
 20
152.747999999999990
 11
154.2782
 21
152.747999999999990
  0
LINE
  8
PT3-Grafika_wekt5
  6
CONTINUOUS
 62
     7
 10
170.7021
 20
151.170400000000000
 11
153.9979
 21
151.170400000000000
  0
LINE
  8
PT3-Grafika_wekt5
  6
CONTINUOUS
 62
     7
 10
170.7021
 20
151.138000000000010
 11
170.7021
 21
151.809599999999990
  0
LINE
  8
PT3-Grafika_wekt5
  6
CONTINUOUS
 62
     7
 10
201.1625
 20
155.891599999999980
 11
201.6474
 21
155.946000000000000
  0
LINE
  8
PT3-Grafika_wekt5
  6
CONTINUOUS
 62
     7
 10
154.9326
 20
110.928900000000000
 11
302.5314
 21
110.928900000000000
  0
LINE
  8
PT3-Grafika_wekt5
  6
CONTINUOUS
 62
     7
 10
302.5314
 20
110.928900000000000
 11
302.593
 21
110.504300000000000
  0
LINE
  8
PT3-Grafika_wekt5
  6
CONTINUOUS
 62
     7
 10
302.593
 20
110.504300000000000
 11
302.7416
 21
110.328399999999990
  0
LINE
  8
PT3-Grafika_wekt5
  6
CONTINUOUS
 62
     7
 10
302.7416
 20
110.328399999999990
 11
155.1427
 21
110.328399999999990
  0
LINE
  8
PT3-Grafika_wekt5
  6
CONTINUOUS
 62
     7
 10
155.3878
 20
111.029000000000000
 11
302.9869
 21
111.029000000000000
  0
LINE
  8
PT3-Grafika_wekt5
  6
CONTINUOUS
 62
     7
 10
302.9869
 20
111.029000000000000
 11
302.9869
 21
110.828800000000000
  0
LINE
  8
PT3-Grafika_wekt5
  6
CONTINUOUS
 62
     7
 10
302.9869
 20
110.828800000000000
 11
302.9608
 21
110.828800000000000
  0
LINE
  8
PT3-Grafika_wekt5
  6
CONTINUOUS
 62
     7
 10
302.9608
 20
110.828800000000000
 11
303.0338
 21
110.828800000000000
  0
LINE
  8
PT3-Grafika_wekt5
  6
CONTINUOUS
 62
     7
 10
303.0338
 20
110.828800000000000
 11
303.3311
 21
109.979600000000000
  0
LINE
  8
PT3-Grafika_wekt5
  6
CONTINUOUS
 62
     7
 10
303.3311
 20
109.979600000000000
 11
301.4101
 21
109.979600000000000
  0
LINE
  8
PT3-Grafika_wekt5
  6
CONTINUOUS
 62
     7
 10
301.4101
 20
109.979600000000000
 11
301.288
 21
110.328399999999990
  0
LINE
  8
PT3-Grafika_wekt5
  6
CONTINUOUS
 62
     7
 10
155.3878
 20
111.329199999999990
 11
302.9869
 21
111.329199999999990
  0
LINE
  8
PT3-Grafika_wekt5
  6
CONTINUOUS
 62
     7
 10
302.9869
 20
111.329199999999990
 11
302.9869
 21
111.029000000000000
  0
LINE
  8
PT3-Grafika_wekt5
  6
CONTINUOUS
 62
     7
 10
302.9869
 20
111.029000000000000
 11
317.0207
 21
113.498200000000000
  0
LINE
  8
PT3-Grafika_wekt5
  6
CONTINUOUS
 62
     7
 10
317.0207
 20
113.498200000000000
 11
317.0207
 21
113.298100000000010
  0
LINE
  8
PT3-Grafika_wekt5
  6
CONTINUOUS
 62
     7
 10
317.0207
 20
113.298100000000010
 11
303.0335
 21
110.836900000000010
  0
LINE
  8
PT3-Grafika_wekt5
  6
CONTINUOUS
 62
     7
 10
303.0335
 20
110.836900000000010
 11
303.0117
 21
110.899599999999990
  0
LINE
  8
PT3-Grafika_wekt5
  6
CONTINUOUS
 62
     7
 10
303.0117
 20
110.899599999999990
 11
302.9869
 21
110.828800000000000
  0
LINE
  8
PT3-Grafika_wekt5
  6
CONTINUOUS
 62
     7
 10
302.9869
 20
110.828800000000000
 11
303.2841
 21
109.979600000000000
  0
LINE
  8
PT3-Grafika_wekt5
  6
CONTINUOUS
 62
     7
 10
303.2841
 20
109.979600000000000
 11
303.2823
 21
109.979600000000000
  0
LINE
  8
PT3-Grafika_wekt5
  6
CONTINUOUS
 62
     7
 10
155.685
 20
109.979600000000000
 11
301.408
 21
109.979600000000000
  0
LINE
  8
PT3-Grafika_wekt5
  6
CONTINUOUS
 62
     7
 10
301.408
 20
109.979600000000000
 11
301.2867
 21
110.328399999999990
  0
LINE
  8
PT3-Grafika_wekt5
  6
CONTINUOUS
 62
     7
 10
156.4384
 20
109.313999999999990
 11
302.1565
 21
109.313999999999990
  0
LINE
  8
PT3-Grafika_wekt5
  6
CONTINUOUS
 62
     7
 10
302.1565
 20
109.313999999999990
 11
301.408
 21
109.979600000000000
  0
LINE
  8
PT3-Grafika_wekt5
  6
CONTINUOUS
 62
     7
 10
301.408
 20
109.979600000000000
 11
301.408
 21
109.985600000000010
  0
LINE
  8
PT3-Grafika_wekt5
  6
CONTINUOUS
 62
     7
 10
168.4837
 20
113.798499999999990
 11
168.5655
 21
113.798499999999990
  0
LINE
  8
PT3-Grafika_wekt5
  6
CONTINUOUS
 62
     7
 10
301.3732
 20
110.079700000000000
 11
301.3751
 21
110.079700000000000
  0
LINE
  8
PT3-Grafika_wekt5
  6
CONTINUOUS
 62
     7
 10
301.5206
 20
109.979600000000000
 11
302.1565
 21
109.414199999999990
  0
LINE
  8
PT3-Grafika_wekt5
  6
CONTINUOUS
 62
     7
 10
302.1565
 20
109.414199999999990
 11
302.1565
 21
109.313999999999990
  0
LINE
  8
PT3-Grafika_wekt5
  6
CONTINUOUS
 62
     7
 10
302.508
 20
110.928900000000000
 11
302.5549
 21
110.928900000000000
  0
LINE
  8
PT3-Grafika_wekt5
  6
CONTINUOUS
 62
     7
 10
302.5549
 20
110.928900000000000
 11
302.6164
 21
110.504300000000000
  0
LINE
  8
PT3-Grafika_wekt5
  6
CONTINUOUS
 62
     7
 10
302.6164
 20
110.504300000000000
 11
302.5696
 21
110.504300000000000
  0
LINE
  8
PT3-Grafika_wekt5
  6
CONTINUOUS
 62
     7
 10
302.5696
 20
110.504300000000000
 11
302.508
 21
110.928900000000000
  0
LINE
  8
PT3-Grafika_wekt5
  6
CONTINUOUS
 62
     7
 10
302.5549
 20
110.928900000000000
 11
302.9753
 21
110.928900000000000
  0
LINE
  8
PT3-Grafika_wekt5
  6
CONTINUOUS
 62
     7
 10
302.9753
 20
110.928900000000000
 11
302.9137
 21
110.504300000000000
  0
LINE
  8
PT3-Grafika_wekt5
  6
CONTINUOUS
 62
     7
 10
302.9137
 20
110.504300000000000
 11
302.765
 21
110.328399999999990
  0
LINE
  8
PT3-Grafika_wekt5
  6
CONTINUOUS
 62
     7
 10
302.765
 20
110.328399999999990
 11
302.6164
 21
110.504300000000000
  0
LINE
  8
PT3-Grafika_wekt5
  6
CONTINUOUS
 62
     7
 10
302.5696
 20
110.504300000000000
 11
302.7182
 21
110.328399999999990
  0
LINE
  8
PT3-Grafika_wekt5
  6
CONTINUOUS
 62
     7
 10
302.7182
 20
110.328399999999990
 11
302.765
 21
110.328399999999990
  0
LINE
  8
PT3-Grafika_wekt5
  6
CONTINUOUS
 62
     7
 10
302.9547
 20
110.786800000000000
 11
303.2372
 21
109.979700000000010
  0
LINE
  8
PT3-Grafika_wekt5
  6
CONTINUOUS
 62
     7
 10
302.9869
 20
111.329199999999990
 11
317.0207
 21
113.798499999999990
  0
LINE
  8
PT3-Grafika_wekt5
  6
CONTINUOUS
 62
     7
 10
317.0207
 20
113.798499999999990
 11
315.228
 21
113.798499999999990
  0
LINE
  8
PT3-Grafika_wekt5
  6
CONTINUOUS
 62
     7
 10
303.0115
 20
110.899599999999990
 11
303.0117
 21
110.899599999999990
  0
LINE
  8
PT3-Grafika_wekt5
  6
CONTINUOUS
 62
     7
 10
303.0338
 20
110.828800000000000
 11
317.0676
 21
113.298100000000010
  0
LINE
  8
PT3-Grafika_wekt5
  6
CONTINUOUS
 62
     7
 10
317.0676
 20
113.298100000000010
 11
317.0207
 21
113.298100000000010
  0
LINE
  8
PT3-Grafika_wekt5
  6
CONTINUOUS
 62
     7
 10
303.3311
 20
109.979600000000000
 11
317.3648
 21
112.448900000000010
  0
LINE
  8
PT3-Grafika_wekt5
  6
CONTINUOUS
 62
     7
 10
317.3648
 20
112.448900000000010
 11
317.0676
 21
113.298100000000010
  0
LINE
  8
PT3-Grafika_wekt5
  6
CONTINUOUS
 62
     7
 10
317.0207
 20
113.498200000000000
 11
317.0207
 21
113.798499999999990
  0
LINE
  8
PT3-Grafika_wekt5
  6
CONTINUOUS
 62
     7
 10
214.3055
 20
161.038000000000010
 11
214.3055
 21
165.097800000000010
  0
LINE
  8
PT3-Grafika_wekt5
  6
CONTINUOUS
 62
     7
 10
214.3055
 20
165.097800000000010
 11
222.3644
 21
165.097800000000010
  0
LINE
  8
PT3-Grafika_wekt5
  6
CONTINUOUS
 62
     7
 10
222.3644
 20
165.097800000000010
 11
222.3644
 21
161.038000000000010
  0
LINE
  8
PT3-Grafika_wekt5
  6
CONTINUOUS
 62
     7
 10
222.3644
 20
165.097800000000010
 11
224.2905
 21
165.097800000000010
  0
LINE
  8
PT3-Grafika_wekt5
  6
CONTINUOUS
 62
     7
 10
224.2905
 20
165.097800000000010
 11
224.2905
 21
161.038000000000010
  0
LINE
  8
PT3-Grafika_wekt5
  6
CONTINUOUS
 62
     7
 10
278.4415
 20
97.104299999999995
 11
278.4416
 21
96.840800000000002
  0
LINE
  8
PT3-Grafika_wekt5
  6
CONTINUOUS
 62
     7
 10
278.4416
 20
96.840800000000002
 11
278.466
 21
96.790600000000012
  0
LINE
  8
PT3-Grafika_wekt5
  6
CONTINUOUS
 62
     7
 10
278.466
 20
96.790600000000012
 11
278.4902
 21
96.840399999999988
  0
LINE
  8
PT3-Grafika_wekt5
  6
CONTINUOUS
 62
     7
 10
278.4902
 20
96.840399999999988
 11
278.49
 21
97.104000000000013
  0
LINE
  8
PT3-Grafika_wekt5
  6
CONTINUOUS
 62
     7
 10
278.49
 20
97.104000000000013
 11
278.4657
 21
97.154200000000003
  0
LINE
  8
PT3-Grafika_wekt5
  6
CONTINUOUS
 62
     7
 10
278.4657
 20
97.154200000000003
 11
278.4415
 21
97.104299999999995
  0
LINE
  8
PT3-Grafika_wekt5
  6
CONTINUOUS
 62
     7
 10
278.4657
 20
97.154200000000003
 11
278.9821
 21
97.164600000000007
  0
LINE
  8
PT3-Grafika_wekt5
  6
CONTINUOUS
 62
     7
 10
278.9821
 20
97.164600000000007
 11
289.7916
 21
97.164600000000007
  0
LINE
  8
PT3-Grafika_wekt5
  6
CONTINUOUS
 62
     7
 10
278.466
 20
96.790600000000012
 11
289.6455
 21
96.790600000000012
  0
LINE
  8
PT3-Grafika_wekt5
  6
CONTINUOUS
 62
     7
 10
289.6455
 20
96.790600000000012
 11
289.604
 21
96.840399999999988
  0
LINE
  8
PT3-Grafika_wekt5
  6
CONTINUOUS
 62
     7
 10
289.604
 20
96.840399999999988
 11
278.4902
 21
96.840399999999988
  0
LINE
  8
PT3-Grafika_wekt5
  6
CONTINUOUS
 62
     7
 10
278.49
 20
97.104000000000013
 11
289.6038
 21
97.104000000000013
  0
LINE
  8
PT3-Grafika_wekt5
  6
CONTINUOUS
 62
     7
 10
289.6038
 20
97.104000000000013
 11
289.604
 21
96.840399999999988
  0
LINE
  8
PT3-Grafika_wekt5
  6
CONTINUOUS
 62
     7
 10
279.1667
 20
97.155100000000004
 11
279.2217
 21
97.156200000000013
  0
LINE
  8
PT3-Grafika_wekt5
  6
CONTINUOUS
 62
     7
 10
279.2217
 20
97.156200000000013
 11
279.2215
 21
97.155100000000004
  0
LINE
  8
PT3-Grafika_wekt5
  6
CONTINUOUS
 62
     7
 10
279.2217
 20
97.156200000000013
 11
289.0859
 21
97.156200000000013
  0
LINE
  8
PT3-Grafika_wekt5
  6
CONTINUOUS
 62
     7
 10
289.0859
 20
97.156200000000013
 11
289.0311
 21
97.155100000000004
  0
LINE
  8
PT3-Grafika_wekt5
  6
CONTINUOUS
 62
     7
 10
289.0311
 20
97.155100000000004
 11
279.1667
 21
97.155100000000004
  0
LINE
  8
PT3-Grafika_wekt5
  6
CONTINUOUS
 62
     7
 10
289.6038
 20
97.104000000000013
 11
289.6452
 21
97.154200000000003
  0
LINE
  8
PT3-Grafika_wekt5
  6
CONTINUOUS
 62
     7
 10
289.6452
 20
97.154200000000003
 11
278.4657
 21
97.154200000000003
  0
LINE
  8
PT3-Grafika_wekt5
  6
CONTINUOUS
 62
     7
 10
289.6452
 20
97.154200000000003
 11
289.6868
 21
97.104299999999995
  0
LINE
  8
PT3-Grafika_wekt5
  6
CONTINUOUS
 62
     7
 10
289.6868
 20
97.104299999999995
 11
289.6869
 21
96.840800000000002
  0
LINE
  8
PT3-Grafika_wekt5
  6
CONTINUOUS
 62
     7
 10
289.6869
 20
96.840800000000002
 11
289.6455
 21
96.790600000000012
  0
LINE
  8
PT3-Grafika_wekt5
  6
CONTINUOUS
 62
     7
 10
289.6455
 20
96.790600000000012
 11
289.7417
 21
96.792399999999986
  0
LINE
  8
PT3-Grafika_wekt5
  6
CONTINUOUS
 62
     7
 10
289.6868
 20
97.104299999999995
 11
289.7916
 21
97.106500000000011
  0
LINE
  8
PT3-Grafika_wekt5
  6
CONTINUOUS
 62
     7
 10
289.6869
 20
96.840800000000002
 11
289.7746
 21
96.842600000000004
  0
LINE
  8
PT3-Grafika_wekt5
  6
CONTINUOUS
 62
     7
 10
289.7916
 20
97.157199999999989
 11
289.6452
 21
97.154200000000003
  0
LINE
  8
PT3-Grafika_wekt5
  6
CONTINUOUS
 62
     7
 10
278.9814
 20
97.165199999999999
 11
279.8762
 21
97.740299999999991
  0
LINE
  8
PT3-Grafika_wekt5
  6
CONTINUOUS
 62
     7
 10
279.8762
 20
97.740299999999991
 11
289.2721
 21
97.740299999999991
  0
LINE
  8
PT3-Grafika_wekt5
  6
CONTINUOUS
 62
     7
 10
278.9814
 20
97.166400000000010
 11
279.8865
 21
97.748700000000014
  0
LINE
  8
PT3-Grafika_wekt5
  6
CONTINUOUS
 62
     7
 10
279.8865
 20
97.748700000000014
 11
279.8865
 21
105.551400000000000
  0
LINE
  8
PT3-Grafika_wekt5
  6
CONTINUOUS
 62
     7
 10
279.8865
 20
105.551400000000000
 11
278.9938
 21
106.124200000000000
  0
LINE
  8
PT3-Grafika_wekt5
  6
CONTINUOUS
 62
     7
 10
278.9922
 20
106.124200000000000
 11
279.8762
 21
105.556000000000010
  0
LINE
  8
PT3-Grafika_wekt5
  6
CONTINUOUS
 62
     7
 10
279.8762
 20
105.556000000000010
 11
289.2665
 21
105.556000000000010
  0
LINE
  8
PT3-Grafika_wekt5
  6
CONTINUOUS
 62
     7
 10
279.8865
 20
97.748700000000014
 11
279.955
 21
97.746499999999997
  0
LINE
  8
PT3-Grafika_wekt5
  6
CONTINUOUS
 62
     7
 10
279.8865
 20
105.551400000000000
 11
279.955
 21
105.551400000000000
  0
LINE
  8
PT3-Grafika_wekt5
  6
CONTINUOUS
 62
     7
 10
279.9657
 20
105.556000000000010
 11
280.4343
 21
105.252000000000010
  0
LINE
  8
PT3-Grafika_wekt5
  6
CONTINUOUS
 62
     7
 10
280.4343
 20
105.252000000000010
 11
280.4343
 21
98.037200000000013
  0
LINE
  8
PT3-Grafika_wekt5
  6
CONTINUOUS
 62
     7
 10
280.4343
 20
98.037200000000013
 11
279.9712
 21
97.740299999999991
  0
LINE
  8
PT3-Grafika_wekt5
  6
CONTINUOUS
 62
     7
 10
279.9668
 20
105.556000000000010
 11
280.434
 21
105.254899999999990
  0
LINE
  8
PT3-Grafika_wekt5
  6
CONTINUOUS
 62
     7
 10
280.434
 20
105.254899999999990
 11
288.8727
 21
105.254899999999990
  0
LINE
  8
PT3-Grafika_wekt5
  6
CONTINUOUS
 62
     7
 10
279.9743
 20
97.740299999999991
 11
280.3302
 21
97.969799999999992
  0
LINE
  8
PT3-Grafika_wekt5
  6
CONTINUOUS
 62
     7
 10
280.4343
 20
98.037200000000013
 11
280.469
 21
98.038299999999992
  0
LINE
  8
PT3-Grafika_wekt5
  6
CONTINUOUS
 62
     7
 10
280.4343
 20
105.252000000000010
 11
280.469
 21
105.252000000000010
  0
LINE
  8
PT3-Grafika_wekt5
  6
CONTINUOUS
 62
     7
 10
280.4345
 20
98.036599999999993
 11
288.8692
 21
98.036599999999993
  0
LINE
  8
PT3-Grafika_wekt5
  6
CONTINUOUS
 62
     7
 10
288.8692
 20
98.036599999999993
 11
289.2593
 21
97.786399999999986
  0
LINE
  8
PT3-Grafika_wekt5
  6
CONTINUOUS
 62
     7
 10
288.8683
 20
98.037200000000013
 11
288.8683
 21
105.252000000000010
  0
LINE
  8
PT3-Grafika_wekt5
  6
CONTINUOUS
 62
     7
 10
288.8683
 20
105.252000000000010
 11
289.2593
 21
105.505599999999990
  0
LINE
  8
PT3-Grafika_wekt5
  6
CONTINUOUS
 62
     7
 10
288.8692
 20
105.254899999999990
 11
289.1894
 21
105.460299999999990
  0
LINE
  8
PT3-Grafika_wekt5
  6
CONTINUOUS
 62
     7
 10
289.2593
 20
97.748700000000014
 11
289.2593
 21
105.551400000000000
  0
LINE
  8
PT3-Grafika_wekt5
  6
CONTINUOUS
 62
     7
 10
289.2593
 20
105.551400000000000
 11
289.7916
 21
105.893000000000000
  0
LINE
  8
PT3-Grafika_wekt5
  6
CONTINUOUS
 62
     7
 10
289.2593
 20
97.786599999999993
 11
288.8683
 21
98.037200000000013
  0
LINE
  8
PT3-Grafika_wekt5
  6
CONTINUOUS
 62
     7
 10
289.2598
 20
105.556000000000010
 11
289.7916
 21
105.894800000000000
  0
LINE
  8
PT3-Grafika_wekt5
  6
CONTINUOUS
 62
     7
 10
289.2658
 20
97.740299999999991
 11
289.7916
 21
97.403199999999998
  0
LINE
  8
PT3-Grafika_wekt5
  6
CONTINUOUS
 62
     7
 10
289.7916
 20
97.406200000000013
 11
289.2593
 21
97.748700000000014
  0
LINE
  8
PT3-Grafika_wekt5
  6
CONTINUOUS
 62
     7
 10
248.3346
 20
97.104299999999995
 11
248.3347
 21
96.840800000000002
  0
LINE
  8
PT3-Grafika_wekt5
  6
CONTINUOUS
 62
     7
 10
248.3347
 20
96.840800000000002
 11
248.359
 21
96.790600000000012
  0
LINE
  8
PT3-Grafika_wekt5
  6
CONTINUOUS
 62
     7
 10
248.359
 20
96.790600000000012
 11
248.3832
 21
96.840399999999988
  0
LINE
  8
PT3-Grafika_wekt5
  6
CONTINUOUS
 62
     7
 10
248.3832
 20
96.840399999999988
 11
248.3831
 21
97.104000000000013
  0
LINE
  8
PT3-Grafika_wekt5
  6
CONTINUOUS
 62
     7
 10
248.3831
 20
97.104000000000013
 11
248.3588
 21
97.154200000000003
  0
LINE
  8
PT3-Grafika_wekt5
  6
CONTINUOUS
 62
     7
 10
248.3588
 20
97.154200000000003
 11
248.3346
 21
97.104299999999995
  0
LINE
  8
PT3-Grafika_wekt5
  6
CONTINUOUS
 62
     7
 10
248.3588
 20
97.154200000000003
 11
248.8752
 21
97.164600000000007
  0
LINE
  8
PT3-Grafika_wekt5
  6
CONTINUOUS
 62
     7
 10
248.8752
 20
97.164600000000007
 11
259.6847
 21
97.164600000000007
  0
LINE
  8
PT3-Grafika_wekt5
  6
CONTINUOUS
 62
     7
 10
248.359
 20
96.790600000000012
 11
259.5385
 21
96.790600000000012
  0
LINE
  8
PT3-Grafika_wekt5
  6
CONTINUOUS
 62
     7
 10
259.5385
 20
96.790600000000012
 11
259.497
 21
96.840399999999988
  0
LINE
  8
PT3-Grafika_wekt5
  6
CONTINUOUS
 62
     7
 10
259.497
 20
96.840399999999988
 11
248.3832
 21
96.840399999999988
  0
LINE
  8
PT3-Grafika_wekt5
  6
CONTINUOUS
 62
     7
 10
248.3831
 20
97.104000000000013
 11
259.4969
 21
97.104000000000013
  0
LINE
  8
PT3-Grafika_wekt5
  6
CONTINUOUS
 62
     7
 10
259.4969
 20
97.104000000000013
 11
259.497
 21
96.840399999999988
  0
LINE
  8
PT3-Grafika_wekt5
  6
CONTINUOUS
 62
     7
 10
249.0599
 20
97.155100000000004
 11
249.1147
 21
97.156200000000013
  0
LINE
  8
PT3-Grafika_wekt5
  6
CONTINUOUS
 62
     7
 10
249.1147
 20
97.156200000000013
 11
249.1146
 21
97.155100000000004
  0
LINE
  8
PT3-Grafika_wekt5
  6
CONTINUOUS
 62
     7
 10
249.1147
 20
97.156200000000013
 11
258.979
 21
97.156200000000013
  0
LINE
  8
PT3-Grafika_wekt5
  6
CONTINUOUS
 62
     7
 10
258.979
 20
97.156200000000013
 11
258.9242
 21
97.155100000000004
  0
LINE
  8
PT3-Grafika_wekt5
  6
CONTINUOUS
 62
     7
 10
258.9242
 20
97.155100000000004
 11
249.0599
 21
97.155100000000004
  0
LINE
  8
PT3-Grafika_wekt5
  6
CONTINUOUS
 62
     7
 10
259.4969
 20
97.104000000000013
 11
259.5384
 21
97.154200000000003
  0
LINE
  8
PT3-Grafika_wekt5
  6
CONTINUOUS
 62
     7
 10
259.5384
 20
97.154200000000003
 11
248.3588
 21
97.154200000000003
  0
LINE
  8
PT3-Grafika_wekt5
  6
CONTINUOUS
 62
     7
 10
259.5384
 20
97.154200000000003
 11
259.5798
 21
97.104299999999995
  0
LINE
  8
PT3-Grafika_wekt5
  6
CONTINUOUS
 62
     7
 10
259.5798
 20
97.104299999999995
 11
259.58
 21
96.840800000000002
  0
LINE
  8
PT3-Grafika_wekt5
  6
CONTINUOUS
 62
     7
 10
259.58
 20
96.840800000000002
 11
259.5385
 21
96.790600000000012
  0
LINE
  8
PT3-Grafika_wekt5
  6
CONTINUOUS
 62
     7
 10
259.5385
 20
96.790600000000012
 11
259.6348
 21
96.792399999999986
  0
LINE
  8
PT3-Grafika_wekt5
  6
CONTINUOUS
 62
     7
 10
259.5798
 20
97.104299999999995
 11
259.6847
 21
97.106500000000011
  0
LINE
  8
PT3-Grafika_wekt5
  6
CONTINUOUS
 62
     7
 10
259.58
 20
96.840800000000002
 11
259.6677
 21
96.842600000000004
  0
LINE
  8
PT3-Grafika_wekt5
  6
CONTINUOUS
 62
     7
 10
259.6847
 20
97.157199999999989
 11
259.5384
 21
97.154200000000003
  0
LINE
  8
PT3-Grafika_wekt5
  6
CONTINUOUS
 62
     7
 10
248.8745
 20
97.165199999999999
 11
249.7692
 21
97.740299999999991
  0
LINE
  8
PT3-Grafika_wekt5
  6
CONTINUOUS
 62
     7
 10
249.7692
 20
97.740299999999991
 11
259.1651
 21
97.740299999999991
  0
LINE
  8
PT3-Grafika_wekt5
  6
CONTINUOUS
 62
     7
 10
248.8745
 20
97.166400000000010
 11
249.7796
 21
97.748700000000014
  0
LINE
  8
PT3-Grafika_wekt5
  6
CONTINUOUS
 62
     7
 10
249.7796
 20
97.748700000000014
 11
249.7796
 21
105.551400000000000
  0
LINE
  8
PT3-Grafika_wekt5
  6
CONTINUOUS
 62
     7
 10
249.7796
 20
105.551400000000000
 11
248.8868
 21
106.124200000000000
  0
LINE
  8
PT3-Grafika_wekt5
  6
CONTINUOUS
 62
     7
 10
248.8853
 20
106.124200000000000
 11
249.7692
 21
105.556000000000010
  0
LINE
  8
PT3-Grafika_wekt5
  6
CONTINUOUS
 62
     7
 10
249.7692
 20
105.556000000000010
 11
249.585
 21
105.556000000000010
  0
LINE
  8
PT3-Grafika_wekt5
  6
CONTINUOUS
 62
     7
 10
249.7724
 20
105.556000000000010
 11
259.1595
 21
105.556000000000010
  0
LINE
  8
PT3-Grafika_wekt5
  6
CONTINUOUS
 62
     7
 10
249.7796
 20
97.748700000000014
 11
249.8481
 21
97.746499999999997
  0
LINE
  8
PT3-Grafika_wekt5
  6
CONTINUOUS
 62
     7
 10
249.7796
 20
105.551400000000000
 11
249.8481
 21
105.551400000000000
  0
LINE
  8
PT3-Grafika_wekt5
  6
CONTINUOUS
 62
     7
 10
249.8588
 20
105.556000000000010
 11
250.3273
 21
105.252000000000010
  0
LINE
  8
PT3-Grafika_wekt5
  6
CONTINUOUS
 62
     7
 10
250.3273
 20
105.252000000000010
 11
250.3273
 21
98.037200000000013
  0
LINE
  8
PT3-Grafika_wekt5
  6
CONTINUOUS
 62
     7
 10
250.3273
 20
98.037200000000013
 11
249.8643
 21
97.740299999999991
  0
LINE
  8
PT3-Grafika_wekt5
  6
CONTINUOUS
 62
     7
 10
249.8598
 20
105.556000000000010
 11
250.327
 21
105.254899999999990
  0
LINE
  8
PT3-Grafika_wekt5
  6
CONTINUOUS
 62
     7
 10
250.327
 20
105.254899999999990
 11
258.7657
 21
105.254899999999990
  0
LINE
  8
PT3-Grafika_wekt5
  6
CONTINUOUS
 62
     7
 10
249.8674
 20
97.740299999999991
 11
250.2233
 21
97.969799999999992
  0
LINE
  8
PT3-Grafika_wekt5
  6
CONTINUOUS
 62
     7
 10
250.3273
 20
98.037200000000013
 11
250.3621
 21
98.038299999999992
  0
LINE
  8
PT3-Grafika_wekt5
  6
CONTINUOUS
 62
     7
 10
250.3273
 20
105.252000000000010
 11
250.3621
 21
105.252000000000010
  0
LINE
  8
PT3-Grafika_wekt5
  6
CONTINUOUS
 62
     7
 10
250.3275
 20
98.036599999999993
 11
258.7621
 21
98.036599999999993
  0
LINE
  8
PT3-Grafika_wekt5
  6
CONTINUOUS
 62
     7
 10
258.7621
 20
98.036599999999993
 11
259.1522
 21
97.786399999999986
  0
LINE
  8
PT3-Grafika_wekt5
  6
CONTINUOUS
 62
     7
 10
258.7615
 20
98.037200000000013
 11
258.7615
 21
105.252000000000010
  0
LINE
  8
PT3-Grafika_wekt5
  6
CONTINUOUS
 62
     7
 10
258.7615
 20
105.252000000000010
 11
259.1522
 21
105.505599999999990
  0
LINE
  8
PT3-Grafika_wekt5
  6
CONTINUOUS
 62
     7
 10
258.7621
 20
105.254899999999990
 11
259.0825
 21
105.460299999999990
  0
LINE
  8
PT3-Grafika_wekt5
  6
CONTINUOUS
 62
     7
 10
259.1522
 20
97.748700000000014
 11
259.1522
 21
105.551400000000000
  0
LINE
  8
PT3-Grafika_wekt5
  6
CONTINUOUS
 62
     7
 10
259.1522
 20
105.551400000000000
 11
259.6847
 21
105.893000000000000
  0
LINE
  8
PT3-Grafika_wekt5
  6
CONTINUOUS
 62
     7
 10
259.1522
 20
97.786599999999993
 11
258.7615
 21
98.037200000000013
  0
LINE
  8
PT3-Grafika_wekt5
  6
CONTINUOUS
 62
     7
 10
259.1529
 20
105.556000000000010
 11
259.6847
 21
105.894800000000000
  0
LINE
  8
PT3-Grafika_wekt5
  6
CONTINUOUS
 62
     7
 10
259.1589
 20
97.740299999999991
 11
259.6847
 21
97.403199999999998
  0
LINE
  8
PT3-Grafika_wekt5
  6
CONTINUOUS
 62
     7
 10
259.6847
 20
97.406200000000013
 11
259.1522
 21
97.748700000000014
  0
LINE
  8
PT3-Grafika_wekt5
  6
CONTINUOUS
 62
     7
 10
197.8245
 20
97.104299999999995
 11
197.8247
 21
96.840800000000002
  0
LINE
  8
PT3-Grafika_wekt5
  6
CONTINUOUS
 62
     7
 10
197.8247
 20
96.840800000000002
 11
197.849
 21
96.790600000000012
  0
LINE
  8
PT3-Grafika_wekt5
  6
CONTINUOUS
 62
     7
 10
197.849
 20
96.790600000000012
 11
197.8732
 21
96.840399999999988
  0
LINE
  8
PT3-Grafika_wekt5
  6
CONTINUOUS
 62
     7
 10
197.8732
 20
96.840399999999988
 11
197.8731
 21
97.104000000000013
  0
LINE
  8
PT3-Grafika_wekt5
  6
CONTINUOUS
 62
     7
 10
197.8731
 20
97.104000000000013
 11
197.8488
 21
97.154200000000003
  0
LINE
  8
PT3-Grafika_wekt5
  6
CONTINUOUS
 62
     7
 10
197.8488
 20
97.154200000000003
 11
197.8245
 21
97.104299999999995
  0
LINE
  8
PT3-Grafika_wekt5
  6
CONTINUOUS
 62
     7
 10
197.8488
 20
97.154200000000003
 11
198.3652
 21
97.164600000000007
  0
LINE
  8
PT3-Grafika_wekt5
  6
CONTINUOUS
 62
     7
 10
198.3652
 20
97.164600000000007
 11
209.1746
 21
97.164600000000007
  0
LINE
  8
PT3-Grafika_wekt5
  6
CONTINUOUS
 62
     7
 10
197.849
 20
96.790600000000012
 11
209.0286
 21
96.790600000000012
  0
LINE
  8
PT3-Grafika_wekt5
  6
CONTINUOUS
 62
     7
 10
209.0286
 20
96.790600000000012
 11
208.987
 21
96.840399999999988
  0
LINE
  8
PT3-Grafika_wekt5
  6
CONTINUOUS
 62
     7
 10
208.987
 20
96.840399999999988
 11
197.8732
 21
96.840399999999988
  0
LINE
  8
PT3-Grafika_wekt5
  6
CONTINUOUS
 62
     7
 10
197.8731
 20
97.104000000000013
 11
208.9869
 21
97.104000000000013
  0
LINE
  8
PT3-Grafika_wekt5
  6
CONTINUOUS
 62
     7
 10
208.9869
 20
97.104000000000013
 11
208.987
 21
96.840399999999988
  0
LINE
  8
PT3-Grafika_wekt5
  6
CONTINUOUS
 62
     7
 10
198.5498
 20
97.155100000000004
 11
198.6047
 21
97.156200000000013
  0
LINE
  8
PT3-Grafika_wekt5
  6
CONTINUOUS
 62
     7
 10
198.6047
 20
97.156200000000013
 11
198.6046
 21
97.155100000000004
  0
LINE
  8
PT3-Grafika_wekt5
  6
CONTINUOUS
 62
     7
 10
198.6047
 20
97.156200000000013
 11
208.4689
 21
97.156200000000013
  0
LINE
  8
PT3-Grafika_wekt5
  6
CONTINUOUS
 62
     7
 10
208.4689
 20
97.156200000000013
 11
208.4141
 21
97.155100000000004
  0
LINE
  8
PT3-Grafika_wekt5
  6
CONTINUOUS
 62
     7
 10
208.4141
 20
97.155100000000004
 11
198.5498
 21
97.155100000000004
  0
LINE
  8
PT3-Grafika_wekt5
  6
CONTINUOUS
 62
     7
 10
208.9869
 20
97.104000000000013
 11
209.0283
 21
97.154200000000003
  0
LINE
  8
PT3-Grafika_wekt5
  6
CONTINUOUS
 62
     7
 10
209.0283
 20
97.154200000000003
 11
197.8488
 21
97.154200000000003
  0
LINE
  8
PT3-Grafika_wekt5
  6
CONTINUOUS
 62
     7
 10
209.0283
 20
97.154200000000003
 11
209.0699
 21
97.104299999999995
  0
LINE
  8
PT3-Grafika_wekt5
  6
CONTINUOUS
 62
     7
 10
209.0699
 20
97.104299999999995
 11
209.07
 21
96.840800000000002
  0
LINE
  8
PT3-Grafika_wekt5
  6
CONTINUOUS
 62
     7
 10
209.07
 20
96.840800000000002
 11
209.0286
 21
96.790600000000012
  0
LINE
  8
PT3-Grafika_wekt5
  6
CONTINUOUS
 62
     7
 10
209.0286
 20
96.790600000000012
 11
209.1248
 21
96.792399999999986
  0
LINE
  8
PT3-Grafika_wekt5
  6
CONTINUOUS
 62
     7
 10
209.0699
 20
97.104299999999995
 11
209.1746
 21
97.106500000000011
  0
LINE
  8
PT3-Grafika_wekt5
  6
CONTINUOUS
 62
     7
 10
209.07
 20
96.840800000000002
 11
209.1576
 21
96.842600000000004
  0
LINE
  8
PT3-Grafika_wekt5
  6
CONTINUOUS
 62
     7
 10
209.1746
 20
97.157199999999989
 11
209.0283
 21
97.154200000000003
  0
LINE
  8
PT3-Grafika_wekt5
  6
CONTINUOUS
 62
     7
 10
198.3644
 20
97.165199999999999
 11
199.2592
 21
97.740299999999991
  0
LINE
  8
PT3-Grafika_wekt5
  6
CONTINUOUS
 62
     7
 10
199.2592
 20
97.740299999999991
 11
208.6551
 21
97.740299999999991
  0
LINE
  8
PT3-Grafika_wekt5
  6
CONTINUOUS
 62
     7
 10
198.3644
 20
97.166400000000010
 11
199.2696
 21
97.748700000000014
  0
LINE
  8
PT3-Grafika_wekt5
  6
CONTINUOUS
 62
     7
 10
199.2696
 20
97.748700000000014
 11
199.2696
 21
105.551400000000000
  0
LINE
  8
PT3-Grafika_wekt5
  6
CONTINUOUS
 62
     7
 10
199.2696
 20
105.551400000000000
 11
198.3769
 21
106.124200000000000
  0
LINE
  8
PT3-Grafika_wekt5
  6
CONTINUOUS
 62
     7
 10
198.3752
 20
106.124200000000000
 11
199.2592
 21
105.556000000000010
  0
LINE
  8
PT3-Grafika_wekt5
  6
CONTINUOUS
 62
     7
 10
199.2592
 20
105.556000000000010
 11
208.6495
 21
105.556000000000010
  0
LINE
  8
PT3-Grafika_wekt5
  6
CONTINUOUS
 62
     7
 10
199.2696
 20
97.748700000000014
 11
199.3381
 21
97.746499999999997
  0
LINE
  8
PT3-Grafika_wekt5
  6
CONTINUOUS
 62
     7
 10
199.2696
 20
105.551400000000000
 11
199.3381
 21
105.551400000000000
  0
LINE
  8
PT3-Grafika_wekt5
  6
CONTINUOUS
 62
     7
 10
199.3488
 20
105.556000000000010
 11
199.8173
 21
105.252000000000010
  0
LINE
  8
PT3-Grafika_wekt5
  6
CONTINUOUS
 62
     7
 10
199.8173
 20
105.252000000000010
 11
199.8173
 21
98.037200000000013
  0
LINE
  8
PT3-Grafika_wekt5
  6
CONTINUOUS
 62
     7
 10
199.8173
 20
98.037200000000013
 11
199.3543
 21
97.740299999999991
  0
LINE
  8
PT3-Grafika_wekt5
  6
CONTINUOUS
 62
     7
 10
199.3498
 20
105.556000000000010
 11
199.817
 21
105.254899999999990
  0
LINE
  8
PT3-Grafika_wekt5
  6
CONTINUOUS
 62
     7
 10
199.817
 20
105.254899999999990
 11
208.2557
 21
105.254899999999990
  0
LINE
  8
PT3-Grafika_wekt5
  6
CONTINUOUS
 62
     7
 10
199.3573
 20
97.740299999999991
 11
199.7122
 21
97.969200000000001
  0
LINE
  8
PT3-Grafika_wekt5
  6
CONTINUOUS
 62
     7
 10
199.8173
 20
98.037200000000013
 11
199.852
 21
98.038299999999992
  0
LINE
  8
PT3-Grafika_wekt5
  6
CONTINUOUS
 62
     7
 10
199.8173
 20
105.252000000000010
 11
199.852
 21
105.252000000000010
  0
LINE
  8
PT3-Grafika_wekt5
  6
CONTINUOUS
 62
     7
 10
199.8175
 20
98.036599999999993
 11
208.2522
 21
98.036599999999993
  0
LINE
  8
PT3-Grafika_wekt5
  6
CONTINUOUS
 62
     7
 10
208.2522
 20
98.036599999999993
 11
208.6423
 21
97.786399999999986
  0
LINE
  8
PT3-Grafika_wekt5
  6
CONTINUOUS
 62
     7
 10
208.2514
 20
98.037200000000013
 11
208.2514
 21
105.252000000000010
  0
LINE
  8
PT3-Grafika_wekt5
  6
CONTINUOUS
 62
     7
 10
208.2514
 20
105.252000000000010
 11
208.6423
 21
105.505599999999990
  0
LINE
  8
PT3-Grafika_wekt5
  6
CONTINUOUS
 62
     7
 10
208.2522
 20
105.254899999999990
 11
208.5725
 21
105.460299999999990
  0
LINE
  8
PT3-Grafika_wekt5
  6
CONTINUOUS
 62
     7
 10
208.6423
 20
97.748700000000014
 11
208.6423
 21
105.551400000000000
  0
LINE
  8
PT3-Grafika_wekt5
  6
CONTINUOUS
 62
     7
 10
208.6423
 20
105.551400000000000
 11
209.1746
 21
105.893000000000000
  0
LINE
  8
PT3-Grafika_wekt5
  6
CONTINUOUS
 62
     7
 10
208.6423
 20
97.786599999999993
 11
208.2514
 21
98.037200000000013
  0
LINE
  8
PT3-Grafika_wekt5
  6
CONTINUOUS
 62
     7
 10
208.6429
 20
105.556000000000010
 11
209.1746
 21
105.894800000000000
  0
LINE
  8
PT3-Grafika_wekt5
  6
CONTINUOUS
 62
     7
 10
208.6488
 20
97.740299999999991
 11
209.1746
 21
97.403199999999998
  0
LINE
  8
PT3-Grafika_wekt5
  6
CONTINUOUS
 62
     7
 10
209.1746
 20
97.406200000000013
 11
208.6423
 21
97.748700000000014
  0
LINE
  8
PT3-Grafika_wekt5
  6
CONTINUOUS
 62
     7
 10
167.7644
 20
97.104299999999995
 11
167.7646
 21
96.840800000000002
  0
LINE
  8
PT3-Grafika_wekt5
  6
CONTINUOUS
 62
     7
 10
167.7646
 20
96.840800000000002
 11
167.7889
 21
96.790600000000012
  0
LINE
  8
PT3-Grafika_wekt5
  6
CONTINUOUS
 62
     7
 10
167.7889
 20
96.790600000000012
 11
167.8131
 21
96.840399999999988
  0
LINE
  8
PT3-Grafika_wekt5
  6
CONTINUOUS
 62
     7
 10
167.8131
 20
96.840399999999988
 11
167.8129
 21
97.104000000000013
  0
LINE
  8
PT3-Grafika_wekt5
  6
CONTINUOUS
 62
     7
 10
167.8129
 20
97.104000000000013
 11
167.7887
 21
97.154200000000003
  0
LINE
  8
PT3-Grafika_wekt5
  6
CONTINUOUS
 62
     7
 10
167.7887
 20
97.154200000000003
 11
167.7644
 21
97.104299999999995
  0
LINE
  8
PT3-Grafika_wekt5
  6
CONTINUOUS
 62
     7
 10
167.7887
 20
97.154200000000003
 11
168.305
 21
97.164600000000007
  0
LINE
  8
PT3-Grafika_wekt5
  6
CONTINUOUS
 62
     7
 10
168.305
 20
97.164600000000007
 11
179.1145
 21
97.164600000000007
  0
LINE
  8
PT3-Grafika_wekt5
  6
CONTINUOUS
 62
     7
 10
167.7889
 20
96.790600000000012
 11
178.9685
 21
96.790600000000012
  0
LINE
  8
PT3-Grafika_wekt5
  6
CONTINUOUS
 62
     7
 10
178.9685
 20
96.790600000000012
 11
178.9269
 21
96.840399999999988
  0
LINE
  8
PT3-Grafika_wekt5
  6
CONTINUOUS
 62
     7
 10
178.9269
 20
96.840399999999988
 11
167.8131
 21
96.840399999999988
  0
LINE
  8
PT3-Grafika_wekt5
  6
CONTINUOUS
 62
     7
 10
167.8129
 20
97.104000000000013
 11
178.9267
 21
97.104000000000013
  0
LINE
  8
PT3-Grafika_wekt5
  6
CONTINUOUS
 62
     7
 10
178.9267
 20
97.104000000000013
 11
178.9269
 21
96.840399999999988
  0
LINE
  8
PT3-Grafika_wekt5
  6
CONTINUOUS
 62
     7
 10
168.4897
 20
97.155100000000004
 11
168.5446
 21
97.156200000000013
  0
LINE
  8
PT3-Grafika_wekt5
  6
CONTINUOUS
 62
     7
 10
168.5446
 20
97.156200000000013
 11
168.5445
 21
97.155100000000004
  0
LINE
  8
PT3-Grafika_wekt5
  6
CONTINUOUS
 62
     7
 10
168.5446
 20
97.156200000000013
 11
178.4089
 21
97.156200000000013
  0
LINE
  8
PT3-Grafika_wekt5
  6
CONTINUOUS
 62
     7
 10
178.4089
 20
97.156200000000013
 11
178.354
 21
97.155100000000004
  0
LINE
  8
PT3-Grafika_wekt5
  6
CONTINUOUS
 62
     7
 10
178.354
 20
97.155100000000004
 11
168.4897
 21
97.155100000000004
  0
LINE
  8
PT3-Grafika_wekt5
  6
CONTINUOUS
 62
     7
 10
178.9267
 20
97.104000000000013
 11
178.9682
 21
97.154200000000003
  0
LINE
  8
PT3-Grafika_wekt5
  6
CONTINUOUS
 62
     7
 10
178.9682
 20
97.154200000000003
 11
167.7887
 21
97.154200000000003
  0
LINE
  8
PT3-Grafika_wekt5
  6
CONTINUOUS
 62
     7
 10
178.9682
 20
97.154200000000003
 11
179.0097
 21
97.104299999999995
  0
LINE
  8
PT3-Grafika_wekt5
  6
CONTINUOUS
 62
     7
 10
179.0097
 20
97.104299999999995
 11
179.0098
 21
96.840800000000002
  0
LINE
  8
PT3-Grafika_wekt5
  6
CONTINUOUS
 62
     7
 10
179.0098
 20
96.840800000000002
 11
178.9685
 21
96.790600000000012
  0
LINE
  8
PT3-Grafika_wekt5
  6
CONTINUOUS
 62
     7
 10
178.9685
 20
96.790600000000012
 11
179.0646
 21
96.792399999999986
  0
LINE
  8
PT3-Grafika_wekt5
  6
CONTINUOUS
 62
     7
 10
179.0097
 20
97.104299999999995
 11
179.1145
 21
97.106500000000011
  0
LINE
  8
PT3-Grafika_wekt5
  6
CONTINUOUS
 62
     7
 10
179.0098
 20
96.840800000000002
 11
179.0975
 21
96.842600000000004
  0
LINE
  8
PT3-Grafika_wekt5
  6
CONTINUOUS
 62
     7
 10
179.1145
 20
97.157199999999989
 11
178.9682
 21
97.154200000000003
  0
LINE
  8
PT3-Grafika_wekt5
  6
CONTINUOUS
 62
     7
 10
168.3043
 20
97.165199999999999
 11
169.1991
 21
97.740299999999991
  0
LINE
  8
PT3-Grafika_wekt5
  6
CONTINUOUS
 62
     7
 10
169.1991
 20
97.740299999999991
 11
178.595
 21
97.740299999999991
  0
LINE
  8
PT3-Grafika_wekt5
  6
CONTINUOUS
 62
     7
 10
168.3043
 20
97.166400000000010
 11
169.2095
 21
97.748700000000014
  0
LINE
  8
PT3-Grafika_wekt5
  6
CONTINUOUS
 62
     7
 10
169.2095
 20
97.748700000000014
 11
169.2095
 21
105.551400000000000
  0
LINE
  8
PT3-Grafika_wekt5
  6
CONTINUOUS
 62
     7
 10
169.2095
 20
105.551400000000000
 11
168.3168
 21
106.124200000000000
  0
LINE
  8
PT3-Grafika_wekt5
  6
CONTINUOUS
 62
     7
 10
168.3151
 20
106.124200000000000
 11
169.1991
 21
105.556000000000010
  0
LINE
  8
PT3-Grafika_wekt5
  6
CONTINUOUS
 62
     7
 10
169.1991
 20
105.556000000000010
 11
178.5894
 21
105.556000000000010
  0
LINE
  8
PT3-Grafika_wekt5
  6
CONTINUOUS
 62
     7
 10
169.2095
 20
97.748700000000014
 11
169.278
 21
97.746499999999997
  0
LINE
  8
PT3-Grafika_wekt5
  6
CONTINUOUS
 62
     7
 10
169.2095
 20
105.551400000000000
 11
169.278
 21
105.551400000000000
  0
LINE
  8
PT3-Grafika_wekt5
  6
CONTINUOUS
 62
     7
 10
169.2886
 20
105.556000000000010
 11
169.7572
 21
105.252000000000010
  0
LINE
  8
PT3-Grafika_wekt5
  6
CONTINUOUS
 62
     7
 10
169.7572
 20
105.252000000000010
 11
169.7572
 21
98.037200000000013
  0
LINE
  8
PT3-Grafika_wekt5
  6
CONTINUOUS
 62
     7
 10
169.7572
 20
98.037200000000013
 11
169.2942
 21
97.740299999999991
  0
LINE
  8
PT3-Grafika_wekt5
  6
CONTINUOUS
 62
     7
 10
169.2897
 20
105.556000000000010
 11
169.7569
 21
105.254899999999990
  0
LINE
  8
PT3-Grafika_wekt5
  6
CONTINUOUS
 62
     7
 10
169.7569
 20
105.254899999999990
 11
178.1956
 21
105.254899999999990
  0
LINE
  8
PT3-Grafika_wekt5
  6
CONTINUOUS
 62
     7
 10
169.2972
 20
97.740299999999991
 11
169.652
 21
97.969099999999997
  0
LINE
  8
PT3-Grafika_wekt5
  6
CONTINUOUS
 62
     7
 10
169.7572
 20
98.037200000000013
 11
169.7919
 21
98.038299999999992
  0
LINE
  8
PT3-Grafika_wekt5
  6
CONTINUOUS
 62
     7
 10
169.7572
 20
105.252000000000010
 11
169.7919
 21
105.252000000000010
  0
LINE
  8
PT3-Grafika_wekt5
  6
CONTINUOUS
 62
     7
 10
169.7574
 20
98.036599999999993
 11
178.1921
 21
98.036599999999993
  0
LINE
  8
PT3-Grafika_wekt5
  6
CONTINUOUS
 62
     7
 10
178.1913
 20
98.037200000000013
 11
178.1913
 21
105.252000000000010
  0
LINE
  8
PT3-Grafika_wekt5
  6
CONTINUOUS
 62
     7
 10
178.1913
 20
105.252000000000010
 11
178.5822
 21
105.505599999999990
  0
LINE
  8
PT3-Grafika_wekt5
  6
CONTINUOUS
 62
     7
 10
178.1921
 20
105.254899999999990
 11
178.5107
 21
105.459200000000010
  0
LINE
  8
PT3-Grafika_wekt5
  6
CONTINUOUS
 62
     7
 10
178.2084
 20
98.026199999999989
 11
178.5822
 21
97.786399999999986
  0
LINE
  8
PT3-Grafika_wekt5
  6
CONTINUOUS
 62
     7
 10
178.5822
 20
97.748700000000014
 11
178.5822
 21
105.551400000000000
  0
LINE
  8
PT3-Grafika_wekt5
  6
CONTINUOUS
 62
     7
 10
178.5822
 20
105.551400000000000
 11
179.1145
 21
105.893000000000000
  0
LINE
  8
PT3-Grafika_wekt5
  6
CONTINUOUS
 62
     7
 10
178.5822
 20
97.786599999999993
 11
178.1913
 21
98.037200000000013
  0
LINE
  8
PT3-Grafika_wekt5
  6
CONTINUOUS
 62
     7
 10
178.5828
 20
105.556000000000010
 11
179.1145
 21
105.894800000000000
  0
LINE
  8
PT3-Grafika_wekt5
  6
CONTINUOUS
 62
     7
 10
178.5887
 20
97.740299999999991
 11
179.1145
 21
97.403199999999998
  0
LINE
  8
PT3-Grafika_wekt5
  6
CONTINUOUS
 62
     7
 10
179.1145
 20
97.406200000000013
 11
178.5822
 21
97.748700000000014
  0
LINE
  8
PT3-Grafika_wekt5
  6
CONTINUOUS
 62
     7
 10
275.4688
 20
112.671699999999990
 11
275.4688
 21
120.162700000000000
  0
LINE
  8
PT3-Grafika_wekt5
  6
CONTINUOUS
 62
     7
 10
275.4688
 20
120.162700000000000
 11
279.0298
 21
120.162700000000000
  0
LINE
  8
PT3-Grafika_wekt5
  6
CONTINUOUS
 62
     7
 10
279.0298
 20
120.162700000000000
 11
279.0298
 21
112.671699999999990
  0
LINE
  8
PT3-Grafika_wekt5
  6
CONTINUOUS
 62
     7
 10
279.0298
 20
120.162700000000000
 11
281.2709
 21
120.162700000000000
  0
LINE
  8
PT3-Grafika_wekt5
  6
CONTINUOUS
 62
     7
 10
281.2709
 20
120.162700000000000
 11
281.2709
 21
113.063400000000000
  0
LINE
  8
PT3-Grafika_wekt5
  6
CONTINUOUS
 62
     7
 10
228.4272
 20
111.757200000000010
 11
228.4272
 21
120.162700000000000
  0
LINE
  8
PT3-Grafika_wekt5
  6
CONTINUOUS
 62
     7
 10
228.4272
 20
120.162700000000000
 11
231.9882
 21
120.162700000000000
  0
LINE
  8
PT3-Grafika_wekt5
  6
CONTINUOUS
 62
     7
 10
231.9882
 20
120.162700000000000
 11
231.9882
 21
111.757299999999990
  0
LINE
  8
PT3-Grafika_wekt5
  6
CONTINUOUS
 62
     7
 10
231.9882
 20
120.162700000000000
 11
235.1395
 21
120.162700000000000
  0
LINE
  8
PT3-Grafika_wekt5
  6
CONTINUOUS
 62
     7
 10
235.1395
 20
120.162700000000000
 11
235.1395
 21
112.308100000000000
  0
LINE
  8
PT3-Grafika_wekt5
  6
CONTINUOUS
 62
     7
 10
191.9467
 20
112.670600000000010
 11
191.9467
 21
120.162700000000000
  0
LINE
  8
PT3-Grafika_wekt5
  6
CONTINUOUS
 62
     7
 10
191.9467
 20
120.162700000000000
 11
195.5076
 21
120.162700000000000
  0
LINE
  8
PT3-Grafika_wekt5
  6
CONTINUOUS
 62
     7
 10
195.5076
 20
120.162700000000000
 11
195.5076
 21
112.670600000000010
  0
LINE
  8
PT3-Grafika_wekt5
  6
CONTINUOUS
 62
     7
 10
195.5076
 20
120.162700000000000
 11
197.7488
 21
120.162700000000000
  0
LINE
  8
PT3-Grafika_wekt5
  6
CONTINUOUS
 62
     7
 10
197.7488
 20
120.162700000000000
 11
197.7488
 21
113.062299999999990
  0
LINE
  8
PT3-Grafika_wekt5
  6
CONTINUOUS
 62
     7
 10
43.6012
 20
86.715000000000003
 11
73.6127
 21
86.796799999999990
  0
LINE
  8
PT3-Grafika_wekt5
  6
CONTINUOUS
 62
     7
 10
73.6127
 20
86.796799999999990
 11
103.6242
 21
86.860700000000008
  0
LINE
  8
PT3-Grafika_wekt5
  6
CONTINUOUS
 62
     7
 10
103.6242
 20
86.860700000000008
 11
133.6357
 21
86.897199999999998
  0
LINE
  8
PT3-Grafika_wekt5
  6
CONTINUOUS
 62
     7
 10
133.6357
 20
86.897199999999998
 11
163.6472
 21
86.880699999999990
  0
LINE
  8
PT3-Grafika_wekt5
  6
CONTINUOUS
 62
     7
 10
163.6472
 20
86.880699999999990
 11
193.6587
 21
86.850200000000001
  0
LINE
  8
PT3-Grafika_wekt5
  6
CONTINUOUS
 62
     7
 10
193.6587
 20
86.850200000000001
 11
313.7047
 21
86.765899999999988
  0
LINE
  8
PT3-Grafika_wekt5
  6
CONTINUOUS
 62
     7
 10
133.7043
 20
86.487200000000001
 11
152.4659
 21
86.548900000000003
  0
LINE
  8
PT3-Grafika_wekt5
  6
CONTINUOUS
 62
     7
 10
152.4659
 20
86.548900000000003
 11
156.4405
 21
86.507900000000006
  0
LINE
  8
PT3-Grafika_wekt5
  6
CONTINUOUS
 62
     7
 10
156.4405
 20
86.507900000000006
 11
164.0133
 21
86.500000000000000
  0
LINE
  8
PT3-Grafika_wekt5
  6
CONTINUOUS
 62
     7
 10
164.0133
 20
86.500000000000000
 11
193.6587
 21
86.486799999999988
  0
LINE
  8
PT3-Grafika_wekt5
  6
CONTINUOUS
 62
     7
 10
193.6587
 20
86.486799999999988
 11
223.6702
 21
86.495800000000003
  0
LINE
  8
PT3-Grafika_wekt5
  6
CONTINUOUS
 62
     7
 10
223.6702
 20
86.495800000000003
 11
252.8581
 21
86.516099999999994
  0
LINE
  8
PT3-Grafika_wekt5
  6
CONTINUOUS
 62
     7
 10
252.8581
 20
86.516099999999994
 11
283.6933
 21
86.548399999999987
  0
LINE
  8
PT3-Grafika_wekt5
  6
CONTINUOUS
 62
     7
 10
283.6933
 20
86.548399999999987
 11
302.1703
 21
86.572599999999994
  0
LINE
  8
PT3-Grafika_wekt5
  6
CONTINUOUS
 62
     7
 10
302.1703
 20
86.572599999999994
 11
310.3452
 21
86.427400000000006
  0
LINE
  8
PT3-Grafika_wekt5
  6
CONTINUOUS
 62
     7
 10
310.3452
 20
86.427400000000006
 11
315.228
 21
86.336199999999991
  0
LINE
  8
PT3-Grafika_wekt5
  6
CONTINUOUS
 62
     7
 10
315.228
 20
86.336199999999991
 11
321.0873
 21
86.264399999999995
  0
LINE
  8
PT3-Grafika_wekt5
  6
CONTINUOUS
 62
     7
 10
321.0873
 20
86.264399999999995
 11
332.2982
 21
86.123700000000014
  0
LINE
  8
PT3-Grafika_wekt5
  6
CONTINUOUS
 62
     7
 10
332.2982
 20
86.123700000000014
 11
343.5344
 21
85.978900000000010
  0
LINE
  8
PT3-Grafika_wekt5
  6
CONTINUOUS
 62
     7
 10
343.5344
 20
85.978900000000010
 11
354.7199
 21
85.831299999999999
  0
LINE
  8
PT3-Grafika_wekt5
  6
CONTINUOUS
 62
     7
 10
354.7199
 20
85.831299999999999
 11
365.9308
 21
85.680299999999988
  0
LINE
  8
PT3-Grafika_wekt5
  6
CONTINUOUS
 62
     7
 10
365.9308
 20
85.680299999999988
 11
376.7237
 21
85.532000000000011
  0
LINE
  8
PT3-Grafika_wekt5
  6
CONTINUOUS
 62
     7
 10
376.7237
 20
85.532000000000011
 11
388.3526
 21
85.369599999999991
  0
LINE
  8
PT3-Grafika_wekt5
  6
CONTINUOUS
 62
     7
 10
388.3526
 20
85.369599999999991
 11
390.7737
 21
85.335399999999993
  0
LINE
  8
PT3-Grafika_wekt5
  6
CONTINUOUS
 62
     7
 10
343.7163
 20
86.756499999999988
 11
373.7277
 21
86.753600000000006
  0
LINE
  8
PT3-Grafika_wekt5
  6
CONTINUOUS
 62
     7
 10
373.7277
 20
86.753600000000006
 11
403.7392
 21
86.759199999999993
  0
LINE
  8
PT3-Grafika_wekt5
  6
CONTINUOUS
 62
     7
 10
408.0987
 20
85.113100000000003
 11
419.1305
 21
85.114599999999996
  0
LINE
  8
PT3-Grafika_wekt5
  6
CONTINUOUS
 62
     7
 10
419.1305
 20
85.114599999999996
 11
433.7508
 21
85.090399999999988
  0
LINE
  8
PT3-Grafika_wekt5
  6
CONTINUOUS
 62
     7
 10
433.7508
 20
85.090399999999988
 11
462.7172
 21
85.190599999999989
  0
LINE
  8
PT3-Grafika_wekt5
  6
CONTINUOUS
 62
     7
 10
463.7622
 20
86.795600000000007
 11
433.7508
 21
86.774799999999999
  0
LINE
  8
PT3-Grafika_wekt5
  6
CONTINUOUS
 62
     7
 10
121.3787
 20
215.236999999999990
 11
122.2016
 21
215.236999999999990
  0
LINE
  8
PT3-Grafika_wekt5
  6
CONTINUOUS
 62
     7
 10
390.7737
 20
89.338600000000014
 11
420.5646
 21
89.338600000000014
  0
LINE
  8
PT3-Grafika_wekt5
  6
CONTINUOUS
 62
     7
 10
420.5646
 20
89.338600000000014
 11
420.5646
 21
87.336999999999989
  0
LINE
  8
PT3-Grafika_wekt5
  6
CONTINUOUS
 62
     7
 10
390.7737
 20
86.872800000000012
 11
390.7737
 21
87.336999999999989
  0
LINE
  8
PT3-Grafika_wekt5
  6
CONTINUOUS
 62
     7
 10
390.7737
 20
87.336999999999989
 11
423.9893
 21
87.336999999999989
  0
LINE
  8
PT3-Grafika_wekt5
  6
CONTINUOUS
 62
     7
 10
423.9893
 20
87.336999999999989
 11
423.9893
 21
86.881100000000004
  0
LINE
  8
PT3-Grafika_wekt5
  6
CONTINUOUS
 62
     7
 10
423.9893
 20
84.917699999999996
 11
423.9893
 21
84.835000000000008
  0
LINE
  8
PT3-Grafika_wekt5
  6
CONTINUOUS
 62
     7
 10
23.5935
 20
86.663900000000012
 11
13.5897
 21
86.647899999999993
  0
LINE
  8
PT3-Grafika_wekt5
  6
CONTINUOUS
 62
     7
 10
43.6012
 20
86.715000000000003
 11
23.5935
 21
86.663900000000012
  0
LINE
  8
PT3-Grafika_wekt5
  6
CONTINUOUS
 62
     7
 10
73.6127
 20
86.796799999999990
 11
43.6012
 21
86.715000000000003
  0
LINE
  8
PT3-Grafika_wekt5
  6
CONTINUOUS
 62
     7
 10
103.6242
 20
86.860700000000008
 11
73.6127
 21
86.796799999999990
  0
LINE
  8
PT3-Grafika_wekt5
  6
CONTINUOUS
 62
     7
 10
123.8373
 20
86.889499999999998
 11
103.6242
 21
86.860700000000008
  0
LINE
  8
PT3-Grafika_wekt5
  6
CONTINUOUS
 62
     7
 10
133.6357
 20
86.897199999999998
 11
123.8373
 21
86.889499999999998
  0
LINE
  8
PT3-Grafika_wekt5
  6
CONTINUOUS
 62
     7
 10
163.6472
 20
86.880699999999990
 11
133.6357
 21
86.897199999999998
  0
LINE
  8
PT3-Grafika_wekt5
  6
CONTINUOUS
 62
     7
 10
193.6587
 20
86.850200000000001
 11
163.6472
 21
86.880699999999990
  0
LINE
  8
PT3-Grafika_wekt5
  6
CONTINUOUS
 62
     7
 10
223.6702
 20
86.828100000000006
 11
193.6587
 21
86.850200000000001
  0
LINE
  8
PT3-Grafika_wekt5
  6
CONTINUOUS
 62
     7
 10
253.6817
 20
86.806600000000003
 11
223.6702
 21
86.828100000000006
  0
LINE
  8
PT3-Grafika_wekt5
  6
CONTINUOUS
 62
     7
 10
283.6933
 20
86.785599999999988
 11
253.6817
 21
86.806600000000003
  0
LINE
  8
PT3-Grafika_wekt5
  6
CONTINUOUS
 62
     7
 10
313.7047
 20
86.765899999999988
 11
283.6933
 21
86.785599999999988
  0
LINE
  8
PT3-Grafika_wekt5
  6
CONTINUOUS
 62
     7
 10
323.285
 20
86.761699999999990
 11
313.7047
 21
86.765899999999988
  0
LINE
  8
PT3-Grafika_wekt5
  6
CONTINUOUS
 62
     7
 10
343.7163
 20
86.756499999999988
 11
323.285
 21
86.761699999999990
  0
LINE
  8
PT3-Grafika_wekt5
  6
CONTINUOUS
 62
     7
 10
373.7277
 20
86.753600000000006
 11
343.7163
 21
86.756499999999988
  0
LINE
  8
PT3-Grafika_wekt5
  6
CONTINUOUS
 62
     7
 10
403.7392
 20
86.759199999999993
 11
373.7277
 21
86.753600000000006
  0
LINE
  8
PT3-Grafika_wekt5
  6
CONTINUOUS
 62
     7
 10
423.7469
 20
86.769100000000009
 11
403.7392
 21
86.759199999999993
  0
LINE
  8
PT3-Grafika_wekt5
  6
CONTINUOUS
 62
     7
 10
433.7508
 20
86.774799999999999
 11
423.7469
 21
86.769100000000009
  0
LINE
  8
PT3-Grafika_wekt5
  6
CONTINUOUS
 62
     7
 10
463.7622
 20
86.795600000000007
 11
433.7508
 21
86.774799999999999
  0
LINE
  8
PT3-Grafika_wekt5
  6
CONTINUOUS
 62
     7
 10
390.7737
 20
85.335399999999993
 11
419.1305
 21
85.114599999999996
  0
LINE
  8
PT3-Grafika_wekt5
  6
CONTINUOUS
 62
     7
 10
419.1305
 20
85.114599999999996
 11
433.7508
 21
85.090399999999988
  0
LINE
  8
PT3-Grafika_wekt5
  6
CONTINUOUS
 62
     7
 10
433.7508
 20
85.090399999999988
 11
462.7172
 21
85.190599999999989
  0
LINE
  8
PT3-Grafika_wekt5
  6
CONTINUOUS
 62
     7
 10
423.9877
 20
84.917699999999996
 11
423.9893
 21
84.917699999999996
  0
LINE
  8
PT3-Grafika_wekt5
  6
CONTINUOUS
 62
     7
 10
313.4462
 20
196.241699999999980
 11
313.4462
 21
205.229199999999990
  0
LINE
  8
PT3-Grafika_wekt5
  6
CONTINUOUS
 62
     7
 10
313.4462
 20
205.229199999999990
 11
313.4462
 21
199.232100000000000
  0
LINE
  8
PT3-Grafika_wekt5
  6
CONTINUOUS
 62
     7
 10
313.4462
 20
205.229199999999990
 11
317.9479
 21
205.229199999999990
  0
LINE
  8
PT3-Grafika_wekt5
  6
CONTINUOUS
 62
     7
 10
317.9479
 20
205.229199999999990
 11
317.9479
 21
195.072599999999990
  0
LINE
  8
PT3-Grafika_wekt5
  6
CONTINUOUS
 62
     7
 10
325.3015
 20
133.872999999999990
 11
325.3295
 21
133.872999999999990
  0
LINE
  8
PT3-Grafika_wekt5
  6
CONTINUOUS
 62
     7
 10
325.3295
 20
133.872999999999990
 11
325.3295
 21
100.146999999999990
  0
LINE
  8
PT3-Grafika_wekt5
  6
CONTINUOUS
 62
     7
 10
335.8035
 20
133.872999999999990
 11
335.8315
 21
133.872999999999990
  0
LINE
  8
PT3-Grafika_wekt5
  6
CONTINUOUS
 62
     7
 10
335.8315
 20
133.872999999999990
 11
335.8315
 21
100.146999999999990
  0
LINE
  8
PT3-Grafika_wekt5
  6
CONTINUOUS
 62
     7
 10
346.3055
 20
133.872999999999990
 11
346.3335
 21
133.872999999999990
  0
LINE
  8
PT3-Grafika_wekt5
  6
CONTINUOUS
 62
     7
 10
346.3335
 20
133.872999999999990
 11
346.3335
 21
100.146999999999990
  0
LINE
  8
PT3-Grafika_wekt5
  6
CONTINUOUS
 62
     7
 10
356.8076
 20
133.872999999999990
 11
356.8357
 21
133.872999999999990
  0
LINE
  8
PT3-Grafika_wekt5
  6
CONTINUOUS
 62
     7
 10
356.8357
 20
133.872999999999990
 11
356.8357
 21
100.146999999999990
  0
LINE
  8
PT3-Grafika_wekt5
  6
CONTINUOUS
 62
     7
 10
367.3097
 20
133.872999999999990
 11
367.3378
 21
133.872999999999990
  0
LINE
  8
PT3-Grafika_wekt5
  6
CONTINUOUS
 62
     7
 10
367.3378
 20
133.872999999999990
 11
367.3378
 21
100.146999999999990
  0
LINE
  8
PT3-Grafika_wekt5
  6
CONTINUOUS
 62
     7
 10
377.8117
 20
133.872999999999990
 11
377.8398
 21
133.872999999999990
  0
LINE
  8
PT3-Grafika_wekt5
  6
CONTINUOUS
 62
     7
 10
377.8398
 20
133.872999999999990
 11
377.8398
 21
100.146999999999990
  0
LINE
  8
PT3-Grafika_wekt5
  6
CONTINUOUS
 62
     7
 10
388.3139
 20
133.872999999999990
 11
388.3419
 21
133.872999999999990
  0
LINE
  8
PT3-Grafika_wekt5
  6
CONTINUOUS
 62
     7
 10
388.3419
 20
133.872999999999990
 11
388.3419
 21
100.146999999999990
  0
LINE
  8
PT3-Grafika_wekt5
  6
CONTINUOUS
 62
     7
 10
381.57
 20
200.854199999999990
 11
381.57
 21
210.233000000000000
  0
LINE
  8
PT3-Grafika_wekt5
  6
CONTINUOUS
 62
     7
 10
381.57
 20
210.233000000000000
 11
381.57
 21
205.013700000000000
  0
LINE
  8
PT3-Grafika_wekt5
  6
CONTINUOUS
 62
     7
 10
381.57
 20
210.233000000000000
 11
386.0717
 21
210.233000000000000
  0
LINE
  8
PT3-Grafika_wekt5
  6
CONTINUOUS
 62
     7
 10
386.0717
 20
210.233000000000000
 11
386.0717
 21
205.229199999999990
  0
LINE
  8
PT3-Grafika_wekt5
  6
CONTINUOUS
 62
     7
 10
44.0413
 20
86.836099999999988
 11
44.0413
 21
159.859700000000000
  0
LINE
  8
PT3-Grafika_wekt5
  6
CONTINUOUS
 62
     7
 10
44.0413
 20
88.838200000000001
 11
117.7929
 21
88.838200000000001
  0
LINE
  8
PT3-Grafika_wekt5
  6
CONTINUOUS
 62
     7
 10
44.0413
 20
164.458900000000000
 11
44.0413
 21
182.492099999999990
  0
LINE
  8
PT3-Grafika_wekt5
  6
CONTINUOUS
 62
     7
 10
50.3638
 20
99.346300000000014
 11
50.3638
 21
118.861600000000010
  0
LINE
  8
PT3-Grafika_wekt5
  6
CONTINUOUS
 62
     7
 10
50.3638
 20
118.861600000000010
 11
66.9702
 21
118.861600000000010
  0
LINE
  8
PT3-Grafika_wekt5
  6
CONTINUOUS
 62
     7
 10
66.9702
 20
118.861600000000010
 11
66.9702
 21
99.346300000000014
  0
LINE
  8
PT3-Grafika_wekt5
  6
CONTINUOUS
 62
     7
 10
52.6642
 20
136.375400000000010
 11
52.6642
 21
152.187700000000010
  0
LINE
  8
PT3-Grafika_wekt5
  6
CONTINUOUS
 62
     7
 10
52.6642
 20
152.187700000000010
 11
64.6687
 21
152.187700000000010
  0
LINE
  8
PT3-Grafika_wekt5
  6
CONTINUOUS
 62
     7
 10
64.6687
 20
152.187700000000010
 11
64.6687
 21
136.675600000000000
  0
LINE
  8
PT3-Grafika_wekt5
  6
CONTINUOUS
 62
     7
 10
73.1226
 20
99.346300000000014
 11
73.1226
 21
118.861600000000010
  0
LINE
  8
PT3-Grafika_wekt5
  6
CONTINUOUS
 62
     7
 10
73.1226
 20
118.861600000000010
 11
89.7289
 21
118.861600000000010
  0
LINE
  8
PT3-Grafika_wekt5
  6
CONTINUOUS
 62
     7
 10
89.7289
 20
118.861600000000010
 11
89.7289
 21
99.646600000000007
  0
LINE
  8
PT3-Grafika_wekt5
  6
CONTINUOUS
 62
     7
 10
75.4229
 20
136.675600000000000
 11
75.4229
 21
152.187700000000010
  0
LINE
  8
PT3-Grafika_wekt5
  6
CONTINUOUS
 62
     7
 10
75.4229
 20
152.187700000000010
 11
87.4275
 21
152.187700000000010
  0
LINE
  8
PT3-Grafika_wekt5
  6
CONTINUOUS
 62
     7
 10
87.4275
 20
152.187700000000010
 11
87.4275
 21
136.675600000000000
  0
LINE
  8
PT3-Grafika_wekt5
  6
CONTINUOUS
 62
     7
 10
95.8812
 20
99.346300000000014
 11
95.8812
 21
118.861600000000010
  0
LINE
  8
PT3-Grafika_wekt5
  6
CONTINUOUS
 62
     7
 10
95.8812
 20
118.861600000000010
 11
112.4876
 21
118.861600000000010
  0
LINE
  8
PT3-Grafika_wekt5
  6
CONTINUOUS
 62
     7
 10
112.4876
 20
118.861600000000010
 11
112.4876
 21
99.646600000000007
  0
LINE
  8
PT3-Grafika_wekt5
  6
CONTINUOUS
 62
     7
 10
98.1821
 20
136.375400000000010
 11
98.1821
 21
152.187700000000010
  0
LINE
  8
PT3-Grafika_wekt5
  6
CONTINUOUS
 62
     7
 10
98.1821
 20
152.187700000000010
 11
110.1867
 21
152.187700000000010
  0
LINE
  8
PT3-Grafika_wekt5
  6
CONTINUOUS
 62
     7
 10
110.1867
 20
152.187700000000010
 11
110.1867
 21
136.675600000000000
  0
LINE
  8
PT3-Grafika_wekt5
  6
CONTINUOUS
 62
     7
 10
117.7929
 20
86.991899999999987
 11
117.7929
 21
147.500000000000000
  0
LINE
  8
PT3-Grafika_wekt5
  6
CONTINUOUS
 62
     7
 10
117.7929
 20
89.338600000000014
 11
152.4659
 21
89.338600000000014
  0
LINE
  8
PT3-Grafika_wekt5
  6
CONTINUOUS
 62
     7
 10
152.4659
 20
89.338600000000014
 11
152.4659
 21
86.997500000000002
  0
LINE
  8
PT3-Grafika_wekt5
  6
CONTINUOUS
 62
     7
 10
152.4659
 20
120.062500000000000
 11
152.4659
 21
89.338600000000014
  0
LINE
  8
PT3-Grafika_wekt5
  6
CONTINUOUS
 62
     7
 10
152.4659
 20
89.338600000000014
 11
156.4405
 21
89.338600000000014
  0
LINE
  8
PT3-Grafika_wekt5
  6
CONTINUOUS
 62
     7
 10
156.4405
 20
89.338600000000014
 11
156.4405
 21
86.995299999999986
  0
LINE
  8
PT3-Grafika_wekt5
  6
CONTINUOUS
 62
     7
 10
120.9408
 20
149.576899999999990
 11
120.9408
 21
152.187700000000010
  0
LINE
  8
PT3-Grafika_wekt5
  6
CONTINUOUS
 62
     7
 10
120.9408
 20
152.187700000000010
 11
132.9454
 21
152.187700000000010
  0
LINE
  8
PT3-Grafika_wekt5
  6
CONTINUOUS
 62
     7
 10
132.9454
 20
152.187700000000010
 11
132.9454
 21
150.924499999999990
  0
LINE
  8
PT3-Grafika_wekt5
  6
CONTINUOUS
 62
     7
 10
143.6991
 20
152.131700000000000
 11
143.6991
 21
152.187700000000010
  0
LINE
  8
PT3-Grafika_wekt5
  6
CONTINUOUS
 62
     7
 10
143.6991
 20
152.187700000000010
 11
144.1979
 21
152.187700000000010
  0
LINE
  8
PT3-Grafika_wekt5
  6
CONTINUOUS
 62
     7
 10
152.4659
 20
120.062500000000000
 11
152.4659
 21
150.934599999999990
  0
LINE
  8
PT3-Grafika_wekt5
  6
CONTINUOUS
 62
     7
 10
156.4405
 20
89.338600000000014
 11
156.4405
 21
109.313999999999990
  0
LINE
  8
PT3-Grafika_wekt5
  6
CONTINUOUS
 62
     7
 10
169.4674
 20
113.798499999999990
 11
169.4674
 21
151.170400000000000
  0
LINE
  8
PT3-Grafika_wekt5
  6
CONTINUOUS
 62
     7
 10
167.8842
 20
97.156100000000009
 11
167.8842
 21
106.124200000000000
  0
LINE
  8
PT3-Grafika_wekt5
  6
CONTINUOUS
 62
     7
 10
167.8842
 20
106.124200000000000
 11
179.1145
 21
106.124200000000000
  0
LINE
  8
PT3-Grafika_wekt5
  6
CONTINUOUS
 62
     7
 10
179.1145
 20
106.124200000000000
 11
179.1145
 21
97.052799999999991
  0
LINE
  8
PT3-Grafika_wekt5
  6
CONTINUOUS
 62
     7
 10
179.1145
 20
97.052799999999991
 11
179.0975
 21
97.052899999999994
  0
LINE
  8
PT3-Grafika_wekt5
  6
CONTINUOUS
 62
     7
 10
168.5655
 20
120.062500000000000
 11
168.4366
 21
120.062500000000000
  0
LINE
  8
PT3-Grafika_wekt5
  6
CONTINUOUS
 62
     7
 10
182.0942
 20
164.458900000000000
 11
182.0942
 21
183.961200000000020
  0
LINE
  8
PT3-Grafika_wekt5
  6
CONTINUOUS
 62
     7
 10
191.5979
 20
169.901500000000000
 11
191.5979
 21
181.910900000000000
  0
LINE
  8
PT3-Grafika_wekt5
  6
CONTINUOUS
 62
     7
 10
191.5979
 20
181.910900000000000
 11
206.6037
 21
181.910900000000000
  0
LINE
  8
PT3-Grafika_wekt5
  6
CONTINUOUS
 62
     7
 10
206.6037
 20
181.910900000000000
 11
206.6037
 21
170.201799999999990
  0
LINE
  8
PT3-Grafika_wekt5
  6
CONTINUOUS
 62
     7
 10
201.6476
 20
120.062500000000000
 11
201.6476
 21
113.796899999999990
  0
LINE
  8
PT3-Grafika_wekt5
  6
CONTINUOUS
 62
     7
 10
197.9443
 20
97.156100000000009
 11
197.9443
 21
106.124200000000000
  0
LINE
  8
PT3-Grafika_wekt5
  6
CONTINUOUS
 62
     7
 10
197.9443
 20
106.124200000000000
 11
209.1746
 21
106.124200000000000
  0
LINE
  8
PT3-Grafika_wekt5
  6
CONTINUOUS
 62
     7
 10
209.1746
 20
106.124200000000000
 11
209.1746
 21
97.052799999999991
  0
LINE
  8
PT3-Grafika_wekt5
  6
CONTINUOUS
 62
     7
 10
209.1746
 20
97.052799999999991
 11
209.1576
 21
97.052899999999994
  0
LINE
  8
PT3-Grafika_wekt5
  6
CONTINUOUS
 62
     7
 10
200.7933
 20
155.891599999999980
 11
201.6476
 21
155.891599999999980
  0
LINE
  8
PT3-Grafika_wekt5
  6
CONTINUOUS
 62
     7
 10
201.6476
 20
155.891599999999980
 11
201.6476
 21
120.062500000000000
  0
LINE
  8
PT3-Grafika_wekt5
  6
CONTINUOUS
 62
     7
 10
201.6476
 20
120.062500000000000
 11
201.6476
 21
155.890600000000010
  0
LINE
  8
PT3-Grafika_wekt5
  6
CONTINUOUS
 62
     7
 10
201.6474
 20
113.796899999999990
 11
201.6474
 21
162.405599999999990
  0
LINE
  8
PT3-Grafika_wekt5
  6
CONTINUOUS
 62
     7
 10
205.3591
 20
162.405599999999990
 11
205.3591
 21
161.038000000000010
  0
LINE
  8
PT3-Grafika_wekt5
  6
CONTINUOUS
 62
     7
 10
216.1073
 20
165.097800000000010
 11
216.1073
 21
183.961200000000020
  0
LINE
  8
PT3-Grafika_wekt5
  6
CONTINUOUS
 62
     7
 10
248.4543
 20
97.156100000000009
 11
248.4543
 21
106.124200000000000
  0
LINE
  8
PT3-Grafika_wekt5
  6
CONTINUOUS
 62
     7
 10
248.4543
 20
106.124200000000000
 11
259.6847
 21
106.124200000000000
  0
LINE
  8
PT3-Grafika_wekt5
  6
CONTINUOUS
 62
     7
 10
259.6847
 20
106.124200000000000
 11
259.6847
 21
97.052799999999991
  0
LINE
  8
PT3-Grafika_wekt5
  6
CONTINUOUS
 62
     7
 10
259.6847
 20
97.052799999999991
 11
259.6677
 21
97.052899999999994
  0
LINE
  8
PT3-Grafika_wekt5
  6
CONTINUOUS
 62
     7
 10
278.5612
 20
106.124200000000000
 11
278.5612
 21
97.156100000000009
  0
LINE
  8
PT3-Grafika_wekt5
  6
CONTINUOUS
 62
     7
 10
278.5612
 20
106.124200000000000
 11
289.7916
 21
106.124200000000000
  0
LINE
  8
PT3-Grafika_wekt5
  6
CONTINUOUS
 62
     7
 10
289.7916
 20
106.124200000000000
 11
289.7916
 21
97.052799999999991
  0
LINE
  8
PT3-Grafika_wekt5
  6
CONTINUOUS
 62
     7
 10
289.7916
 20
97.052799999999991
 11
289.7746
 21
97.052899999999994
  0
LINE
  8
PT3-Grafika_wekt5
  6
CONTINUOUS
 62
     7
 10
302.1703
 20
86.888599999999997
 11
302.1703
 21
109.979600000000000
  0
LINE
  8
PT3-Grafika_wekt5
  6
CONTINUOUS
 62
     7
 10
315.228
 20
86.884999999999991
 11
315.228
 21
112.072800000000000
  0
LINE
  8
PT3-Grafika_wekt5
  6
CONTINUOUS
 62
     7
 10
315.228
 20
112.072800000000000
 11
315.228
 21
86.884999999999991
  0
LINE
  8
PT3-Grafika_wekt5
  6
CONTINUOUS
 62
     7
 10
315.228
 20
88.538000000000011
 11
390.7737
 21
88.538000000000011
  0
LINE
  8
PT3-Grafika_wekt5
  6
CONTINUOUS
 62
     7
 10
390.7737
 20
88.538000000000011
 11
390.7737
 21
86.872800000000012
  0
LINE
  8
PT3-Grafika_wekt5
  6
CONTINUOUS
 62
     7
 10
315.228
 20
113.798499999999990
 11
315.228
 21
147.486099999999990
  0
LINE
  8
PT3-Grafika_wekt5
  6
CONTINUOUS
 62
     7
 10
315.228
 20
147.587999999999990
 11
315.228
 21
148.198100000000010
  0
LINE
  8
PT3-Grafika_wekt5
  6
CONTINUOUS
 62
     7
 10
317.1368
 20
99.846800000000002
 11
317.1368
 21
112.408700000000010
  0
LINE
  8
PT3-Grafika_wekt5
  6
CONTINUOUS
 62
     7
 10
317.1368
 20
113.100300000000000
 11
317.1368
 21
133.873300000000000
  0
LINE
  8
PT3-Grafika_wekt5
  6
CONTINUOUS
 62
     7
 10
317.1368
 20
133.873300000000000
 11
326.2386
 21
133.873300000000000
  0
LINE
  8
PT3-Grafika_wekt5
  6
CONTINUOUS
 62
     7
 10
326.2386
 20
133.873300000000000
 11
326.2386
 21
100.146999999999990
  0
LINE
  8
PT3-Grafika_wekt5
  6
CONTINUOUS
 62
     7
 10
326.2386
 20
133.873300000000000
 11
327.6388
 21
133.873300000000000
  0
LINE
  8
PT3-Grafika_wekt5
  6
CONTINUOUS
 62
     7
 10
327.6388
 20
133.873300000000000
 11
327.6388
 21
99.846800000000002
  0
LINE
  8
PT3-Grafika_wekt5
  6
CONTINUOUS
 62
     7
 10
327.6388
 20
133.873300000000000
 11
336.7406
 21
133.873300000000000
  0
LINE
  8
PT3-Grafika_wekt5
  6
CONTINUOUS
 62
     7
 10
336.7406
 20
133.873300000000000
 11
336.7406
 21
100.146999999999990
  0
LINE
  8
PT3-Grafika_wekt5
  6
CONTINUOUS
 62
     7
 10
336.7406
 20
133.873300000000000
 11
338.141
 21
133.873300000000000
  0
LINE
  8
PT3-Grafika_wekt5
  6
CONTINUOUS
 62
     7
 10
338.141
 20
133.873300000000000
 11
338.141
 21
99.846800000000002
  0
LINE
  8
PT3-Grafika_wekt5
  6
CONTINUOUS
 62
     7
 10
338.141
 20
133.873300000000000
 11
347.2427
 21
133.873300000000000
  0
LINE
  8
PT3-Grafika_wekt5
  6
CONTINUOUS
 62
     7
 10
347.2427
 20
133.873300000000000
 11
347.2427
 21
100.146999999999990
  0
LINE
  8
PT3-Grafika_wekt5
  6
CONTINUOUS
 62
     7
 10
347.2427
 20
133.873300000000000
 11
348.643
 21
133.873300000000000
  0
LINE
  8
PT3-Grafika_wekt5
  6
CONTINUOUS
 62
     7
 10
348.643
 20
133.873300000000000
 11
348.643
 21
99.846800000000002
  0
LINE
  8
PT3-Grafika_wekt5
  6
CONTINUOUS
 62
     7
 10
348.643
 20
133.873300000000000
 11
357.7447
 21
133.873300000000000
  0
LINE
  8
PT3-Grafika_wekt5
  6
CONTINUOUS
 62
     7
 10
357.7447
 20
133.873300000000000
 11
356.7795
 21
133.873300000000000
  0
LINE
  8
PT3-Grafika_wekt5
  6
CONTINUOUS
 62
     7
 10
356.8613
 20
154.111800000000020
 11
356.8613
 21
159.859700000000000
  0
LINE
  8
PT3-Grafika_wekt5
  6
CONTINUOUS
 62
     7
 10
356.8613
 20
168.036400000000010
 11
356.8613
 21
154.294700000000010
  0
LINE
  8
PT3-Grafika_wekt5
  6
CONTINUOUS
 62
     7
 10
357.0614
 20
154.276700000000010
 11
357.0614
 21
159.859700000000000
  0
LINE
  8
PT3-Grafika_wekt5
  6
CONTINUOUS
 62
     7
 10
357.7447
 20
100.146999999999990
 11
357.7447
 21
133.873300000000000
  0
LINE
  8
PT3-Grafika_wekt5
  6
CONTINUOUS
 62
     7
 10
359.145
 20
99.846800000000002
 11
359.145
 21
133.873300000000000
  0
LINE
  8
PT3-Grafika_wekt5
  6
CONTINUOUS
 62
     7
 10
359.145
 20
133.873300000000000
 11
368.2468
 21
133.873300000000000
  0
LINE
  8
PT3-Grafika_wekt5
  6
CONTINUOUS
 62
     7
 10
368.2468
 20
133.873300000000000
 11
367.2815
 21
133.873300000000000
  0
LINE
  8
PT3-Grafika_wekt5
  6
CONTINUOUS
 62
     7
 10
361.7231
 20
153.858700000000000
 11
361.7231
 21
153.889000000000010
  0
LINE
  8
PT3-Grafika_wekt5
  6
CONTINUOUS
 62
     7
 10
361.7231
 20
153.889000000000010
 11
373.3276
 21
153.889000000000010
  0
LINE
  8
PT3-Grafika_wekt5
  6
CONTINUOUS
 62
     7
 10
373.3276
 20
153.889000000000010
 11
373.3276
 21
152.817900000000010
  0
LINE
  8
PT3-Grafika_wekt5
  6
CONTINUOUS
 62
     7
 10
368.2468
 20
100.146999999999990
 11
368.2468
 21
133.873300000000000
  0
LINE
  8
PT3-Grafika_wekt5
  6
CONTINUOUS
 62
     7
 10
368.2468
 20
133.873300000000000
 11
369.6471
 21
133.873300000000000
  0
LINE
  8
PT3-Grafika_wekt5
  6
CONTINUOUS
 62
     7
 10
369.6471
 20
133.873300000000000
 11
369.6471
 21
99.846800000000002
  0
LINE
  8
PT3-Grafika_wekt5
  6
CONTINUOUS
 62
     7
 10
369.6471
 20
133.873300000000000
 11
378.7489
 21
133.873300000000000
  0
LINE
  8
PT3-Grafika_wekt5
  6
CONTINUOUS
 62
     7
 10
378.7489
 20
133.873300000000000
 11
377.7837
 21
133.873300000000000
  0
LINE
  8
PT3-Grafika_wekt5
  6
CONTINUOUS
 62
     7
 10
378.7489
 20
100.146999999999990
 11
378.7489
 21
133.873300000000000
  0
LINE
  8
PT3-Grafika_wekt5
  6
CONTINUOUS
 62
     7
 10
380.1492
 20
99.846800000000002
 11
380.1492
 21
133.873300000000000
  0
LINE
  8
PT3-Grafika_wekt5
  6
CONTINUOUS
 62
     7
 10
380.1492
 20
133.873300000000000
 11
389.2509
 21
133.873300000000000
  0
LINE
  8
PT3-Grafika_wekt5
  6
CONTINUOUS
 62
     7
 10
389.2509
 20
133.873300000000000
 11
388.2857
 21
133.873300000000000
  0
LINE
  8
PT3-Grafika_wekt5
  6
CONTINUOUS
 62
     7
 10
389.2509
 20
100.146999999999990
 11
389.2509
 21
133.873300000000000
  0
LINE
  8
PT3-Grafika_wekt5
  6
CONTINUOUS
 62
     7
 10
390.7737
 20
88.538000000000011
 11
390.7737
 21
147.485400000000000
  0
LINE
  8
PT3-Grafika_wekt5
  6
CONTINUOUS
 62
     7
 10
423.9893
 20
125.166599999999990
 11
423.9893
 21
88.838200000000001
  0
LINE
  8
PT3-Grafika_wekt5
  6
CONTINUOUS
 62
     7
 10
423.9893
 20
88.838200000000001
 11
420.5646
 21
88.838200000000001
  0
LINE
  8
PT3-Grafika_wekt5
  6
CONTINUOUS
 62
     7
 10
406.3502
 20
99.346300000000014
 11
406.3502
 21
117.360500000000000
  0
LINE
  8
PT3-Grafika_wekt5
  6
CONTINUOUS
 62
     7
 10
406.3502
 20
117.360500000000000
 11
417.9546
 21
117.360500000000000
  0
LINE
  8
PT3-Grafika_wekt5
  6
CONTINUOUS
 62
     7
 10
417.9546
 20
117.360500000000000
 11
417.9546
 21
99.646600000000007
  0
LINE
  8
PT3-Grafika_wekt5
  6
CONTINUOUS
 62
     7
 10
406.3502
 20
135.874900000000000
 11
406.3502
 21
153.889000000000010
  0
LINE
  8
PT3-Grafika_wekt5
  6
CONTINUOUS
 62
     7
 10
406.3502
 20
153.889000000000010
 11
417.9546
 21
153.889000000000010
  0
LINE
  8
PT3-Grafika_wekt5
  6
CONTINUOUS
 62
     7
 10
417.9546
 20
153.889000000000010
 11
417.9546
 21
136.175199999999990
  0
LINE
  8
PT3-Grafika_wekt5
  6
CONTINUOUS
 62
     7
 10
423.9893
 20
86.881100000000004
 11
423.9893
 21
88.838200000000001
  0
LINE
  8
PT3-Grafika_wekt5
  6
CONTINUOUS
 62
     7
 10
423.9893
 20
88.838200000000001
 11
452.1978
 21
88.838200000000001
  0
LINE
  8
PT3-Grafika_wekt5
  6
CONTINUOUS
 62
     7
 10
452.1978
 20
88.838200000000001
 11
452.1978
 21
86.895100000000014
  0
LINE
  8
PT3-Grafika_wekt5
  6
CONTINUOUS
 62
     7
 10
423.9893
 20
125.166599999999990
 11
423.9893
 21
159.859700000000000
  0
LINE
  8
PT3-Grafika_wekt5
  6
CONTINUOUS
 62
     7
 10
451.6976
 20
88.838200000000001
 11
451.6976
 21
125.166599999999990
  0
LINE
  8
PT3-Grafika_wekt5
  6
CONTINUOUS
 62
     7
 10
451.6976
 20
125.166599999999990
 11
451.6976
 21
159.859700000000000
  0
LINE
  8
PT3-Grafika_wekt5
  6
CONTINUOUS
 62
     7
 10
451.6976
 20
164.458900000000000
 11
451.6976
 21
182.562900000000010
  0
LINE
  8
PT3-Grafika_wekt5
  6
CONTINUOUS
 62
     7
 10
381.5733
 20
192.013600000000000
 11
381.5733
 21
205.229199999999990
  0
LINE
  8
PT3-Grafika_wekt5
  6
CONTINUOUS
 62
     7
 10
381.5733
 20
205.229199999999990
 11
386.075
 21
205.229199999999990
  0
LINE
  8
PT3-Grafika_wekt5
  6
CONTINUOUS
 62
     7
 10
386.075
 20
205.229199999999990
 11
386.075
 21
189.089000000000000
  0
LINE
  8
PT3-Grafika_wekt5
  6
CONTINUOUS
 62
     7
 10
104.5722
 20
203.783700000000010
 11
104.5722
 21
215.236999999999990
  0
LINE
  8
PT3-Grafika_wekt5
  6
CONTINUOUS
 62
     7
 10
104.5722
 20
215.236999999999990
 11
121.3787
 21
215.236999999999990
  0
LINE
  8
PT3-Grafika_wekt5
  6
CONTINUOUS
 62
     7
 10
121.3787
 20
215.236999999999990
 11
121.3787
 21
206.671100000000000
  0
LINE
  8
PT3-Grafika_wekt5
  6
CONTINUOUS
 62
     7
 10
155.6574
 20
111.379700000000010
 11
168.5655
 21
113.796400000000010
  0
LINE
  8
PT3-Grafika_wekt5
  6
CONTINUOUS
 62
     7
 10
168.5766
 20
113.798499999999990
 11
191.9822
 21
113.798499999999990
  0
LINE
  8
PT3-Grafika_wekt5
  6
CONTINUOUS
 62
     7
 10
191.9467
 20
112.670600000000010
 11
195.5076
 21
112.670600000000010
  0
LINE
  8
PT3-Grafika_wekt5
  6
CONTINUOUS
 62
     7
 10
195.1417
 20
112.670600000000010
 11
197.7488
 21
113.062299999999990
  0
LINE
  8
PT3-Grafika_wekt5
  6
CONTINUOUS
 62
     7
 10
154.9326
 20
110.928900000000000
 11
155.1427
 21
110.328399999999990
  0
LINE
  8
PT3-Grafika_wekt5
  6
CONTINUOUS
 62
     7
 10
155.1427
 20
110.328399999999990
 11
155.685
 21
109.979600000000000
  0
LINE
  8
PT3-Grafika_wekt5
  6
CONTINUOUS
 62
     7
 10
155.685
 20
109.979600000000000
 11
156.4405
 21
109.313999999999990
  0
LINE
  8
PT3-Grafika_wekt5
  6
CONTINUOUS
 62
     7
 10
154.9326
 20
110.928900000000000
 11
155.3878
 21
111.029000000000000
  0
LINE
  8
PT3-Grafika_wekt5
  6
CONTINUOUS
 62
     7
 10
155.3878
 20
111.029000000000000
 11
156.0527
 21
111.453700000000000
  0
LINE
  8
PT3-Grafika_wekt5
  6
CONTINUOUS
 62
     7
 10
197.7558
 20
113.798499999999990
 11
228.448
 21
113.798499999999990
  0
LINE
  8
PT3-Grafika_wekt5
  6
CONTINUOUS
 62
     7
 10
228.4272
 20
111.757200000000010
 11
231.9882
 21
111.757299999999990
  0
LINE
  8
PT3-Grafika_wekt5
  6
CONTINUOUS
 62
     7
 10
231.9882
 20
111.757299999999990
 11
235.1395
 21
112.308100000000000
  0
LINE
  8
PT3-Grafika_wekt5
  6
CONTINUOUS
 62
     7
 10
235.1263
 20
113.798499999999990
 11
275.4474
 21
113.798499999999990
  0
LINE
  8
PT3-Grafika_wekt5
  6
CONTINUOUS
 62
     7
 10
275.4688
 20
112.671699999999990
 11
279.0298
 21
112.671699999999990
  0
LINE
  8
PT3-Grafika_wekt5
  6
CONTINUOUS
 62
     7
 10
279.0298
 20
112.671699999999990
 11
281.2709
 21
113.063400000000000
  0
LINE
  8
PT3-Grafika_wekt5
  6
CONTINUOUS
 62
     7
 10
281.2962
 20
113.798499999999990
 11
317.0207
 21
113.798499999999990
  0
LINE
  8
PT3-Grafika_wekt5
  6
CONTINUOUS
 62
     7
 10
170.7021
 20
151.138000000000010
 11
201.6474
 21
154.639700000000000
  0
LINE
  8
PT3-Grafika_wekt5
  6
CONTINUOUS
 62
     7
 10
109.0165
 20
206.671100000000000
 11
121.3787
 21
206.671100000000000
  0
LINE
  8
PT3-Grafika_wekt5
  6
CONTINUOUS
 62
     7
 10
131.7619
 20
184.413099999999990
 11
139.558
 21
184.413099999999990
  0
LINE
  8
PT3-Grafika_wekt5
  6
CONTINUOUS
 62
     7
 10
131.7619
 20
176.406800000000000
 11
139.558
 21
176.406800000000000
  0
LINE
  8
PT3-Grafika_wekt5
  6
CONTINUOUS
 62
     7
 10
149.7688
 20
184.437799999999980
 11
157.4733
 21
184.410900000000000
  0
LINE
  8
PT3-Grafika_wekt5
  6
CONTINUOUS
 62
     7
 10
149.7088
 20
176.431700000000010
 11
157.5649
 21
176.406800000000000
  0
LINE
  8
PT3-Grafika_wekt5
  6
CONTINUOUS
 62
     7
 10
167.7757
 20
184.437799999999980
 11
175.5718
 21
184.410599999999990
  0
LINE
  8
PT3-Grafika_wekt5
  6
CONTINUOUS
 62
     7
 10
167.7757
 20
176.406800000000000
 11
175.4802
 21
176.404699999999990
  0
LINE
  8
PT3-Grafika_wekt5
  6
CONTINUOUS
 62
     7
 10
201.6474
 20
162.405599999999990
 11
214.3055
 21
162.405599999999990
  0
LINE
  8
PT3-Grafika_wekt5
  6
CONTINUOUS
 62
     7
 10
224.2905
 20
162.405599999999990
 11
279.4647
 21
162.405599999999990
  0
LINE
  8
PT3-Grafika_wekt5
  6
CONTINUOUS
 62
     7
 10
315.2458
 20
195.072599999999990
 11
317.9479
 21
195.072599999999990
  0
LINE
  8
PT3-Grafika_wekt5
  6
CONTINUOUS
 62
     7
 10
247.5302
 20
167.978500000000000
 11
280.2319
 21
189.223600000000000
  0
LINE
  8
PT3-Grafika_wekt5
  6
CONTINUOUS
 62
     7
 10
289.2353
 20
195.072900000000000
 11
302.2404
 21
203.521799999999980
  0
LINE
  8
PT3-Grafika_wekt5
  6
CONTINUOUS
 62
     7
 10
302.2404
 20
203.521799999999980
 11
356.8613
 21
168.036400000000010
  0
LINE
  8
PT3-Grafika_wekt5
  6
CONTINUOUS
 62
     7
 10
247.6195
 20
168.036400000000010
 11
247.6195
 21
162.405599999999990
  0
ENDSEC
  0
EOF
