  0
SECTION
  2
HEADER
  9
$ACADVER
  1
AC1004
  9
$EXTMIN
 10
0.0
 20
0.0
  9
$EXTMAX
 10
600.000000000000000
 20
270.000000000000000
  9
$LIMMIN
 10
0.0
 20
0.0
  9
$LIMMAX
 10
600.000000000000000
 20
270.000000000000000
  9
$CLAYER
  8
PT3-Grafika_wekt5
  0
ENDSEC
  0
SECTION
  2
TABLES
  0
TABLE
  2
LTYPE
 70
11
  0
LTYPE
  2
CONTINUOUS
 70
     0
  3
Solid line
 72
    65
 73
     0
 40
     0.0
  0
LTYPE
  2
GESTRICHELT
 70
     0
  3
__ __ __ __ __ __ __ __ __ __ __ __ __ __ __
 72
    65
 73
     2
 40
     0.75
 49
0.5
 49
-0.25
  0
LTYPE
  2
VERDECKT
 70
     0
  3
_ _ _ _ _ _ _ _ _ _ _ _ _ _ _ _ _ _ _ _ _ _
 72
    65
 73
     2
 40
     0.25
 49
0.125
 49
-0.125
  0
LTYPE
  2
MITTELLINIE
 70
     0
  3
____ _ ____ _ ____ _ ____ _ ____ _ ____ _ __
 72
    65
 73
     4
 40
     2.0
 49
1.25
 49
-0.25
 49
0.25
 49
-0.25
  0
LTYPE
  2
PHANTOM
 70
     0
  3
_____ _ _ _____ _ _ _____ _ _ _____ _ _ ____
 72
    65
 73
     6
 40
     2.5
 49
1.25
 49
-0.25
 49
0.25
 49
-0.25
 49
0.25
 49
-0.25
  0
LTYPE
  2
PUNKTIERT
 70
     0
  3
............................................
 72
    65
 73
     2
 40
     0.25
 49
0.0
 49
-0.25
  0
LTYPE
  2
STRICHPUNKTIERT
 70
     0
  3
__ . __ . __ . __ . __ . __ . __ . __ . __ .
 72
    65
 73
     4
 40
     1.0
 49
0.5
 49
-0.25
 49
0.0
 49
-0.25
  0
LTYPE
  2
RAND
 70
     0
  3
__ __ . __ __ . __ __ . __ __ . __ __ . __ _
 72
    65
 73
     6
 40
     1.75
 49
0.5
 49
-0.25
 49
0.5
 49
-0.25
 49
0.0
 49
-0.25
  0
LTYPE
  2
TRENNLINIE
 70
     0
  3
__ . . __ . . __ . . __ . . __ . . __ . . __
 72
    65
 73
     6
 40
     1.25
 49
0.5
 49
-0.25
 49
0.0
 49
-0.25
 49
0.0
 49
-0.25
  0
LTYPE
  2
ENG_PUNKTIERT
 70
     0
  3
Schließen
 72
    65
 73
     2
 40
     0.1
 49
0.05
 49
-0.05
  0
LTYPE
  2
CLOSE
 70
     0
  3

 72
    65
 73
     0
 40
     0.0
  0
ENDTAB
  0
TABLE
  2
LAYER
 70
   5
  0
LAYER
  2
PT1-Tabelka_rysu1
 70
     0
 62
     7
  6
CONTINUOUS
  0
LAYER
  2
PT2-Teren2
 70
     0
 62
     7
  6
CONTINUOUS
  0
LAYER
  2
PT2-Urządzenia_z3
 70
     0
 62
     7
  6
CONTINUOUS
  0
LAYER
  2
PT2-Tabelka_rysu4
 70
     0
 62
     7
  6
CONTINUOUS
  0
LAYER
  2
PT3-Grafika_wekt5
 70
     0
 62
     7
  6
CONTINUOUS
  0
ENDTAB
  0
TABLE
  2
STYLE
 70
    1
  0
STYLE
  2
STANDARD
 70
    0
 40
0.0
 41
1.0
 50
0.0
71
     0
 42
0.2
  3
txt
  4

  0
ENDTAB
  0
ENDSEC
  0
SECTION
  2
ENTITIES
  0
POLYLINE
  8
PT1-Tabelka_rysu1
  6
CONTINUOUS
 62
     7
 66
     1
 70
     1
  0
VERTEX
  8
PT1-Tabelka_rysu1
 10
591.4931
 20
13.414699999999982
  0
VERTEX
  8
PT1-Tabelka_rysu1
 10
592.5514
 20
13.414699999999982
  0
VERTEX
  8
PT1-Tabelka_rysu1
 10
592.5514
 20
74.445300000000003
  0
VERTEX
  8
PT1-Tabelka_rysu1
 10
591.4931
 20
74.445300000000003
  0
SEQEND
  8
PT1-Tabelka_rysu1
  0
LINE
  8
PT1-Tabelka_rysu1
  6
CONTINUOUS
 62
     7
 10
591.4931
 20
14.473000000000013
 11
591.4931
 21
75.503600000000006
  0
LINE
  8
PT1-Tabelka_rysu1
  6
CONTINUOUS
 62
     7
 10
591.4931
 20
75.503600000000006
 11
519.5264
 21
75.503600000000006
  0
LINE
  8
PT1-Tabelka_rysu1
  6
CONTINUOUS
 62
     7
 10
519.5264
 20
14.473000000000013
 11
519.5264
 21
75.503600000000006
  0
POLYLINE
  8
PT1-Tabelka_rysu1
  6
CONTINUOUS
 62
     7
 66
     1
 70
     1
  0
VERTEX
  8
PT1-Tabelka_rysu1
 10
520.4348
 20
13.485599999999977
  0
VERTEX
  8
PT1-Tabelka_rysu1
 10
592.4015
 20
13.485599999999977
  0
VERTEX
  8
PT1-Tabelka_rysu1
 10
592.4015
 20
14.543900000000008
  0
VERTEX
  8
PT1-Tabelka_rysu1
 10
520.4348
 20
14.543900000000008
  0
SEQEND
  8
PT1-Tabelka_rysu1
  0
LINE
  8
PT1-Tabelka_rysu1
  6
CONTINUOUS
 62
     7
 10
519.3765
 20
14.543800000000005
 11
591.3432
 21
14.543800000000005
  0
LINE
  8
PT1-Tabelka_rysu1
  6
CONTINUOUS
 62
     7
 10
520.082
 20
15.249400000000009
 11
590.6376
 21
15.249400000000009
  0
LINE
  8
PT1-Tabelka_rysu1
  6
CONTINUOUS
 62
     7
 10
590.6376
 20
15.249400000000009
 11
590.6376
 21
60.405000000000001
  0
LINE
  8
PT1-Tabelka_rysu1
  6
CONTINUOUS
 62
     7
 10
590.6376
 20
60.405000000000001
 11
520.082
 21
60.405000000000001
  0
LINE
  8
PT1-Tabelka_rysu1
  6
CONTINUOUS
 62
     7
 10
520.082
 20
15.249400000000009
 11
520.082
 21
60.405000000000001
  0
LINE
  8
PT1-Tabelka_rysu1
  6
CONTINUOUS
 62
     7
 10
520.082
 20
32.182799999999986
 11
590.6376
 21
32.182799999999986
  0
TEXT
  8
PT1-Tabelka_rysu1
  6
CONTINUOUS
 62
     7
 10
520.787600000000000
 20
30.032400000000024
 40
1.797600000000000
  1
Skala:
  0
TEXT
  8
PT1-Tabelka_rysu1
  6
CONTINUOUS
 62
     7
 10
520.787600000000000
 20
30.032400000000024
 40
1.797600000000000
  1
1 : 100
  0
LINE
  8
PT1-Tabelka_rysu1
  6
CONTINUOUS
 62
     7
 10
543.3654
 20
32.182799999999986
 11
543.3654
 21
28.655000000000001
  0
TEXT
  8
PT1-Tabelka_rysu1
  6
CONTINUOUS
 62
     7
 10
544.070900000000050
 20
30.032400000000024
 40
1.797600000000000
  1
Data:
  0
TEXT
  8
PT1-Tabelka_rysu1
  6
CONTINUOUS
 62
     7
 10
544.070900000000050
 20
30.032400000000024
 40
1.797600000000000
  1
07.2004
  0
LINE
  8
PT1-Tabelka_rysu1
  6
CONTINUOUS
 62
     7
 10
566.6487
 20
32.182799999999986
 11
566.6487
 21
28.655000000000001
  0
TEXT
  8
PT1-Tabelka_rysu1
  6
CONTINUOUS
 62
     7
 10
567.653900000000020
 20
30.032400000000024
 40
1.797600000000000
  1
15-P-04/A
  0
LINE
  8
PT1-Tabelka_rysu1
  6
CONTINUOUS
 62
     7
 10
520.082
 20
35.710499999999996
 11
590.6376
 21
35.710499999999996
  0
TEXT
  8
PT1-Tabelka_rysu1
  6
CONTINUOUS
 62
     7
 10
520.787600000000000
 20
33.560200000000009
 40
1.797600000000000
  1
Branża:  architektoniczna
  0
TEXT
  8
PT1-Tabelka_rysu1
  6
CONTINUOUS
 62
     7
 10
520.787600000000000
 20
57.901800000000009
 40
1.797600000000000
  1
Projekt: Rozbudowa Szkoły Podstawowej i Gimnazjum
  0
TEXT
  8
PT1-Tabelka_rysu1
  6
CONTINUOUS
 62
     7
 10
520.787600000000000
 20
55.205399999999997
 40
1.797600000000000
  1
              w Rzerzęczycach
  0
LINE
  8
PT1-Tabelka_rysu1
  6
CONTINUOUS
 62
     7
 10
520.082
 20
52.291100000000000
 11
590.6376
 21
52.291100000000000
  0
TEXT
  8
PT1-Tabelka_rysu1
  6
CONTINUOUS
 62
     7
 10
520.937400000000030
 20
49.787900000000008
 40
1.797600000000000
  1
Inwestor: Urząd Gminy w Kłomnicach
  0
TEXT
  8
PT1-Tabelka_rysu1
  6
CONTINUOUS
 62
     7
 10
520.937400000000030
 20
47.091499999999996
 40
1.797600000000000
  1
                ul. Strażacka 20, 42-270 Kłomnice
  0
LINE
  8
PT1-Tabelka_rysu1
  6
CONTINUOUS
 62
     7
 10
520.082
 20
44.177199999999999
 11
590.6376
 21
44.177199999999999
  0
TEXT
  8
PT1-Tabelka_rysu1
  6
CONTINUOUS
 62
     7
 10
520.787600000000000
 20
42.263600000000025
 40
1.797600000000000
  1
Projektował: Beata Król-Stroba UAB-VIII/83861/102/90
  0
TEXT
  8
PT1-Tabelka_rysu1
  6
CONTINUOUS
 62
     7
 10
532.429200000000040
 20
57.901800000000009
 40
1.797600000000000
  1

  0
TEXT
  8
PT1-Tabelka_rysu1
  6
CONTINUOUS
 62
     7
 10
532.429200000000040
 20
46.260199999999998
 40
1.797600000000000
  1
 
  0
LINE
  8
PT1-Tabelka_rysu1
  6
CONTINUOUS
 62
     7
 10
520.082
 20
28.655000000000001
 11
590.6376
 21
28.655000000000001
  0
TEXT
  8
PT1-Tabelka_rysu1
  6
CONTINUOUS
 62
     7
 10
520.787600000000000
 20
25.799000000000007
 40
1.797600000000000
  1

  0
TEXT
  8
PT1-Tabelka_rysu1
  6
CONTINUOUS
 62
     7
 10
520.711000000000010
 20
39.368600000000015
 40
1.797600000000000
  1
Sprawdził: Witold Dominik   -  Decyzja Nr 65
  0
TEXT
  8
PT1-Tabelka_rysu1
  6
CONTINUOUS
 62
     7
 10
520.795200000000020
 20
36.589100000000002
 40
1.797600000000000
  1
Opracował: Michał Urbańczyk
  0
TEXT
  8
PT1-Tabelka_rysu1
  6
CONTINUOUS
 62
     7
 10
520.839100000000030
 20
26.276200000000017
 40
1.797600000000000
  1
Nazwa rysunku:
  0
TEXT
  8
PT1-Tabelka_rysu1
  6
CONTINUOUS
 62
     7
 10
521.108100000000040
 20
22.801999999999992
 40
3.000000000000000
  1
ELEWACJA BOCZNA
  0
TEXT
  8
PT1-Tabelka_rysu1
  6
CONTINUOUS
 62
     7
 10
521.108100000000040
 20
18.301999999999992
 40
3.000000000000000
  1
(północna)
  0
LINE
  8
PT3-Grafika_wekt5
  6
CONTINUOUS
 62
     7
 10
504.4676
 20
205.834400000000020
 11
555.8278
 21
205.834400000000020
  0
LINE
  8
PT3-Grafika_wekt5
  6
CONTINUOUS
 62
     7
 10
555.8278
 20
205.834400000000020
 11
555.8278
 21
194.148100000000000
  0
LINE
  8
PT3-Grafika_wekt5
  6
CONTINUOUS
 62
     7
 10
555.8278
 20
194.148100000000000
 11
522.4557
 21
194.148100000000000
  0
LINE
  8
PT3-Grafika_wekt5
  6
CONTINUOUS
 62
     7
 10
555.8278
 20
193.748200000000000
 11
555.8278
 21
194.148100000000000
  0
LINE
  8
PT3-Grafika_wekt5
  6
CONTINUOUS
 62
     7
 10
455.3944
 20
193.548200000000010
 11
455.3944
 21
194.148100000000000
  0
LINE
  8
PT3-Grafika_wekt5
  6
CONTINUOUS
 62
     7
 10
455.3944
 20
194.148100000000000
 11
473.3825
 21
205.834400000000020
  0
LINE
  8
PT3-Grafika_wekt5
  6
CONTINUOUS
 62
     7
 10
473.3825
 20
205.834400000000020
 11
473.3825
 21
205.234500000000000
  0
LINE
  8
PT3-Grafika_wekt5
  6
CONTINUOUS
 62
     7
 10
473.3825
 20
205.234500000000000
 11
455.3944
 21
193.548200000000010
  0
LINE
  8
PT3-Grafika_wekt5
  6
CONTINUOUS
 62
     7
 10
473.3825
 20
205.234500000000000
 11
491.3705
 21
193.548200000000010
  0
LINE
  8
PT3-Grafika_wekt5
  6
CONTINUOUS
 62
     7
 10
491.3705
 20
193.548200000000010
 11
491.3705
 21
194.148100000000000
  0
LINE
  8
PT3-Grafika_wekt5
  6
CONTINUOUS
 62
     7
 10
491.3705
 20
194.148100000000000
 11
473.3825
 21
205.834400000000020
  0
LINE
  8
PT3-Grafika_wekt5
  6
CONTINUOUS
 62
     7
 10
274.7422
 20
170.791000000000000
 11
274.9954
 21
170.366800000000010
  0
LINE
  8
PT3-Grafika_wekt5
  6
CONTINUOUS
 62
     7
 10
274.9954
 20
170.366800000000010
 11
275.6065
 21
170.191199999999980
  0
LINE
  8
PT3-Grafika_wekt5
  6
CONTINUOUS
 62
     7
 10
275.6835
 20
170.169100000000010
 11
352.163
 21
170.169100000000010
  0
LINE
  8
PT3-Grafika_wekt5
  6
CONTINUOUS
 62
     7
 10
352.163
 20
170.169100000000010
 11
351.739
 21
170.344699999999990
  0
LINE
  8
PT3-Grafika_wekt5
  6
CONTINUOUS
 62
     7
 10
351.739
 20
170.344699999999990
 11
351.5634
 21
170.768900000000000
  0
LINE
  8
PT3-Grafika_wekt5
  6
CONTINUOUS
 62
     7
 10
274.7554
 20
170.768900000000000
 11
559.1257
 21
170.768900000000000
  0
LINE
  8
PT3-Grafika_wekt5
  6
CONTINUOUS
 62
     7
 10
559.1257
 20
170.768900000000000
 11
351.5634
 21
170.768900000000000
  0
LINE
  8
PT3-Grafika_wekt5
  6
CONTINUOUS
 62
     7
 10
276.6149
 20
170.791000000000000
 11
276.6149
 21
171.190900000000000
  0
LINE
  8
PT3-Grafika_wekt5
  6
CONTINUOUS
 62
     7
 10
276.5931
 20
171.168800000000000
 11
352.8625
 21
171.168800000000000
  0
LINE
  8
PT3-Grafika_wekt5
  6
CONTINUOUS
 62
     7
 10
352.8625
 20
171.168800000000000
 11
352.8625
 21
170.868900000000000
  0
LINE
  8
PT3-Grafika_wekt5
  6
CONTINUOUS
 62
     7
 10
352.8625
 20
170.868900000000000
 11
274.6957
 21
170.868900000000000
  0
LINE
  8
PT3-Grafika_wekt5
  6
CONTINUOUS
 62
     7
 10
317.4032
 20
209.863300000000010
 11
404.9321
 21
209.863300000000010
  0
LINE
  8
PT3-Grafika_wekt5
  6
CONTINUOUS
 62
     7
 10
277.3352
 20
170.191199999999980
 11
277.3926
 21
170.151299999999990
  0
LINE
  8
PT3-Grafika_wekt5
  6
CONTINUOUS
 62
     7
 10
277.6056
 20
170.003500000000000
 11
277.8372
 21
169.842699999999980
  0
LINE
  8
PT3-Grafika_wekt5
  6
CONTINUOUS
 62
     7
 10
277.8691
 20
169.820600000000010
 11
353.7105
 21
169.820600000000010
  0
LINE
  8
PT3-Grafika_wekt5
  6
CONTINUOUS
 62
     7
 10
353.7105
 20
169.820600000000010
 11
353.3621
 21
170.169100000000010
  0
LINE
  8
PT3-Grafika_wekt5
  6
CONTINUOUS
 62
     7
 10
352.163
 20
170.169100000000010
 11
388.2391
 21
170.169100000000010
  0
LINE
  8
PT3-Grafika_wekt5
  6
CONTINUOUS
 62
     7
 10
388.2391
 20
170.169100000000010
 11
387.8151
 21
170.344699999999990
  0
LINE
  8
PT3-Grafika_wekt5
  6
CONTINUOUS
 62
     7
 10
387.8151
 20
170.344699999999990
 11
387.6394
 21
170.768900000000000
  0
LINE
  8
PT3-Grafika_wekt5
  6
CONTINUOUS
 62
     7
 10
352.8625
 20
170.768900000000000
 11
352.8625
 21
170.868900000000000
  0
LINE
  8
PT3-Grafika_wekt5
  6
CONTINUOUS
 62
     7
 10
352.8625
 20
170.868900000000000
 11
388.9385
 21
170.868900000000000
  0
LINE
  8
PT3-Grafika_wekt5
  6
CONTINUOUS
 62
     7
 10
388.9385
 20
170.868900000000000
 11
388.9385
 21
170.768900000000000
  0
LINE
  8
PT3-Grafika_wekt5
  6
CONTINUOUS
 62
     7
 10
352.8625
 20
171.168800000000000
 11
388.9385
 21
171.168800000000000
  0
LINE
  8
PT3-Grafika_wekt5
  6
CONTINUOUS
 62
     7
 10
388.9385
 20
171.168800000000000
 11
388.9385
 21
170.868900000000000
  0
LINE
  8
PT3-Grafika_wekt5
  6
CONTINUOUS
 62
     7
 10
388.9385
 20
170.868900000000000
 11
557.8266
 21
170.868900000000000
  0
LINE
  8
PT3-Grafika_wekt5
  6
CONTINUOUS
 62
     7
 10
557.8266
 20
170.868900000000000
 11
557.8266
 21
170.768900000000000
  0
LINE
  8
PT3-Grafika_wekt5
  6
CONTINUOUS
 62
     7
 10
352.8625
 20
171.168800000000000
 11
413.9218
 21
210.836999999999990
  0
LINE
  8
PT3-Grafika_wekt5
  6
CONTINUOUS
 62
     7
 10
413.9218
 20
210.836999999999990
 11
411.3279
 21
209.151800000000010
  0
LINE
  8
PT3-Grafika_wekt5
  6
CONTINUOUS
 62
     7
 10
353.7105
 20
169.820600000000010
 11
389.7866
 21
169.820600000000010
  0
LINE
  8
PT3-Grafika_wekt5
  6
CONTINUOUS
 62
     7
 10
389.7866
 20
169.820600000000010
 11
389.4383
 21
170.169100000000010
  0
LINE
  8
PT3-Grafika_wekt5
  6
CONTINUOUS
 62
     7
 10
388.2391
 20
170.169100000000010
 11
558.5261
 21
170.169100000000010
  0
LINE
  8
PT3-Grafika_wekt5
  6
CONTINUOUS
 62
     7
 10
558.5261
 20
170.169100000000010
 11
558.9501
 21
170.344699999999990
  0
LINE
  8
PT3-Grafika_wekt5
  6
CONTINUOUS
 62
     7
 10
558.9501
 20
170.344699999999990
 11
559.1257
 21
170.768900000000000
  0
LINE
  8
PT3-Grafika_wekt5
  6
CONTINUOUS
 62
     7
 10
559.1257
 20
170.768900000000000
 11
558.8259
 21
170.768900000000000
  0
LINE
  8
PT3-Grafika_wekt5
  6
CONTINUOUS
 62
     7
 10
558.8259
 20
170.768900000000000
 11
559.0257
 21
170.768900000000000
  0
LINE
  8
PT3-Grafika_wekt5
  6
CONTINUOUS
 62
     7
 10
388.9385
 20
171.168800000000000
 11
473.3826
 21
226.029200000000000
  0
LINE
  8
PT3-Grafika_wekt5
  6
CONTINUOUS
 62
     7
 10
473.3826
 20
226.029200000000000
 11
464.7383
 21
231.645100000000010
  0
LINE
  8
PT3-Grafika_wekt5
  6
CONTINUOUS
 62
     7
 10
464.7383
 20
231.645100000000010
 11
445.9508
 21
231.645100000000010
  0
LINE
  8
PT3-Grafika_wekt5
  6
CONTINUOUS
 62
     7
 10
445.9508
 20
231.645100000000010
 11
420.5492
 21
215.142600000000020
  0
LINE
  8
PT3-Grafika_wekt5
  6
CONTINUOUS
 62
     7
 10
389.7866
 20
169.820600000000010
 11
556.9786
 21
169.820600000000010
  0
LINE
  8
PT3-Grafika_wekt5
  6
CONTINUOUS
 62
     7
 10
556.9786
 20
169.820600000000010
 11
557.3269
 21
170.169100000000010
  0
LINE
  8
PT3-Grafika_wekt5
  6
CONTINUOUS
 62
     7
 10
404.9321
 20
204.996700000000000
 11
352.8625
 21
171.168800000000000
  0
LINE
  8
PT3-Grafika_wekt5
  6
CONTINUOUS
 62
     7
 10
411.3279
 20
209.863300000000010
 11
412.423
 21
209.863300000000010
  0
LINE
  8
PT3-Grafika_wekt5
  6
CONTINUOUS
 62
     7
 10
454.0952
 20
193.748200000000000
 11
454.2708
 21
193.324000000000010
  0
LINE
  8
PT3-Grafika_wekt5
  6
CONTINUOUS
 62
     7
 10
454.2708
 20
193.324000000000010
 11
454.6948
 21
193.148399999999980
  0
LINE
  8
PT3-Grafika_wekt5
  6
CONTINUOUS
 62
     7
 10
454.6948
 20
193.148399999999980
 11
455.1188
 21
193.324000000000010
  0
LINE
  8
PT3-Grafika_wekt5
  6
CONTINUOUS
 62
     7
 10
455.1188
 20
193.324000000000010
 11
455.2944
 21
193.748200000000000
  0
LINE
  8
PT3-Grafika_wekt5
  6
CONTINUOUS
 62
     7
 10
455.2944
 20
193.748200000000000
 11
454.0952
 21
193.748200000000000
  0
LINE
  8
PT3-Grafika_wekt5
  6
CONTINUOUS
 62
     7
 10
455.3944
 20
193.348299999999990
 11
455.3944
 21
193.548200000000010
  0
LINE
  8
PT3-Grafika_wekt5
  6
CONTINUOUS
 62
     7
 10
455.3944
 20
193.548200000000010
 11
473.3825
 21
205.234500000000000
  0
LINE
  8
PT3-Grafika_wekt5
  6
CONTINUOUS
 62
     7
 10
473.3825
 20
205.234500000000000
 11
473.3825
 21
205.034499999999980
  0
LINE
  8
PT3-Grafika_wekt5
  6
CONTINUOUS
 62
     7
 10
473.3825
 20
205.034499999999980
 11
455.3944
 21
193.348299999999990
  0
LINE
  8
PT3-Grafika_wekt5
  6
CONTINUOUS
 62
     7
 10
455.3944
 20
193.348299999999990
 11
455.4651
 21
193.418999999999980
  0
LINE
  8
PT3-Grafika_wekt5
  6
CONTINUOUS
 62
     7
 10
455.4651
 20
193.418999999999980
 11
455.48
 21
193.404000000000000
  0
LINE
  8
PT3-Grafika_wekt5
  6
CONTINUOUS
 62
     7
 10
456.2424
 20
192.500000000000000
 11
455.3944
 21
193.348299999999990
  0
LINE
  8
PT3-Grafika_wekt5
  6
CONTINUOUS
 62
     7
 10
456.2424
 20
192.500000000000000
 11
473.3825
 21
203.635400000000000
  0
LINE
  8
PT3-Grafika_wekt5
  6
CONTINUOUS
 62
     7
 10
473.3825
 20
203.635400000000000
 11
473.3825
 21
205.034499999999980
  0
LINE
  8
PT3-Grafika_wekt5
  6
CONTINUOUS
 62
     7
 10
473.3825
 20
205.034499999999980
 11
491.3705
 21
193.348299999999990
  0
LINE
  8
PT3-Grafika_wekt5
  6
CONTINUOUS
 62
     7
 10
491.3705
 20
193.348299999999990
 11
490.5226
 21
192.500000000000000
  0
LINE
  8
PT3-Grafika_wekt5
  6
CONTINUOUS
 62
     7
 10
490.5226
 20
192.500000000000000
 11
473.3825
 21
203.635400000000000
  0
LINE
  8
PT3-Grafika_wekt5
  6
CONTINUOUS
 62
     7
 10
456.9652
 20
192.969600000000010
 11
458.3925
 21
193.699400000000000
  0
LINE
  8
PT3-Grafika_wekt5
  6
CONTINUOUS
 62
     7
 10
458.3925
 20
193.699400000000000
 11
458.3925
 21
193.599400000000000
  0
LINE
  8
PT3-Grafika_wekt5
  6
CONTINUOUS
 62
     7
 10
458.3925
 20
193.599400000000000
 11
456.2424
 21
192.500000000000000
  0
LINE
  8
PT3-Grafika_wekt5
  6
CONTINUOUS
 62
     7
 10
458.3925
 20
174.415000000000020
 11
488.3725
 21
174.415000000000020
  0
LINE
  8
PT3-Grafika_wekt5
  6
CONTINUOUS
 62
     7
 10
473.3825
 20
205.234500000000000
 11
491.3705
 21
193.548200000000010
  0
LINE
  8
PT3-Grafika_wekt5
  6
CONTINUOUS
 62
     7
 10
491.3705
 20
193.548200000000010
 11
491.3705
 21
193.348299999999990
  0
LINE
  8
PT3-Grafika_wekt5
  6
CONTINUOUS
 62
     7
 10
491.3705
 20
193.348299999999990
 11
491.4412
 21
193.277600000000010
  0
LINE
  8
PT3-Grafika_wekt5
  6
CONTINUOUS
 62
     7
 10
491.4412
 20
193.277600000000010
 11
490.5932
 21
192.429300000000010
  0
LINE
  8
PT3-Grafika_wekt5
  6
CONTINUOUS
 62
     7
 10
490.5932
 20
192.429300000000010
 11
490.5226
 21
192.500000000000000
  0
LINE
  8
PT3-Grafika_wekt5
  6
CONTINUOUS
 62
     7
 10
490.5226
 20
192.500000000000000
 11
488.3725
 21
193.599400000000000
  0
LINE
  8
PT3-Grafika_wekt5
  6
CONTINUOUS
 62
     7
 10
488.3725
 20
193.599400000000000
 11
488.3725
 21
193.699400000000000
  0
LINE
  8
PT3-Grafika_wekt5
  6
CONTINUOUS
 62
     7
 10
488.3725
 20
193.699400000000000
 11
489.7998
 21
192.969600000000010
  0
LINE
  8
PT3-Grafika_wekt5
  6
CONTINUOUS
 62
     7
 10
473.3826
 20
226.029200000000000
 11
483.1744
 21
219.667800000000000
  0
LINE
  8
PT3-Grafika_wekt5
  6
CONTINUOUS
 62
     7
 10
487.6715
 20
216.746199999999990
 11
557.8266
 21
171.168800000000000
  0
LINE
  8
PT3-Grafika_wekt5
  6
CONTINUOUS
 62
     7
 10
557.8266
 20
171.168800000000000
 11
388.9385
 21
171.168800000000000
  0
LINE
  8
PT3-Grafika_wekt5
  6
CONTINUOUS
 62
     7
 10
487.6717
 20
216.746100000000010
 11
504.4676
 21
205.834400000000020
  0
LINE
  8
PT3-Grafika_wekt5
  6
CONTINUOUS
 62
     7
 10
491.4705
 20
193.748200000000000
 11
491.6461
 21
193.324000000000010
  0
LINE
  8
PT3-Grafika_wekt5
  6
CONTINUOUS
 62
     7
 10
491.6461
 20
193.324000000000010
 11
492.0701
 21
193.148399999999980
  0
LINE
  8
PT3-Grafika_wekt5
  6
CONTINUOUS
 62
     7
 10
492.0701
 20
193.148399999999980
 11
492.4941
 21
193.324000000000010
  0
LINE
  8
PT3-Grafika_wekt5
  6
CONTINUOUS
 62
     7
 10
492.4941
 20
193.324000000000010
 11
492.6697
 21
193.748200000000000
  0
LINE
  8
PT3-Grafika_wekt5
  6
CONTINUOUS
 62
     7
 10
492.6697
 20
193.748200000000000
 11
491.4705
 21
193.748200000000000
  0
LINE
  8
PT3-Grafika_wekt5
  6
CONTINUOUS
 62
     7
 10
502.6959
 20
206.985300000000000
 11
563.8223
 21
206.985300000000000
  0
LINE
  8
PT3-Grafika_wekt5
  6
CONTINUOUS
 62
     7
 10
563.8223
 20
206.985300000000000
 11
563.8223
 21
191.663299999999990
  0
LINE
  8
PT3-Grafika_wekt5
  6
CONTINUOUS
 62
     7
 10
563.8223
 20
191.663299999999990
 11
552.83
 21
191.663299999999990
  0
LINE
  8
PT3-Grafika_wekt5
  6
CONTINUOUS
 62
     7
 10
523.0712
 20
193.748200000000000
 11
555.8278
 21
193.748200000000000
  0
LINE
  8
PT3-Grafika_wekt5
  6
CONTINUOUS
 62
     7
 10
555.8278
 20
193.748200000000000
 11
555.8278
 21
193.148399999999980
  0
LINE
  8
PT3-Grafika_wekt5
  6
CONTINUOUS
 62
     7
 10
555.8278
 20
193.148399999999980
 11
523.9946
 21
193.148399999999980
  0
LINE
  8
PT3-Grafika_wekt5
  6
CONTINUOUS
 62
     7
 10
524.9925
 20
192.500000000000000
 11
552.8297
 21
192.500000000000000
  0
LINE
  8
PT3-Grafika_wekt5
  6
CONTINUOUS
 62
     7
 10
552.8297
 20
192.500000000000000
 11
552.8297
 21
193.148399999999980
  0
LINE
  8
PT3-Grafika_wekt5
  6
CONTINUOUS
 62
     7
 10
552.8297
 20
192.429300000000010
 11
555.8278
 21
192.429300000000010
  0
LINE
  8
PT3-Grafika_wekt5
  6
CONTINUOUS
 62
     7
 10
555.8278
 20
192.429300000000010
 11
555.8278
 21
192.500000000000000
  0
LINE
  8
PT3-Grafika_wekt5
  6
CONTINUOUS
 62
     7
 10
555.8278
 20
192.500000000000000
 11
552.8297
 21
192.500000000000000
  0
LINE
  8
PT3-Grafika_wekt5
  6
CONTINUOUS
 62
     7
 10
552.83
 20
190.315200000000000
 11
558.8256
 21
190.315200000000000
  0
LINE
  8
PT3-Grafika_wekt5
  6
CONTINUOUS
 62
     7
 10
558.8256
 20
190.315200000000000
 11
558.8256
 21
190.663600000000000
  0
LINE
  8
PT3-Grafika_wekt5
  6
CONTINUOUS
 62
     7
 10
552.83
 20
190.663600000000000
 11
563.8223
 21
190.663600000000000
  0
LINE
  8
PT3-Grafika_wekt5
  6
CONTINUOUS
 62
     7
 10
563.8223
 20
190.663600000000000
 11
563.8223
 21
190.315200000000000
  0
LINE
  8
PT3-Grafika_wekt5
  6
CONTINUOUS
 62
     7
 10
563.8223
 20
190.315200000000000
 11
558.8256
 21
190.315200000000000
  0
LINE
  8
PT3-Grafika_wekt5
  6
CONTINUOUS
 62
     7
 10
552.83
 20
191.263499999999990
 11
563.8223
 21
191.263499999999990
  0
LINE
  8
PT3-Grafika_wekt5
  6
CONTINUOUS
 62
     7
 10
563.8223
 20
191.263499999999990
 11
563.8223
 21
190.663600000000000
  0
LINE
  8
PT3-Grafika_wekt5
  6
CONTINUOUS
 62
     7
 10
552.83
 20
191.363400000000010
 11
563.8223
 21
191.363400000000010
  0
LINE
  8
PT3-Grafika_wekt5
  6
CONTINUOUS
 62
     7
 10
563.8223
 20
191.363400000000010
 11
563.8223
 21
191.263499999999990
  0
LINE
  8
PT3-Grafika_wekt5
  6
CONTINUOUS
 62
     7
 10
555.7778
 20
192.500000000000000
 11
555.7778
 21
193.148399999999980
  0
LINE
  8
PT3-Grafika_wekt5
  6
CONTINUOUS
 62
     7
 10
555.8028
 20
193.148399999999980
 11
555.8028
 21
193.748200000000000
  0
LINE
  8
PT3-Grafika_wekt5
  6
CONTINUOUS
 62
     7
 10
555.8028
 20
193.748200000000000
 11
555.8528
 21
193.748200000000000
  0
LINE
  8
PT3-Grafika_wekt5
  6
CONTINUOUS
 62
     7
 10
555.8528
 20
193.748200000000000
 11
555.8528
 21
193.324000000000010
  0
LINE
  8
PT3-Grafika_wekt5
  6
CONTINUOUS
 62
     7
 10
555.8528
 20
193.324000000000010
 11
555.8028
 21
193.324000000000010
  0
LINE
  8
PT3-Grafika_wekt5
  6
CONTINUOUS
 62
     7
 10
555.8278
 20
192.500000000000000
 11
555.8278
 21
193.148399999999980
  0
LINE
  8
PT3-Grafika_wekt5
  6
CONTINUOUS
 62
     7
 10
555.8278
 20
205.034499999999980
 11
555.8778
 21
205.034499999999980
  0
LINE
  8
PT3-Grafika_wekt5
  6
CONTINUOUS
 62
     7
 10
555.8778
 20
205.034499999999980
 11
555.8778
 21
193.348299999999990
  0
LINE
  8
PT3-Grafika_wekt5
  6
CONTINUOUS
 62
     7
 10
555.8778
 20
193.348299999999990
 11
555.8528
 21
193.348299999999990
  0
LINE
  8
PT3-Grafika_wekt5
  6
CONTINUOUS
 62
     7
 10
555.8528
 20
193.148399999999980
 11
555.8028
 21
193.148399999999980
  0
LINE
  8
PT3-Grafika_wekt5
  6
CONTINUOUS
 62
     7
 10
555.8528
 20
193.324000000000010
 11
555.8528
 21
193.148399999999980
  0
LINE
  8
PT3-Grafika_wekt5
  6
CONTINUOUS
 62
     7
 10
555.8778
 20
192.500000000000000
 11
555.7778
 21
192.500000000000000
  0
LINE
  8
PT3-Grafika_wekt5
  6
CONTINUOUS
 62
     7
 10
555.8778
 20
193.348299999999990
 11
555.8778
 21
192.500000000000000
  0
LINE
  8
PT3-Grafika_wekt5
  6
CONTINUOUS
 62
     7
 10
557.8266
 20
170.868900000000000
 11
557.8266
 21
171.168800000000000
  0
LINE
  8
PT3-Grafika_wekt5
  6
CONTINUOUS
 62
     7
 10
558.8259
 20
190.244500000000020
 11
563.8223
 21
190.244500000000020
  0
LINE
  8
PT3-Grafika_wekt5
  6
CONTINUOUS
 62
     7
 10
563.8223
 20
190.244500000000020
 11
563.8223
 21
190.315200000000000
  0
LINE
  8
PT3-Grafika_wekt5
  6
CONTINUOUS
 62
     7
 10
563.7724
 20
190.315200000000000
 11
563.7724
 21
190.663600000000000
  0
LINE
  8
PT3-Grafika_wekt5
  6
CONTINUOUS
 62
     7
 10
563.7973
 20
190.663600000000000
 11
563.7973
 21
191.263499999999990
  0
LINE
  8
PT3-Grafika_wekt5
  6
CONTINUOUS
 62
     7
 10
563.7973
 20
191.263499999999990
 11
563.8474
 21
191.263499999999990
  0
LINE
  8
PT3-Grafika_wekt5
  6
CONTINUOUS
 62
     7
 10
563.8474
 20
191.263499999999990
 11
563.8474
 21
190.839299999999980
  0
LINE
  8
PT3-Grafika_wekt5
  6
CONTINUOUS
 62
     7
 10
563.8474
 20
190.839299999999980
 11
563.7973
 21
190.839299999999980
  0
LINE
  8
PT3-Grafika_wekt5
  6
CONTINUOUS
 62
     7
 10
563.8223
 20
191.363400000000010
 11
563.8223
 21
191.663299999999990
  0
LINE
  8
PT3-Grafika_wekt5
  6
CONTINUOUS
 62
     7
 10
563.8223
 20
206.485500000000000
 11
563.8723
 21
206.485500000000000
  0
LINE
  8
PT3-Grafika_wekt5
  6
CONTINUOUS
 62
     7
 10
563.8723
 20
206.485500000000000
 11
563.8723
 21
191.163500000000000
  0
LINE
  8
PT3-Grafika_wekt5
  6
CONTINUOUS
 62
     7
 10
563.8723
 20
191.163500000000000
 11
563.8474
 21
191.163500000000000
  0
LINE
  8
PT3-Grafika_wekt5
  6
CONTINUOUS
 62
     7
 10
563.8474
 20
190.663600000000000
 11
563.7973
 21
190.663600000000000
  0
LINE
  8
PT3-Grafika_wekt5
  6
CONTINUOUS
 62
     7
 10
563.8474
 20
190.839299999999980
 11
563.8474
 21
190.663600000000000
  0
LINE
  8
PT3-Grafika_wekt5
  6
CONTINUOUS
 62
     7
 10
563.8723
 20
190.315200000000000
 11
563.7724
 21
190.315200000000000
  0
LINE
  8
PT3-Grafika_wekt5
  6
CONTINUOUS
 62
     7
 10
563.8723
 20
191.163500000000000
 11
563.8723
 21
190.315200000000000
  0
LINE
  8
PT3-Grafika_wekt5
  6
CONTINUOUS
 62
     7
 10
483.1744
 20
209.084400000000020
 11
483.1744
 21
220.141300000000000
  0
LINE
  8
PT3-Grafika_wekt5
  6
CONTINUOUS
 62
     7
 10
483.1744
 20
220.141300000000000
 11
487.6715
 21
220.141300000000000
  0
LINE
  8
PT3-Grafika_wekt5
  6
CONTINUOUS
 62
     7
 10
487.6715
 20
220.141300000000000
 11
487.6715
 21
209.084400000000020
  0
LINE
  8
PT3-Grafika_wekt5
  6
CONTINUOUS
 62
     7
 10
277.3926
 20
170.151299999999990
 11
277.5404
 21
170.003500000000000
  0
LINE
  8
PT3-Grafika_wekt5
  6
CONTINUOUS
 62
     7
 10
277.5404
 20
170.003500000000000
 11
278.417
 21
170.003500000000000
  0
LINE
  8
PT3-Grafika_wekt5
  6
CONTINUOUS
 62
     7
 10
278.417
 20
170.003500000000000
 11
278.2692
 21
170.151299999999990
  0
LINE
  8
PT3-Grafika_wekt5
  6
CONTINUOUS
 62
     7
 10
278.417
 20
170.003500000000000
 11
278.4822
 21
170.003500000000000
  0
LINE
  8
PT3-Grafika_wekt5
  6
CONTINUOUS
 62
     7
 10
353.9689
 20
169.718900000000020
 11
353.9689
 21
169.820600000000010
  0
LINE
  8
PT3-Grafika_wekt5
  6
CONTINUOUS
 62
     7
 10
354.1257
 20
169.820600000000010
 11
353.9689
 21
169.718900000000020
  0
LINE
  8
PT3-Grafika_wekt5
  6
CONTINUOUS
 62
     7
 10
456.4963
 20
192.629900000000020
 11
456.8573
 21
192.629900000000020
  0
LINE
  8
PT3-Grafika_wekt5
  6
CONTINUOUS
 62
     7
 10
456.8573
 20
192.629900000000020
 11
458.1919
 21
193.496899999999980
  0
LINE
  8
PT3-Grafika_wekt5
  6
CONTINUOUS
 62
     7
 10
488.5731
 20
193.496899999999980
 11
489.9076
 21
192.629900000000020
  0
LINE
  8
PT3-Grafika_wekt5
  6
CONTINUOUS
 62
     7
 10
489.9076
 20
192.629900000000020
 11
490.2687
 21
192.629900000000020
  0
LINE
  8
PT3-Grafika_wekt5
  6
CONTINUOUS
 62
     7
 10
302.9127
 20
187.125400000000010
 11
302.9127
 21
195.147800000000020
  0
LINE
  8
PT3-Grafika_wekt5
  6
CONTINUOUS
 62
     7
 10
302.9127
 20
195.147800000000020
 11
307.111
 21
195.147800000000020
  0
LINE
  8
PT3-Grafika_wekt5
  6
CONTINUOUS
 62
     7
 10
307.111
 20
195.147800000000020
 11
307.111
 21
187.125600000000020
  0
LINE
  8
PT3-Grafika_wekt5
  6
CONTINUOUS
 62
     7
 10
307.111
 20
195.147800000000020
 11
311.7309
 21
195.147800000000020
  0
LINE
  8
PT3-Grafika_wekt5
  6
CONTINUOUS
 62
     7
 10
311.7309
 20
195.147800000000020
 11
311.7309
 21
189.207699999999990
  0
LINE
  8
PT3-Grafika_wekt5
  6
CONTINUOUS
 62
     7
 10
505.0329
 20
206.985300000000000
 11
505.0329
 21
210.143900000000000
  0
LINE
  8
PT3-Grafika_wekt5
  6
CONTINUOUS
 62
     7
 10
505.0329
 20
210.143900000000000
 11
508.8304
 21
210.143900000000000
  0
LINE
  8
PT3-Grafika_wekt5
  6
CONTINUOUS
 62
     7
 10
508.8304
 20
210.143900000000000
 11
508.8304
 21
206.985300000000000
  0
LINE
  8
PT3-Grafika_wekt5
  6
CONTINUOUS
 62
     7
 10
336.3733
 20
200.313899999999990
 11
336.3733
 21
205.145199999999990
  0
LINE
  8
PT3-Grafika_wekt5
  6
CONTINUOUS
 62
     7
 10
336.3733
 20
205.145199999999990
 11
340.8703
 21
205.145199999999990
  0
LINE
  8
PT3-Grafika_wekt5
  6
CONTINUOUS
 62
     7
 10
340.8703
 20
205.145199999999990
 11
340.8703
 21
200.375299999999980
  0
LINE
  8
PT3-Grafika_wekt5
  6
CONTINUOUS
 62
     7
 10
406.1272
 20
109.370600000000000
 11
406.1272
 21
109.670500000000000
  0
LINE
  8
PT3-Grafika_wekt5
  6
CONTINUOUS
 62
     7
 10
406.1272
 20
109.670500000000000
 11
417.7195
 21
109.670500000000000
  0
LINE
  8
PT3-Grafika_wekt5
  6
CONTINUOUS
 62
     7
 10
417.7195
 20
109.670500000000000
 11
417.7195
 21
109.370600000000000
  0
LINE
  8
PT3-Grafika_wekt5
  6
CONTINUOUS
 62
     7
 10
417.7195
 20
109.370600000000000
 11
406.1272
 21
109.370600000000000
  0
LINE
  8
PT3-Grafika_wekt5
  6
CONTINUOUS
 62
     7
 10
406.1272
 20
110.170400000000000
 11
406.3271
 21
110.370299999999990
  0
LINE
  8
PT3-Grafika_wekt5
  6
CONTINUOUS
 62
     7
 10
406.3271
 20
110.370299999999990
 11
406.3271
 21
128.665500000000010
  0
LINE
  8
PT3-Grafika_wekt5
  6
CONTINUOUS
 62
     7
 10
406.3271
 20
128.665500000000010
 11
406.1272
 21
128.865399999999990
  0
LINE
  8
PT3-Grafika_wekt5
  6
CONTINUOUS
 62
     7
 10
406.3271
 20
110.370299999999990
 11
417.5197
 21
110.370299999999990
  0
LINE
  8
PT3-Grafika_wekt5
  6
CONTINUOUS
 62
     7
 10
417.5197
 20
110.370299999999990
 11
417.5197
 21
121.667300000000010
  0
LINE
  8
PT3-Grafika_wekt5
  6
CONTINUOUS
 62
     7
 10
417.5197
 20
121.667300000000010
 11
406.3271
 21
121.667300000000010
  0
LINE
  8
PT3-Grafika_wekt5
  6
CONTINUOUS
 62
     7
 10
406.3271
 20
122.367099999999990
 11
417.5197
 21
122.367099999999990
  0
LINE
  8
PT3-Grafika_wekt5
  6
CONTINUOUS
 62
     7
 10
417.5197
 20
122.367099999999990
 11
417.5197
 21
128.665500000000010
  0
LINE
  8
PT3-Grafika_wekt5
  6
CONTINUOUS
 62
     7
 10
417.5197
 20
128.665500000000010
 11
406.3271
 21
128.665500000000010
  0
LINE
  8
PT3-Grafika_wekt5
  6
CONTINUOUS
 62
     7
 10
417.5197
 20
110.370299999999990
 11
417.5197
 21
128.665500000000010
  0
LINE
  8
PT3-Grafika_wekt5
  6
CONTINUOUS
 62
     7
 10
417.5197
 20
128.665500000000010
 11
417.7195
 21
128.865399999999990
  0
LINE
  8
PT3-Grafika_wekt5
  6
CONTINUOUS
 62
     7
 10
417.7195
 20
110.170400000000000
 11
417.5197
 21
110.370299999999990
  0
LINE
  8
PT3-Grafika_wekt5
  6
CONTINUOUS
 62
     7
 10
472.8593
 20
99.376900000000006
 11
472.8593
 21
120.474400000000000
  0
LINE
  8
PT3-Grafika_wekt5
  6
CONTINUOUS
 62
     7
 10
472.8593
 20
120.474400000000000
 11
473.7545
 21
120.474400000000000
  0
LINE
  8
PT3-Grafika_wekt5
  6
CONTINUOUS
 62
     7
 10
473.7545
 20
120.474400000000000
 11
473.7545
 21
118.903899999999990
  0
LINE
  8
PT3-Grafika_wekt5
  6
CONTINUOUS
 62
     7
 10
473.2372
 20
110.799399999999990
 11
473.2703
 21
110.708400000000010
  0
LINE
  8
PT3-Grafika_wekt5
  6
CONTINUOUS
 62
     7
 10
473.2703
 20
110.708400000000010
 11
473.3365
 21
110.701100000000000
  0
LINE
  8
PT3-Grafika_wekt5
  6
CONTINUOUS
 62
     7
 10
473.3365
 20
110.701100000000000
 11
473.3383
 21
110.701100000000000
  0
LINE
  8
PT3-Grafika_wekt5
  6
CONTINUOUS
 62
     7
 10
473.3383
 20
110.701100000000000
 11
473.2709
 21
110.708400000000010
  0
LINE
  8
PT3-Grafika_wekt5
  6
CONTINUOUS
 62
     7
 10
473.2709
 20
110.708400000000010
 11
473.2372
 21
110.799399999999990
  0
LINE
  8
PT3-Grafika_wekt5
  6
CONTINUOUS
 62
     7
 10
473.2372
 20
110.799399999999990
 11
473.273
 21
110.938199999999990
  0
LINE
  8
PT3-Grafika_wekt5
  6
CONTINUOUS
 62
     7
 10
473.273
 20
110.938199999999990
 11
473.485
 21
110.972000000000010
  0
LINE
  8
PT3-Grafika_wekt5
  6
CONTINUOUS
 62
     7
 10
473.485
 20
110.972000000000010
 11
473.6573
 21
110.984199999999990
  0
LINE
  8
PT3-Grafika_wekt5
  6
CONTINUOUS
 62
     7
 10
473.6573
 20
110.984199999999990
 11
473.6507
 21
110.984199999999990
  0
LINE
  8
PT3-Grafika_wekt5
  6
CONTINUOUS
 62
     7
 10
473.6507
 20
110.984199999999990
 11
473.4807
 21
110.972000000000010
  0
LINE
  8
PT3-Grafika_wekt5
  6
CONTINUOUS
 62
     7
 10
473.4807
 20
110.972000000000010
 11
473.2723
 21
110.938199999999990
  0
LINE
  8
PT3-Grafika_wekt5
  6
CONTINUOUS
 62
     7
 10
473.2787
 20
109.134800000000010
 11
473.3425
 21
109.134800000000010
  0
LINE
  8
PT3-Grafika_wekt5
  6
CONTINUOUS
 62
     7
 10
473.3425
 20
109.134800000000010
 11
473.398
 21
109.182899999999990
  0
LINE
  8
PT3-Grafika_wekt5
  6
CONTINUOUS
 62
     7
 10
473.398
 20
109.182899999999990
 11
473.4289
 21
109.279200000000000
  0
LINE
  8
PT3-Grafika_wekt5
  6
CONTINUOUS
 62
     7
 10
473.4289
 20
109.279200000000000
 11
473.4289
 21
110.808799999999990
  0
LINE
  8
PT3-Grafika_wekt5
  6
CONTINUOUS
 62
     7
 10
473.2787
 20
111.604199999999990
 11
473.3425
 21
111.604199999999990
  0
LINE
  8
PT3-Grafika_wekt5
  6
CONTINUOUS
 62
     7
 10
473.3425
 20
111.604199999999990
 11
473.398
 21
111.556099999999990
  0
LINE
  8
PT3-Grafika_wekt5
  6
CONTINUOUS
 62
     7
 10
473.398
 20
111.556099999999990
 11
473.4289
 21
111.459800000000000
  0
LINE
  8
PT3-Grafika_wekt5
  6
CONTINUOUS
 62
     7
 10
473.4289
 20
111.459800000000000
 11
473.4289
 21
110.963600000000010
  0
LINE
  8
PT3-Grafika_wekt5
  6
CONTINUOUS
 62
     7
 10
473.2894
 20
109.822300000000010
 11
473.3367
 21
109.822300000000010
  0
LINE
  8
PT3-Grafika_wekt5
  6
CONTINUOUS
 62
     7
 10
473.3367
 20
109.822300000000010
 11
473.3367
 21
110.056199999999990
  0
LINE
  8
PT3-Grafika_wekt5
  6
CONTINUOUS
 62
     7
 10
473.3367
 20
110.056199999999990
 11
473.2894
 21
110.056199999999990
  0
LINE
  8
PT3-Grafika_wekt5
  6
CONTINUOUS
 62
     7
 10
473.3383
 20
110.701100000000000
 11
473.4031
 21
110.813099999999990
  0
LINE
  8
PT3-Grafika_wekt5
  6
CONTINUOUS
 62
     7
 10
473.4031
 20
110.813099999999990
 11
473.6257
 21
110.780100000000000
  0
LINE
  8
PT3-Grafika_wekt5
  6
CONTINUOUS
 62
     7
 10
473.6257
 20
110.780100000000000
 11
473.7674
 21
110.768000000000000
  0
LINE
  8
PT3-Grafika_wekt5
  6
CONTINUOUS
 62
     7
 10
473.7674
 20
110.768000000000000
 11
473.7596
 21
110.768000000000000
  0
LINE
  8
PT3-Grafika_wekt5
  6
CONTINUOUS
 62
     7
 10
473.7596
 20
110.768000000000000
 11
473.6195
 21
110.780100000000000
  0
LINE
  8
PT3-Grafika_wekt5
  6
CONTINUOUS
 62
     7
 10
473.6195
 20
110.780100000000000
 11
473.4029
 21
110.812700000000010
  0
LINE
  8
PT3-Grafika_wekt5
  6
CONTINUOUS
 62
     7
 10
473.6573
 20
110.984199999999990
 11
473.8469
 21
110.973500000000000
  0
LINE
  8
PT3-Grafika_wekt5
  6
CONTINUOUS
 62
     7
 10
473.8469
 20
110.973500000000000
 11
474.1095
 21
110.938199999999990
  0
LINE
  8
PT3-Grafika_wekt5
  6
CONTINUOUS
 62
     7
 10
474.1095
 20
110.938199999999990
 11
474.1288
 21
110.917300000000010
  0
LINE
  8
PT3-Grafika_wekt5
  6
CONTINUOUS
 62
     7
 10
474.1288
 20
110.917300000000010
 11
474.1353
 21
110.875699999999990
  0
LINE
  8
PT3-Grafika_wekt5
  6
CONTINUOUS
 62
     7
 10
474.1353
 20
110.875699999999990
 11
474.1288
 21
110.834200000000010
  0
LINE
  8
PT3-Grafika_wekt5
  6
CONTINUOUS
 62
     7
 10
474.1288
 20
110.834200000000010
 11
474.1095
 21
110.813099999999990
  0
LINE
  8
PT3-Grafika_wekt5
  6
CONTINUOUS
 62
     7
 10
474.1095
 20
110.813099999999990
 11
473.9039
 21
110.778500000000010
  0
LINE
  8
PT3-Grafika_wekt5
  6
CONTINUOUS
 62
     7
 10
473.9039
 20
110.778500000000010
 11
473.7674
 21
110.768000000000000
  0
LINE
  8
PT3-Grafika_wekt5
  6
CONTINUOUS
 62
     7
 10
473.7067
 20
103.770999999999990
 11
473.7067
 21
103.995100000000010
  0
LINE
  8
PT3-Grafika_wekt5
  6
CONTINUOUS
 62
     7
 10
473.7067
 20
103.995100000000010
 11
477.8542
 21
103.995100000000010
  0
LINE
  8
PT3-Grafika_wekt5
  6
CONTINUOUS
 62
     7
 10
477.8542
 20
103.995100000000010
 11
477.8542
 21
103.770999999999990
  0
LINE
  8
PT3-Grafika_wekt5
  6
CONTINUOUS
 62
     7
 10
477.8542
 20
103.770999999999990
 11
473.7067
 21
103.770999999999990
  0
LINE
  8
PT3-Grafika_wekt5
  6
CONTINUOUS
 62
     7
 10
473.7067
 20
118.679900000000000
 11
473.7067
 21
118.903899999999990
  0
LINE
  8
PT3-Grafika_wekt5
  6
CONTINUOUS
 62
     7
 10
473.7067
 20
118.903899999999990
 11
477.8542
 21
118.903899999999990
  0
LINE
  8
PT3-Grafika_wekt5
  6
CONTINUOUS
 62
     7
 10
477.8542
 20
118.903899999999990
 11
477.8542
 21
118.679900000000000
  0
LINE
  8
PT3-Grafika_wekt5
  6
CONTINUOUS
 62
     7
 10
477.8542
 20
118.679900000000000
 11
473.7067
 21
118.679900000000000
  0
LINE
  8
PT3-Grafika_wekt5
  6
CONTINUOUS
 62
     7
 10
473.7078
 20
103.995100000000010
 11
473.7078
 21
110.772500000000010
  0
LINE
  8
PT3-Grafika_wekt5
  6
CONTINUOUS
 62
     7
 10
473.7078
 20
110.981400000000010
 11
473.7078
 21
118.679100000000010
  0
LINE
  8
PT3-Grafika_wekt5
  6
CONTINUOUS
 62
     7
 10
473.7078
 20
118.679100000000010
 11
473.828
 21
118.679100000000010
  0
LINE
  8
PT3-Grafika_wekt5
  6
CONTINUOUS
 62
     7
 10
473.828
 20
118.679100000000010
 11
473.828
 21
110.974500000000010
  0
LINE
  8
PT3-Grafika_wekt5
  6
CONTINUOUS
 62
     7
 10
473.7545
 20
99.376900000000006
 11
472.8593
 21
99.376900000000006
  0
LINE
  8
PT3-Grafika_wekt5
  6
CONTINUOUS
 62
     7
 10
473.7545
 20
99.377399999999994
 11
473.7547
 21
99.377399999999994
  0
LINE
  8
PT3-Grafika_wekt5
  6
CONTINUOUS
 62
     7
 10
473.7547
 20
99.377399999999994
 11
473.7547
 21
103.770999999999990
  0
LINE
  8
PT3-Grafika_wekt5
  6
CONTINUOUS
 62
     7
 10
473.7545
 20
103.770999999999990
 11
473.7545
 21
99.376900000000006
  0
LINE
  8
PT3-Grafika_wekt5
  6
CONTINUOUS
 62
     7
 10
473.7545
 20
118.679100000000010
 11
473.7545
 21
118.679900000000000
  0
LINE
  8
PT3-Grafika_wekt5
  6
CONTINUOUS
 62
     7
 10
473.7545
 20
120.474400000000000
 11
473.7547
 21
120.229500000000000
  0
LINE
  8
PT3-Grafika_wekt5
  6
CONTINUOUS
 62
     7
 10
473.7547
 20
120.229500000000000
 11
473.7547
 21
118.903899999999990
  0
LINE
  8
PT3-Grafika_wekt5
  6
CONTINUOUS
 62
     7
 10
473.7547
 20
118.679100000000010
 11
473.7547
 21
118.679900000000000
  0
LINE
  8
PT3-Grafika_wekt5
  6
CONTINUOUS
 62
     7
 10
473.7554
 20
99.377399999999994
 11
473.7554
 21
103.770999999999990
  0
LINE
  8
PT3-Grafika_wekt5
  6
CONTINUOUS
 62
     7
 10
473.7652
 20
118.903899999999990
 11
473.7652
 21
120.467999999999990
  0
LINE
  8
PT3-Grafika_wekt5
  6
CONTINUOUS
 62
     7
 10
473.7652
 20
120.467999999999990
 11
477.7873
 21
120.467999999999990
  0
LINE
  8
PT3-Grafika_wekt5
  6
CONTINUOUS
 62
     7
 10
477.7873
 20
120.467999999999990
 11
477.7873
 21
118.903899999999990
  0
LINE
  8
PT3-Grafika_wekt5
  6
CONTINUOUS
 62
     7
 10
473.8048
 20
118.679100000000010
 11
473.8048
 21
118.679900000000000
  0
LINE
  8
PT3-Grafika_wekt5
  6
CONTINUOUS
 62
     7
 10
473.828
 20
103.995100000000010
 11
473.828
 21
110.772699999999990
  0
LINE
  8
PT3-Grafika_wekt5
  6
CONTINUOUS
 62
     7
 10
477.734
 20
103.995100000000010
 11
477.734
 21
118.679100000000010
  0
LINE
  8
PT3-Grafika_wekt5
  6
CONTINUOUS
 62
     7
 10
477.734
 20
118.679100000000010
 11
477.8542
 21
118.679100000000010
  0
LINE
  8
PT3-Grafika_wekt5
  6
CONTINUOUS
 62
     7
 10
477.8542
 20
118.679100000000010
 11
477.8542
 21
103.992600000000010
  0
LINE
  8
PT3-Grafika_wekt5
  6
CONTINUOUS
 62
     7
 10
477.7467
 20
118.679100000000010
 11
477.7467
 21
118.679900000000000
  0
LINE
  8
PT3-Grafika_wekt5
  6
CONTINUOUS
 62
     7
 10
477.7854
 20
99.377399999999994
 11
473.7554
 21
99.377399999999994
  0
LINE
  8
PT3-Grafika_wekt5
  6
CONTINUOUS
 62
     7
 10
477.7854
 20
103.770999999999990
 11
477.7854
 21
99.377399999999994
  0
LINE
  8
PT3-Grafika_wekt5
  6
CONTINUOUS
 62
     7
 10
477.7904
 20
99.373700000000014
 11
477.7904
 21
103.770999999999990
  0
LINE
  8
PT3-Grafika_wekt5
  6
CONTINUOUS
 62
     7
 10
477.7904
 20
120.225300000000000
 11
477.7906
 21
120.470300000000010
  0
LINE
  8
PT3-Grafika_wekt5
  6
CONTINUOUS
 62
     7
 10
477.7906
 20
120.470300000000010
 11
477.7906
 21
118.903899999999990
  0
LINE
  8
PT3-Grafika_wekt5
  6
CONTINUOUS
 62
     7
 10
477.7906
 20
99.373199999999997
 11
477.7906
 21
103.770999999999990
  0
LINE
  8
PT3-Grafika_wekt5
  6
CONTINUOUS
 62
     7
 10
477.7906
 20
118.679100000000010
 11
477.7906
 21
118.679900000000000
  0
LINE
  8
PT3-Grafika_wekt5
  6
CONTINUOUS
 62
     7
 10
477.7906
 20
120.470300000000010
 11
478.6857
 21
120.470300000000010
  0
LINE
  8
PT3-Grafika_wekt5
  6
CONTINUOUS
 62
     7
 10
478.6857
 20
120.470300000000010
 11
478.6857
 21
99.373199999999997
  0
LINE
  8
PT3-Grafika_wekt5
  6
CONTINUOUS
 62
     7
 10
478.6857
 20
99.373199999999997
 11
477.7906
 21
99.373199999999997
  0
LINE
  8
PT3-Grafika_wekt5
  6
CONTINUOUS
 62
     7
 10
478.6857
 20
101.564300000000000
 11
478.7008
 21
101.564300000000000
  0
LINE
  8
PT3-Grafika_wekt5
  6
CONTINUOUS
 62
     7
 10
478.7008
 20
101.564300000000000
 11
478.7008
 21
102.336099999999990
  0
LINE
  8
PT3-Grafika_wekt5
  6
CONTINUOUS
 62
     7
 10
478.7008
 20
102.336099999999990
 11
478.6857
 21
102.336099999999990
  0
LINE
  8
PT3-Grafika_wekt5
  6
CONTINUOUS
 62
     7
 10
478.6857
 20
102.336099999999990
 11
478.7404
 21
102.336099999999990
  0
LINE
  8
PT3-Grafika_wekt5
  6
CONTINUOUS
 62
     7
 10
478.7404
 20
102.336099999999990
 11
478.7008
 21
102.336099999999990
  0
LINE
  8
PT3-Grafika_wekt5
  6
CONTINUOUS
 62
     7
 10
478.6857
 20
117.274499999999990
 11
478.7008
 21
117.274499999999990
  0
LINE
  8
PT3-Grafika_wekt5
  6
CONTINUOUS
 62
     7
 10
478.7008
 20
117.274499999999990
 11
478.7008
 21
118.046300000000000
  0
LINE
  8
PT3-Grafika_wekt5
  6
CONTINUOUS
 62
     7
 10
478.7008
 20
118.046300000000000
 11
478.6857
 21
118.046300000000000
  0
LINE
  8
PT3-Grafika_wekt5
  6
CONTINUOUS
 62
     7
 10
478.7008
 20
101.564300000000000
 11
478.7404
 21
101.564300000000000
  0
LINE
  8
PT3-Grafika_wekt5
  6
CONTINUOUS
 62
     7
 10
478.7404
 20
101.564300000000000
 11
478.7404
 21
102.336099999999990
  0
LINE
  8
PT3-Grafika_wekt5
  6
CONTINUOUS
 62
     7
 10
478.7404
 20
102.336099999999990
 11
478.7881
 21
102.336099999999990
  0
LINE
  8
PT3-Grafika_wekt5
  6
CONTINUOUS
 62
     7
 10
478.7881
 20
102.336099999999990
 11
478.7881
 21
101.564300000000000
  0
LINE
  8
PT3-Grafika_wekt5
  6
CONTINUOUS
 62
     7
 10
478.7881
 20
101.564300000000000
 11
478.7404
 21
101.564300000000000
  0
LINE
  8
PT3-Grafika_wekt5
  6
CONTINUOUS
 62
     7
 10
478.7008
 20
117.274499999999990
 11
478.7404
 21
117.274499999999990
  0
LINE
  8
PT3-Grafika_wekt5
  6
CONTINUOUS
 62
     7
 10
478.7404
 20
117.274499999999990
 11
478.7404
 21
118.046300000000000
  0
LINE
  8
PT3-Grafika_wekt5
  6
CONTINUOUS
 62
     7
 10
478.7404
 20
118.046300000000000
 11
478.7008
 21
118.046300000000000
  0
LINE
  8
PT3-Grafika_wekt5
  6
CONTINUOUS
 62
     7
 10
478.7404
 20
117.274499999999990
 11
478.7881
 21
117.274499999999990
  0
LINE
  8
PT3-Grafika_wekt5
  6
CONTINUOUS
 62
     7
 10
478.7881
 20
117.274499999999990
 11
478.7881
 21
118.046300000000000
  0
LINE
  8
PT3-Grafika_wekt5
  6
CONTINUOUS
 62
     7
 10
478.7881
 20
118.046300000000000
 11
478.7404
 21
118.046300000000000
  0
LINE
  8
PT3-Grafika_wekt5
  6
CONTINUOUS
 62
     7
 10
478.7881
 20
101.564300000000000
 11
478.8255
 21
101.564300000000000
  0
LINE
  8
PT3-Grafika_wekt5
  6
CONTINUOUS
 62
     7
 10
478.8255
 20
101.564300000000000
 11
478.8255
 21
102.336099999999990
  0
LINE
  8
PT3-Grafika_wekt5
  6
CONTINUOUS
 62
     7
 10
478.8255
 20
102.336099999999990
 11
478.7881
 21
102.336099999999990
  0
LINE
  8
PT3-Grafika_wekt5
  6
CONTINUOUS
 62
     7
 10
478.7881
 20
117.274499999999990
 11
478.8255
 21
117.274499999999990
  0
LINE
  8
PT3-Grafika_wekt5
  6
CONTINUOUS
 62
     7
 10
478.8255
 20
117.274499999999990
 11
478.8255
 21
118.046300000000000
  0
LINE
  8
PT3-Grafika_wekt5
  6
CONTINUOUS
 62
     7
 10
478.8255
 20
118.046300000000000
 11
478.7881
 21
118.046300000000000
  0
LINE
  8
PT3-Grafika_wekt5
  6
CONTINUOUS
 62
     7
 10
478.8255
 20
101.564300000000000
 11
478.8384
 21
101.564300000000000
  0
LINE
  8
PT3-Grafika_wekt5
  6
CONTINUOUS
 62
     7
 10
478.8384
 20
101.564300000000000
 11
478.8384
 21
102.336099999999990
  0
LINE
  8
PT3-Grafika_wekt5
  6
CONTINUOUS
 62
     7
 10
478.8384
 20
102.336099999999990
 11
478.8255
 21
102.336099999999990
  0
LINE
  8
PT3-Grafika_wekt5
  6
CONTINUOUS
 62
     7
 10
478.8255
 20
117.274499999999990
 11
478.8384
 21
117.274499999999990
  0
LINE
  8
PT3-Grafika_wekt5
  6
CONTINUOUS
 62
     7
 10
478.8384
 20
117.274499999999990
 11
478.8384
 21
118.046300000000000
  0
LINE
  8
PT3-Grafika_wekt5
  6
CONTINUOUS
 62
     7
 10
478.8384
 20
118.046300000000000
 11
478.8255
 21
118.046300000000000
  0
LINE
  8
PT3-Grafika_wekt5
  6
CONTINUOUS
 62
     7
 10
466.7168
 20
99.373199999999997
 11
466.7168
 21
121.358399999999990
  0
LINE
  8
PT3-Grafika_wekt5
  6
CONTINUOUS
 62
     7
 10
466.7168
 20
121.358200000000010
 11
467.2005
 21
120.470300000000010
  0
LINE
  8
PT3-Grafika_wekt5
  6
CONTINUOUS
 62
     7
 10
466.7168
 20
121.360000000000010
 11
467.202
 21
120.470300000000010
  0
LINE
  8
PT3-Grafika_wekt5
  6
CONTINUOUS
 62
     7
 10
467.3136
 20
99.373199999999997
 11
466.7168
 21
99.373199999999997
  0
LINE
  8
PT3-Grafika_wekt5
  6
CONTINUOUS
 62
     7
 10
467.9776
 20
120.056600000000000
 11
467.986
 21
120.056600000000000
  0
LINE
  8
PT3-Grafika_wekt5
  6
CONTINUOUS
 62
     7
 10
467.9776
 20
120.260600000000010
 11
467.986
 21
120.260600000000010
  0
LINE
  8
PT3-Grafika_wekt5
  6
CONTINUOUS
 62
     7
 10
472.0081
 20
120.056600000000000
 11
472.0159
 21
120.056600000000000
  0
LINE
  8
PT3-Grafika_wekt5
  6
CONTINUOUS
 62
     7
 10
472.0081
 20
120.260600000000010
 11
472.0159
 21
120.260600000000010
  0
LINE
  8
PT3-Grafika_wekt5
  6
CONTINUOUS
 62
     7
 10
472.7913
 20
120.260600000000010
 11
472.8593
 21
120.260600000000010
  0
LINE
  8
PT3-Grafika_wekt5
  6
CONTINUOUS
 62
     7
 10
473.7547
 20
120.056600000000000
 11
473.7652
 21
120.056600000000000
  0
LINE
  8
PT3-Grafika_wekt5
  6
CONTINUOUS
 62
     7
 10
473.7547
 20
120.260600000000010
 11
473.7652
 21
120.260600000000010
  0
LINE
  8
PT3-Grafika_wekt5
  6
CONTINUOUS
 62
     7
 10
477.7873
 20
120.056600000000000
 11
477.7904
 21
120.056600000000000
  0
LINE
  8
PT3-Grafika_wekt5
  6
CONTINUOUS
 62
     7
 10
477.7873
 20
120.260600000000010
 11
477.7904
 21
120.260600000000010
  0
LINE
  8
PT3-Grafika_wekt5
  6
CONTINUOUS
 62
     7
 10
478.6522
 20
99.373199999999997
 11
479.249
 21
99.373199999999997
  0
LINE
  8
PT3-Grafika_wekt5
  6
CONTINUOUS
 62
     7
 10
479.249
 20
99.373199999999997
 11
479.249
 21
121.359000000000010
  0
LINE
  8
PT3-Grafika_wekt5
  6
CONTINUOUS
 62
     7
 10
479.249
 20
121.359000000000010
 11
479.1573
 21
121.190599999999990
  0
LINE
  8
PT3-Grafika_wekt5
  6
CONTINUOUS
 62
     7
 10
478.6857
 20
120.319200000000000
 11
479.249
 21
121.360000000000010
  0
LINE
  8
PT3-Grafika_wekt5
  6
CONTINUOUS
 62
     7
 10
479.249
 20
121.360000000000010
 11
466.7168
 21
121.360000000000010
  0
LINE
  8
PT3-Grafika_wekt5
  6
CONTINUOUS
 62
     7
 10
479.2316
 20
121.327100000000000
 11
479.249
 21
121.359000000000010
  0
LINE
  8
PT3-Grafika_wekt5
  6
CONTINUOUS
 62
     7
 10
437.1066
 20
109.370600000000000
 11
437.1066
 21
109.670500000000000
  0
LINE
  8
PT3-Grafika_wekt5
  6
CONTINUOUS
 62
     7
 10
437.1066
 20
109.670500000000000
 11
448.6989
 21
109.670500000000000
  0
LINE
  8
PT3-Grafika_wekt5
  6
CONTINUOUS
 62
     7
 10
448.6989
 20
109.670500000000000
 11
448.6989
 21
109.370600000000000
  0
LINE
  8
PT3-Grafika_wekt5
  6
CONTINUOUS
 62
     7
 10
448.6989
 20
109.370600000000000
 11
437.1066
 21
109.370600000000000
  0
LINE
  8
PT3-Grafika_wekt5
  6
CONTINUOUS
 62
     7
 10
437.1066
 20
110.170400000000000
 11
437.3065
 21
110.370299999999990
  0
LINE
  8
PT3-Grafika_wekt5
  6
CONTINUOUS
 62
     7
 10
437.3065
 20
110.370299999999990
 11
437.3065
 21
128.665500000000010
  0
LINE
  8
PT3-Grafika_wekt5
  6
CONTINUOUS
 62
     7
 10
437.3065
 20
128.665500000000010
 11
437.1066
 21
128.865399999999990
  0
LINE
  8
PT3-Grafika_wekt5
  6
CONTINUOUS
 62
     7
 10
437.3065
 20
110.370299999999990
 11
448.499
 21
110.370299999999990
  0
LINE
  8
PT3-Grafika_wekt5
  6
CONTINUOUS
 62
     7
 10
448.499
 20
110.370299999999990
 11
448.499
 21
121.667300000000010
  0
LINE
  8
PT3-Grafika_wekt5
  6
CONTINUOUS
 62
     7
 10
448.499
 20
121.667300000000010
 11
437.3065
 21
121.667300000000010
  0
LINE
  8
PT3-Grafika_wekt5
  6
CONTINUOUS
 62
     7
 10
437.3065
 20
122.367099999999990
 11
448.499
 21
122.367099999999990
  0
LINE
  8
PT3-Grafika_wekt5
  6
CONTINUOUS
 62
     7
 10
448.499
 20
122.367099999999990
 11
448.499
 21
128.665500000000010
  0
LINE
  8
PT3-Grafika_wekt5
  6
CONTINUOUS
 62
     7
 10
448.499
 20
128.665500000000010
 11
437.3065
 21
128.665500000000010
  0
LINE
  8
PT3-Grafika_wekt5
  6
CONTINUOUS
 62
     7
 10
448.499
 20
110.370299999999990
 11
448.499
 21
128.665500000000010
  0
LINE
  8
PT3-Grafika_wekt5
  6
CONTINUOUS
 62
     7
 10
448.499
 20
128.665500000000010
 11
448.6989
 21
128.865399999999990
  0
LINE
  8
PT3-Grafika_wekt5
  6
CONTINUOUS
 62
     7
 10
448.6989
 20
110.170400000000000
 11
448.499
 21
110.370299999999990
  0
LINE
  8
PT3-Grafika_wekt5
  6
CONTINUOUS
 62
     7
 10
466.9307
 20
101.565100000000000
 11
466.9307
 21
102.336900000000010
  0
LINE
  8
PT3-Grafika_wekt5
  6
CONTINUOUS
 62
     7
 10
466.9307
 20
102.336900000000010
 11
466.9471
 21
102.336900000000010
  0
LINE
  8
PT3-Grafika_wekt5
  6
CONTINUOUS
 62
     7
 10
466.9471
 20
102.336900000000010
 11
466.9471
 21
101.565100000000000
  0
LINE
  8
PT3-Grafika_wekt5
  6
CONTINUOUS
 62
     7
 10
466.9471
 20
101.565100000000000
 11
466.9307
 21
101.565100000000000
  0
LINE
  8
PT3-Grafika_wekt5
  6
CONTINUOUS
 62
     7
 10
466.9307
 20
102.336900000000010
 11
466.9867
 21
102.336900000000010
  0
LINE
  8
PT3-Grafika_wekt5
  6
CONTINUOUS
 62
     7
 10
466.9867
 20
102.336900000000010
 11
466.9471
 21
102.336900000000010
  0
LINE
  8
PT3-Grafika_wekt5
  6
CONTINUOUS
 62
     7
 10
466.9307
 20
117.275299999999990
 11
466.9307
 21
118.047100000000000
  0
LINE
  8
PT3-Grafika_wekt5
  6
CONTINUOUS
 62
     7
 10
466.9307
 20
118.047100000000000
 11
466.9471
 21
118.047100000000000
  0
LINE
  8
PT3-Grafika_wekt5
  6
CONTINUOUS
 62
     7
 10
466.9471
 20
118.047100000000000
 11
466.9471
 21
117.275299999999990
  0
LINE
  8
PT3-Grafika_wekt5
  6
CONTINUOUS
 62
     7
 10
466.9471
 20
117.275299999999990
 11
466.9307
 21
117.275299999999990
  0
LINE
  8
PT3-Grafika_wekt5
  6
CONTINUOUS
 62
     7
 10
466.9471
 20
101.565100000000000
 11
466.9867
 21
101.565100000000000
  0
LINE
  8
PT3-Grafika_wekt5
  6
CONTINUOUS
 62
     7
 10
466.9867
 20
101.565100000000000
 11
466.9867
 21
102.336900000000010
  0
LINE
  8
PT3-Grafika_wekt5
  6
CONTINUOUS
 62
     7
 10
466.9867
 20
102.336900000000010
 11
467.0344
 21
102.336900000000010
  0
LINE
  8
PT3-Grafika_wekt5
  6
CONTINUOUS
 62
     7
 10
467.0344
 20
102.336900000000010
 11
467.0344
 21
101.565100000000000
  0
LINE
  8
PT3-Grafika_wekt5
  6
CONTINUOUS
 62
     7
 10
467.0344
 20
101.565100000000000
 11
466.9867
 21
101.565100000000000
  0
LINE
  8
PT3-Grafika_wekt5
  6
CONTINUOUS
 62
     7
 10
466.9471
 20
117.275299999999990
 11
466.9867
 21
117.275299999999990
  0
LINE
  8
PT3-Grafika_wekt5
  6
CONTINUOUS
 62
     7
 10
466.9867
 20
117.275299999999990
 11
466.9867
 21
118.047100000000000
  0
LINE
  8
PT3-Grafika_wekt5
  6
CONTINUOUS
 62
     7
 10
466.9867
 20
118.047100000000000
 11
466.9471
 21
118.047100000000000
  0
LINE
  8
PT3-Grafika_wekt5
  6
CONTINUOUS
 62
     7
 10
466.9867
 20
117.275299999999990
 11
467.0344
 21
117.275299999999990
  0
LINE
  8
PT3-Grafika_wekt5
  6
CONTINUOUS
 62
     7
 10
467.0344
 20
117.275299999999990
 11
467.0344
 21
118.047100000000000
  0
LINE
  8
PT3-Grafika_wekt5
  6
CONTINUOUS
 62
     7
 10
467.0344
 20
118.047100000000000
 11
466.9867
 21
118.047100000000000
  0
LINE
  8
PT3-Grafika_wekt5
  6
CONTINUOUS
 62
     7
 10
467.0344
 20
101.565100000000000
 11
467.0718
 21
101.565100000000000
  0
LINE
  8
PT3-Grafika_wekt5
  6
CONTINUOUS
 62
     7
 10
467.0718
 20
101.565100000000000
 11
467.0718
 21
102.336900000000010
  0
LINE
  8
PT3-Grafika_wekt5
  6
CONTINUOUS
 62
     7
 10
467.0718
 20
102.336900000000010
 11
467.0344
 21
102.336900000000010
  0
LINE
  8
PT3-Grafika_wekt5
  6
CONTINUOUS
 62
     7
 10
467.0344
 20
117.275299999999990
 11
467.0718
 21
117.275299999999990
  0
LINE
  8
PT3-Grafika_wekt5
  6
CONTINUOUS
 62
     7
 10
467.0718
 20
117.275299999999990
 11
467.0718
 21
118.047100000000000
  0
LINE
  8
PT3-Grafika_wekt5
  6
CONTINUOUS
 62
     7
 10
467.0718
 20
118.047100000000000
 11
467.0344
 21
118.047100000000000
  0
LINE
  8
PT3-Grafika_wekt5
  6
CONTINUOUS
 62
     7
 10
467.0718
 20
101.565100000000000
 11
467.0822
 21
101.565100000000000
  0
LINE
  8
PT3-Grafika_wekt5
  6
CONTINUOUS
 62
     7
 10
467.0718
 20
102.336900000000010
 11
467.0822
 21
102.336900000000010
  0
LINE
  8
PT3-Grafika_wekt5
  6
CONTINUOUS
 62
     7
 10
467.0718
 20
117.275299999999990
 11
467.0822
 21
117.275299999999990
  0
LINE
  8
PT3-Grafika_wekt5
  6
CONTINUOUS
 62
     7
 10
467.0718
 20
118.047100000000000
 11
467.0822
 21
118.047100000000000
  0
LINE
  8
PT3-Grafika_wekt5
  6
CONTINUOUS
 62
     7
 10
467.0822
 20
99.373199999999997
 11
467.0822
 21
120.470300000000010
  0
LINE
  8
PT3-Grafika_wekt5
  6
CONTINUOUS
 62
     7
 10
467.0822
 20
120.470300000000010
 11
467.9773
 21
120.470300000000010
  0
LINE
  8
PT3-Grafika_wekt5
  6
CONTINUOUS
 62
     7
 10
467.9773
 20
120.470300000000010
 11
467.9773
 21
118.904699999999990
  0
LINE
  8
PT3-Grafika_wekt5
  6
CONTINUOUS
 62
     7
 10
467.9249
 20
103.993400000000010
 11
467.9249
 21
118.679900000000000
  0
LINE
  8
PT3-Grafika_wekt5
  6
CONTINUOUS
 62
     7
 10
467.9249
 20
118.679900000000000
 11
468.0452
 21
118.679900000000000
  0
LINE
  8
PT3-Grafika_wekt5
  6
CONTINUOUS
 62
     7
 10
468.0452
 20
118.679900000000000
 11
468.0452
 21
103.994699999999990
  0
LINE
  8
PT3-Grafika_wekt5
  6
CONTINUOUS
 62
     7
 10
467.925
 20
103.770500000000000
 11
467.925
 21
103.994699999999990
  0
LINE
  8
PT3-Grafika_wekt5
  6
CONTINUOUS
 62
     7
 10
467.925
 20
103.994699999999990
 11
472.0724
 21
103.994699999999990
  0
LINE
  8
PT3-Grafika_wekt5
  6
CONTINUOUS
 62
     7
 10
472.0724
 20
103.994699999999990
 11
472.0724
 21
103.770500000000000
  0
LINE
  8
PT3-Grafika_wekt5
  6
CONTINUOUS
 62
     7
 10
472.0724
 20
103.770500000000000
 11
467.925
 21
103.770500000000000
  0
LINE
  8
PT3-Grafika_wekt5
  6
CONTINUOUS
 62
     7
 10
467.925
 20
103.993400000000010
 11
467.9249
 21
103.993400000000010
  0
LINE
  8
PT3-Grafika_wekt5
  6
CONTINUOUS
 62
     7
 10
467.925
 20
118.680700000000000
 11
467.925
 21
118.904699999999990
  0
LINE
  8
PT3-Grafika_wekt5
  6
CONTINUOUS
 62
     7
 10
467.925
 20
118.904699999999990
 11
472.0724
 21
118.904699999999990
  0
LINE
  8
PT3-Grafika_wekt5
  6
CONTINUOUS
 62
     7
 10
472.0724
 20
118.904699999999990
 11
472.0724
 21
118.680700000000000
  0
LINE
  8
PT3-Grafika_wekt5
  6
CONTINUOUS
 62
     7
 10
472.0724
 20
118.680700000000000
 11
467.925
 21
118.680700000000000
  0
LINE
  8
PT3-Grafika_wekt5
  6
CONTINUOUS
 62
     7
 10
467.9773
 20
99.373199999999997
 11
467.0822
 21
99.373199999999997
  0
LINE
  8
PT3-Grafika_wekt5
  6
CONTINUOUS
 62
     7
 10
467.9773
 20
103.770500000000000
 11
467.9773
 21
99.373199999999997
  0
LINE
  8
PT3-Grafika_wekt5
  6
CONTINUOUS
 62
     7
 10
467.9773
 20
118.679900000000000
 11
467.9773
 21
118.680700000000000
  0
LINE
  8
PT3-Grafika_wekt5
  6
CONTINUOUS
 62
     7
 10
467.9773
 20
120.470300000000010
 11
467.9776
 21
120.225300000000000
  0
LINE
  8
PT3-Grafika_wekt5
  6
CONTINUOUS
 62
     7
 10
467.9776
 20
120.225300000000000
 11
467.9776
 21
118.904699999999990
  0
LINE
  8
PT3-Grafika_wekt5
  6
CONTINUOUS
 62
     7
 10
467.9776
 20
99.373700000000014
 11
467.9776
 21
103.770500000000000
  0
LINE
  8
PT3-Grafika_wekt5
  6
CONTINUOUS
 62
     7
 10
467.9776
 20
118.679900000000000
 11
467.9776
 21
118.680700000000000
  0
LINE
  8
PT3-Grafika_wekt5
  6
CONTINUOUS
 62
     7
 10
467.9834
 20
99.378199999999993
 11
467.9834
 21
103.770500000000000
  0
LINE
  8
PT3-Grafika_wekt5
  6
CONTINUOUS
 62
     7
 10
467.986
 20
118.904699999999990
 11
467.986
 21
120.468799999999990
  0
LINE
  8
PT3-Grafika_wekt5
  6
CONTINUOUS
 62
     7
 10
467.986
 20
120.468799999999990
 11
472.0081
 21
120.468799999999990
  0
LINE
  8
PT3-Grafika_wekt5
  6
CONTINUOUS
 62
     7
 10
472.0081
 20
120.468799999999990
 11
472.0081
 21
118.904699999999990
  0
LINE
  8
PT3-Grafika_wekt5
  6
CONTINUOUS
 62
     7
 10
468.0262
 20
118.679900000000000
 11
468.0262
 21
118.680700000000000
  0
LINE
  8
PT3-Grafika_wekt5
  6
CONTINUOUS
 62
     7
 10
471.9521
 20
103.994699999999990
 11
471.9521
 21
118.679900000000000
  0
LINE
  8
PT3-Grafika_wekt5
  6
CONTINUOUS
 62
     7
 10
471.9521
 20
118.679900000000000
 11
472.0724
 21
118.679900000000000
  0
LINE
  8
PT3-Grafika_wekt5
  6
CONTINUOUS
 62
     7
 10
472.0724
 20
118.679900000000000
 11
472.0724
 21
103.994699999999990
  0
LINE
  8
PT3-Grafika_wekt5
  6
CONTINUOUS
 62
     7
 10
471.9681
 20
118.679900000000000
 11
471.9681
 21
118.680700000000000
  0
LINE
  8
PT3-Grafika_wekt5
  6
CONTINUOUS
 62
     7
 10
472.0135
 20
99.378199999999993
 11
467.9834
 21
99.378199999999993
  0
LINE
  8
PT3-Grafika_wekt5
  6
CONTINUOUS
 62
     7
 10
472.0135
 20
103.770500000000000
 11
472.0135
 21
99.378199999999993
  0
LINE
  8
PT3-Grafika_wekt5
  6
CONTINUOUS
 62
     7
 10
472.0159
 20
99.377000000000010
 11
472.0159
 21
103.770500000000000
  0
LINE
  8
PT3-Grafika_wekt5
  6
CONTINUOUS
 62
     7
 10
472.0159
 20
99.377000000000010
 11
472.7913
 21
99.377000000000010
  0
LINE
  8
PT3-Grafika_wekt5
  6
CONTINUOUS
 62
     7
 10
472.7913
 20
99.377000000000010
 11
472.7913
 21
120.475200000000000
  0
LINE
  8
PT3-Grafika_wekt5
  6
CONTINUOUS
 62
     7
 10
472.7913
 20
120.475200000000000
 11
472.0159
 21
120.474099999999990
  0
LINE
  8
PT3-Grafika_wekt5
  6
CONTINUOUS
 62
     7
 10
472.0159
 20
120.474099999999990
 11
472.0159
 21
118.904699999999990
  0
LINE
  8
PT3-Grafika_wekt5
  6
CONTINUOUS
 62
     7
 10
472.0159
 20
118.679900000000000
 11
472.0159
 21
118.680700000000000
  0
LINE
  8
PT3-Grafika_wekt5
  6
CONTINUOUS
 62
     7
 10
472.0162
 20
99.376399999999990
 11
472.0159
 21
99.377000000000010
  0
LINE
  8
PT3-Grafika_wekt5
  6
CONTINUOUS
 62
     7
 10
472.7913
 20
99.377000000000010
 11
472.9113
 21
99.376399999999990
  0
LINE
  8
PT3-Grafika_wekt5
  6
CONTINUOUS
 62
     7
 10
472.9113
 20
99.376399999999990
 11
472.0162
 21
99.376399999999990
  0
LINE
  8
PT3-Grafika_wekt5
  6
CONTINUOUS
 62
     7
 10
472.9113
 20
99.376399999999990
 11
472.9113
 21
99.376900000000006
  0
LINE
  8
PT3-Grafika_wekt5
  6
CONTINUOUS
 62
     7
 10
312.2357
 20
101.565100000000000
 11
312.2357
 21
102.336900000000010
  0
LINE
  8
PT3-Grafika_wekt5
  6
CONTINUOUS
 62
     7
 10
312.2357
 20
102.336900000000010
 11
312.2587
 21
102.336900000000010
  0
LINE
  8
PT3-Grafika_wekt5
  6
CONTINUOUS
 62
     7
 10
312.2587
 20
102.336900000000010
 11
312.2587
 21
101.565100000000000
  0
LINE
  8
PT3-Grafika_wekt5
  6
CONTINUOUS
 62
     7
 10
312.2587
 20
101.565100000000000
 11
312.2357
 21
101.565100000000000
  0
LINE
  8
PT3-Grafika_wekt5
  6
CONTINUOUS
 62
     7
 10
312.2357
 20
102.336900000000010
 11
312.3141
 21
102.336900000000010
  0
LINE
  8
PT3-Grafika_wekt5
  6
CONTINUOUS
 62
     7
 10
312.3141
 20
102.336900000000010
 11
312.2587
 21
102.336900000000010
  0
LINE
  8
PT3-Grafika_wekt5
  6
CONTINUOUS
 62
     7
 10
312.2357
 20
117.275299999999990
 11
312.2357
 21
118.047100000000000
  0
LINE
  8
PT3-Grafika_wekt5
  6
CONTINUOUS
 62
     7
 10
312.2357
 20
118.047100000000000
 11
312.2587
 21
118.047100000000000
  0
LINE
  8
PT3-Grafika_wekt5
  6
CONTINUOUS
 62
     7
 10
312.2587
 20
118.047100000000000
 11
312.2587
 21
117.275299999999990
  0
LINE
  8
PT3-Grafika_wekt5
  6
CONTINUOUS
 62
     7
 10
312.2587
 20
117.275299999999990
 11
312.2357
 21
117.275299999999990
  0
LINE
  8
PT3-Grafika_wekt5
  6
CONTINUOUS
 62
     7
 10
312.2587
 20
101.565100000000000
 11
312.3141
 21
101.565100000000000
  0
LINE
  8
PT3-Grafika_wekt5
  6
CONTINUOUS
 62
     7
 10
312.3141
 20
101.565100000000000
 11
312.3141
 21
102.336900000000010
  0
LINE
  8
PT3-Grafika_wekt5
  6
CONTINUOUS
 62
     7
 10
312.3141
 20
102.336900000000010
 11
312.3808
 21
102.336900000000010
  0
LINE
  8
PT3-Grafika_wekt5
  6
CONTINUOUS
 62
     7
 10
312.3808
 20
102.336900000000010
 11
312.3808
 21
101.565100000000000
  0
LINE
  8
PT3-Grafika_wekt5
  6
CONTINUOUS
 62
     7
 10
312.3808
 20
101.565100000000000
 11
312.3141
 21
101.565100000000000
  0
LINE
  8
PT3-Grafika_wekt5
  6
CONTINUOUS
 62
     7
 10
312.2587
 20
117.275299999999990
 11
312.3141
 21
117.275299999999990
  0
LINE
  8
PT3-Grafika_wekt5
  6
CONTINUOUS
 62
     7
 10
312.3141
 20
117.275299999999990
 11
312.3141
 21
118.047100000000000
  0
LINE
  8
PT3-Grafika_wekt5
  6
CONTINUOUS
 62
     7
 10
312.3141
 20
118.047100000000000
 11
312.2587
 21
118.047100000000000
  0
LINE
  8
PT3-Grafika_wekt5
  6
CONTINUOUS
 62
     7
 10
312.3141
 20
117.275299999999990
 11
312.3808
 21
117.275299999999990
  0
LINE
  8
PT3-Grafika_wekt5
  6
CONTINUOUS
 62
     7
 10
312.3808
 20
117.275299999999990
 11
312.3808
 21
118.047100000000000
  0
LINE
  8
PT3-Grafika_wekt5
  6
CONTINUOUS
 62
     7
 10
312.3808
 20
118.047100000000000
 11
312.3141
 21
118.047100000000000
  0
LINE
  8
PT3-Grafika_wekt5
  6
CONTINUOUS
 62
     7
 10
312.3808
 20
101.565100000000000
 11
312.4332
 21
101.565100000000000
  0
LINE
  8
PT3-Grafika_wekt5
  6
CONTINUOUS
 62
     7
 10
312.4332
 20
101.565100000000000
 11
312.4332
 21
102.336900000000010
  0
LINE
  8
PT3-Grafika_wekt5
  6
CONTINUOUS
 62
     7
 10
312.4332
 20
102.336900000000010
 11
312.3808
 21
102.336900000000010
  0
LINE
  8
PT3-Grafika_wekt5
  6
CONTINUOUS
 62
     7
 10
312.3808
 20
117.275299999999990
 11
312.4332
 21
117.275299999999990
  0
LINE
  8
PT3-Grafika_wekt5
  6
CONTINUOUS
 62
     7
 10
312.4332
 20
117.275299999999990
 11
312.4332
 21
118.047100000000000
  0
LINE
  8
PT3-Grafika_wekt5
  6
CONTINUOUS
 62
     7
 10
312.4332
 20
118.047100000000000
 11
312.3808
 21
118.047100000000000
  0
LINE
  8
PT3-Grafika_wekt5
  6
CONTINUOUS
 62
     7
 10
312.4332
 20
101.565100000000000
 11
312.4478
 21
101.565100000000000
  0
LINE
  8
PT3-Grafika_wekt5
  6
CONTINUOUS
 62
     7
 10
312.4332
 20
102.336900000000010
 11
312.4478
 21
102.336900000000010
  0
LINE
  8
PT3-Grafika_wekt5
  6
CONTINUOUS
 62
     7
 10
312.4332
 20
117.275299999999990
 11
312.4478
 21
117.275299999999990
  0
LINE
  8
PT3-Grafika_wekt5
  6
CONTINUOUS
 62
     7
 10
312.4332
 20
118.047100000000000
 11
312.4478
 21
118.047100000000000
  0
LINE
  8
PT3-Grafika_wekt5
  6
CONTINUOUS
 62
     7
 10
312.4478
 20
99.373199999999997
 11
312.4478
 21
120.470300000000010
  0
LINE
  8
PT3-Grafika_wekt5
  6
CONTINUOUS
 62
     7
 10
312.4478
 20
120.470300000000010
 11
313.701
 21
120.470300000000010
  0
LINE
  8
PT3-Grafika_wekt5
  6
CONTINUOUS
 62
     7
 10
313.701
 20
120.470300000000010
 11
313.701
 21
118.904699999999990
  0
LINE
  8
PT3-Grafika_wekt5
  6
CONTINUOUS
 62
     7
 10
313.6276
 20
103.993400000000010
 11
313.6276
 21
118.679900000000000
  0
LINE
  8
PT3-Grafika_wekt5
  6
CONTINUOUS
 62
     7
 10
313.6276
 20
118.679900000000000
 11
313.7959
 21
118.679900000000000
  0
LINE
  8
PT3-Grafika_wekt5
  6
CONTINUOUS
 62
     7
 10
313.7959
 20
118.679900000000000
 11
313.7959
 21
103.994699999999990
  0
LINE
  8
PT3-Grafika_wekt5
  6
CONTINUOUS
 62
     7
 10
313.6277
 20
103.770500000000000
 11
313.6277
 21
103.994699999999990
  0
LINE
  8
PT3-Grafika_wekt5
  6
CONTINUOUS
 62
     7
 10
313.6277
 20
103.994699999999990
 11
319.4341
 21
103.994699999999990
  0
LINE
  8
PT3-Grafika_wekt5
  6
CONTINUOUS
 62
     7
 10
319.4341
 20
103.994699999999990
 11
319.4341
 21
103.770500000000000
  0
LINE
  8
PT3-Grafika_wekt5
  6
CONTINUOUS
 62
     7
 10
319.4341
 20
103.770500000000000
 11
313.6277
 21
103.770500000000000
  0
LINE
  8
PT3-Grafika_wekt5
  6
CONTINUOUS
 62
     7
 10
313.6277
 20
103.993400000000010
 11
313.6276
 21
103.993400000000010
  0
LINE
  8
PT3-Grafika_wekt5
  6
CONTINUOUS
 62
     7
 10
313.6277
 20
118.680700000000000
 11
313.6277
 21
118.904699999999990
  0
LINE
  8
PT3-Grafika_wekt5
  6
CONTINUOUS
 62
     7
 10
313.6277
 20
118.904699999999990
 11
319.4341
 21
118.904699999999990
  0
LINE
  8
PT3-Grafika_wekt5
  6
CONTINUOUS
 62
     7
 10
319.4341
 20
118.904699999999990
 11
319.4341
 21
118.680700000000000
  0
LINE
  8
PT3-Grafika_wekt5
  6
CONTINUOUS
 62
     7
 10
319.4341
 20
118.680700000000000
 11
313.6277
 21
118.680700000000000
  0
LINE
  8
PT3-Grafika_wekt5
  6
CONTINUOUS
 62
     7
 10
313.701
 20
99.373199999999997
 11
313.701
 21
103.770500000000000
  0
LINE
  8
PT3-Grafika_wekt5
  6
CONTINUOUS
 62
     7
 10
313.701
 20
118.679900000000000
 11
313.701
 21
118.680700000000000
  0
LINE
  8
PT3-Grafika_wekt5
  6
CONTINUOUS
 62
     7
 10
313.701
 20
120.470300000000010
 11
313.7014
 21
120.225300000000000
  0
LINE
  8
PT3-Grafika_wekt5
  6
CONTINUOUS
 62
     7
 10
313.7013
 20
103.770500000000000
 11
313.7014
 21
99.373700000000014
  0
LINE
  8
PT3-Grafika_wekt5
  6
CONTINUOUS
 62
     7
 10
313.7095
 20
99.378199999999993
 11
313.7095
 21
103.770500000000000
  0
LINE
  8
PT3-Grafika_wekt5
  6
CONTINUOUS
 62
     7
 10
313.713
 20
118.904699999999990
 11
313.713
 21
120.468799999999990
  0
LINE
  8
PT3-Grafika_wekt5
  6
CONTINUOUS
 62
     7
 10
313.713
 20
120.468799999999990
 11
319.344
 21
120.468799999999990
  0
LINE
  8
PT3-Grafika_wekt5
  6
CONTINUOUS
 62
     7
 10
319.344
 20
120.468799999999990
 11
319.344
 21
118.904699999999990
  0
LINE
  8
PT3-Grafika_wekt5
  6
CONTINUOUS
 62
     7
 10
313.7694
 20
118.679900000000000
 11
313.7694
 21
118.680700000000000
  0
LINE
  8
PT3-Grafika_wekt5
  6
CONTINUOUS
 62
     7
 10
319.2656
 20
103.994699999999990
 11
319.2656
 21
118.679900000000000
  0
LINE
  8
PT3-Grafika_wekt5
  6
CONTINUOUS
 62
     7
 10
319.2656
 20
118.679900000000000
 11
319.434
 21
118.679900000000000
  0
LINE
  8
PT3-Grafika_wekt5
  6
CONTINUOUS
 62
     7
 10
319.434
 20
118.679900000000000
 11
319.434
 21
103.994699999999990
  0
LINE
  8
PT3-Grafika_wekt5
  6
CONTINUOUS
 62
     7
 10
319.2879
 20
118.679900000000000
 11
319.2879
 21
118.680700000000000
  0
LINE
  8
PT3-Grafika_wekt5
  6
CONTINUOUS
 62
     7
 10
319.3516
 20
99.378199999999993
 11
313.7095
 21
99.378199999999993
  0
LINE
  8
PT3-Grafika_wekt5
  6
CONTINUOUS
 62
     7
 10
319.3516
 20
103.770500000000000
 11
319.3516
 21
99.378199999999993
  0
LINE
  8
PT3-Grafika_wekt5
  6
CONTINUOUS
 62
     7
 10
319.355
 20
99.377000000000010
 11
319.355
 21
103.770500000000000
  0
LINE
  8
PT3-Grafika_wekt5
  6
CONTINUOUS
 62
     7
 10
319.355
 20
99.377000000000010
 11
320.4406
 21
99.377000000000010
  0
LINE
  8
PT3-Grafika_wekt5
  6
CONTINUOUS
 62
     7
 10
320.4406
 20
99.377000000000010
 11
320.4406
 21
120.475200000000000
  0
LINE
  8
PT3-Grafika_wekt5
  6
CONTINUOUS
 62
     7
 10
320.4406
 20
120.475200000000000
 11
319.355
 21
120.474099999999990
  0
LINE
  8
PT3-Grafika_wekt5
  6
CONTINUOUS
 62
     7
 10
319.355
 20
120.474099999999990
 11
319.355
 21
118.904699999999990
  0
LINE
  8
PT3-Grafika_wekt5
  6
CONTINUOUS
 62
     7
 10
319.355
 20
118.679900000000000
 11
319.355
 21
118.680700000000000
  0
LINE
  8
PT3-Grafika_wekt5
  6
CONTINUOUS
 62
     7
 10
319.3553
 20
99.376399999999990
 11
319.355
 21
99.377000000000010
  0
LINE
  8
PT3-Grafika_wekt5
  6
CONTINUOUS
 62
     7
 10
320.4406
 20
99.377000000000010
 11
320.6086
 21
99.376399999999990
  0
LINE
  8
PT3-Grafika_wekt5
  6
CONTINUOUS
 62
     7
 10
320.6086
 20
99.376399999999990
 11
319.3553
 21
99.376399999999990
  0
LINE
  8
PT3-Grafika_wekt5
  6
CONTINUOUS
 62
     7
 10
320.6086
 20
99.376399999999990
 11
320.6086
 21
99.376900000000006
  0
LINE
  8
PT3-Grafika_wekt5
  6
CONTINUOUS
 62
     7
 10
320.5358
 20
99.376900000000006
 11
320.5358
 21
120.474400000000000
  0
LINE
  8
PT3-Grafika_wekt5
  6
CONTINUOUS
 62
     7
 10
320.5358
 20
120.474400000000000
 11
321.789
 21
120.474400000000000
  0
LINE
  8
PT3-Grafika_wekt5
  6
CONTINUOUS
 62
     7
 10
321.789
 20
120.474400000000000
 11
321.789
 21
118.903899999999990
  0
LINE
  8
PT3-Grafika_wekt5
  6
CONTINUOUS
 62
     7
 10
321.0019
 20
109.279200000000000
 11
321.0019
 21
111.459800000000000
  0
LINE
  8
PT3-Grafika_wekt5
  6
CONTINUOUS
 62
     7
 10
321.0019
 20
111.459800000000000
 11
321.0452
 21
111.556099999999990
  0
LINE
  8
PT3-Grafika_wekt5
  6
CONTINUOUS
 62
     7
 10
321.0452
 20
111.556099999999990
 11
321.1229
 21
111.604199999999990
  0
LINE
  8
PT3-Grafika_wekt5
  6
CONTINUOUS
 62
     7
 10
321.1229
 20
111.604199999999990
 11
321.2122
 21
111.604199999999990
  0
LINE
  8
PT3-Grafika_wekt5
  6
CONTINUOUS
 62
     7
 10
321.0452
 20
109.182899999999990
 11
321.0019
 21
109.279200000000000
  0
LINE
  8
PT3-Grafika_wekt5
  6
CONTINUOUS
 62
     7
 10
321.0647
 20
110.799399999999990
 11
321.1112
 21
110.708400000000010
  0
LINE
  8
PT3-Grafika_wekt5
  6
CONTINUOUS
 62
     7
 10
321.1112
 20
110.708400000000010
 11
321.2038
 21
110.701100000000000
  0
LINE
  8
PT3-Grafika_wekt5
  6
CONTINUOUS
 62
     7
 10
321.2038
 20
110.701100000000000
 11
321.2064
 21
110.701100000000000
  0
LINE
  8
PT3-Grafika_wekt5
  6
CONTINUOUS
 62
     7
 10
321.2064
 20
110.701100000000000
 11
321.1121
 21
110.708400000000010
  0
LINE
  8
PT3-Grafika_wekt5
  6
CONTINUOUS
 62
     7
 10
321.1121
 20
110.708400000000010
 11
321.0647
 21
110.799399999999990
  0
LINE
  8
PT3-Grafika_wekt5
  6
CONTINUOUS
 62
     7
 10
321.0647
 20
110.799399999999990
 11
321.114
 21
110.938199999999990
  0
LINE
  8
PT3-Grafika_wekt5
  6
CONTINUOUS
 62
     7
 10
321.114
 20
110.938199999999990
 11
321.4057
 21
110.972000000000010
  0
LINE
  8
PT3-Grafika_wekt5
  6
CONTINUOUS
 62
     7
 10
321.4057
 20
110.972000000000010
 11
321.6437
 21
110.984199999999990
  0
LINE
  8
PT3-Grafika_wekt5
  6
CONTINUOUS
 62
     7
 10
321.6437
 20
110.984199999999990
 11
321.653
 21
110.984199999999990
  0
LINE
  8
PT3-Grafika_wekt5
  6
CONTINUOUS
 62
     7
 10
321.653
 20
110.984199999999990
 11
321.4117
 21
110.972000000000010
  0
LINE
  8
PT3-Grafika_wekt5
  6
CONTINUOUS
 62
     7
 10
321.4117
 20
110.972000000000010
 11
321.1149
 21
110.938199999999990
  0
LINE
  8
PT3-Grafika_wekt5
  6
CONTINUOUS
 62
     7
 10
321.1149
 20
110.938199999999990
 11
321.0647
 21
110.799399999999990
  0
LINE
  8
PT3-Grafika_wekt5
  6
CONTINUOUS
 62
     7
 10
321.1229
 20
109.134800000000010
 11
321.0452
 21
109.182899999999990
  0
LINE
  8
PT3-Grafika_wekt5
  6
CONTINUOUS
 62
     7
 10
321.1379
 20
109.822300000000010
 11
321.1379
 21
110.056199999999990
  0
LINE
  8
PT3-Grafika_wekt5
  6
CONTINUOUS
 62
     7
 10
321.1379
 20
110.056199999999990
 11
321.204
 21
110.056199999999990
  0
LINE
  8
PT3-Grafika_wekt5
  6
CONTINUOUS
 62
     7
 10
321.204
 20
109.822300000000010
 11
321.1379
 21
109.822300000000010
  0
LINE
  8
PT3-Grafika_wekt5
  6
CONTINUOUS
 62
     7
 10
321.2064
 20
110.701100000000000
 11
321.2972
 21
110.813099999999990
  0
LINE
  8
PT3-Grafika_wekt5
  6
CONTINUOUS
 62
     7
 10
321.2972
 20
110.813099999999990
 11
321.6088
 21
110.780100000000000
  0
LINE
  8
PT3-Grafika_wekt5
  6
CONTINUOUS
 62
     7
 10
321.6088
 20
110.780100000000000
 11
321.8073
 21
110.768000000000000
  0
LINE
  8
PT3-Grafika_wekt5
  6
CONTINUOUS
 62
     7
 10
321.8073
 20
110.768000000000000
 11
321.7962
 21
110.768000000000000
  0
LINE
  8
PT3-Grafika_wekt5
  6
CONTINUOUS
 62
     7
 10
321.7962
 20
110.768000000000000
 11
321.6001
 21
110.780100000000000
  0
LINE
  8
PT3-Grafika_wekt5
  6
CONTINUOUS
 62
     7
 10
321.6001
 20
110.780100000000000
 11
321.2969
 21
110.812700000000010
  0
LINE
  8
PT3-Grafika_wekt5
  6
CONTINUOUS
 62
     7
 10
321.2122
 20
109.134800000000010
 11
321.1229
 21
109.134800000000010
  0
LINE
  8
PT3-Grafika_wekt5
  6
CONTINUOUS
 62
     7
 10
321.653
 20
110.984199999999990
 11
321.9184
 21
110.973500000000000
  0
LINE
  8
PT3-Grafika_wekt5
  6
CONTINUOUS
 62
     7
 10
321.9184
 20
110.973500000000000
 11
322.2861
 21
110.938199999999990
  0
LINE
  8
PT3-Grafika_wekt5
  6
CONTINUOUS
 62
     7
 10
322.2861
 20
110.938199999999990
 11
322.3132
 21
110.917300000000010
  0
LINE
  8
PT3-Grafika_wekt5
  6
CONTINUOUS
 62
     7
 10
322.3132
 20
110.917300000000010
 11
322.3223
 21
110.875699999999990
  0
LINE
  8
PT3-Grafika_wekt5
  6
CONTINUOUS
 62
     7
 10
322.3223
 20
110.875699999999990
 11
322.3132
 21
110.834200000000010
  0
LINE
  8
PT3-Grafika_wekt5
  6
CONTINUOUS
 62
     7
 10
322.3132
 20
110.834200000000010
 11
322.2861
 21
110.813099999999990
  0
LINE
  8
PT3-Grafika_wekt5
  6
CONTINUOUS
 62
     7
 10
322.2861
 20
110.813099999999990
 11
321.9982
 21
110.778500000000010
  0
LINE
  8
PT3-Grafika_wekt5
  6
CONTINUOUS
 62
     7
 10
321.9982
 20
110.778500000000010
 11
321.8073
 21
110.768000000000000
  0
LINE
  8
PT3-Grafika_wekt5
  6
CONTINUOUS
 62
     7
 10
321.7221
 20
103.770999999999990
 11
321.7221
 21
103.995100000000010
  0
LINE
  8
PT3-Grafika_wekt5
  6
CONTINUOUS
 62
     7
 10
321.7221
 20
103.995100000000010
 11
327.5286
 21
103.995100000000010
  0
LINE
  8
PT3-Grafika_wekt5
  6
CONTINUOUS
 62
     7
 10
327.5286
 20
103.995100000000010
 11
327.5286
 21
103.770999999999990
  0
LINE
  8
PT3-Grafika_wekt5
  6
CONTINUOUS
 62
     7
 10
327.5286
 20
103.770999999999990
 11
321.7221
 21
103.770999999999990
  0
LINE
  8
PT3-Grafika_wekt5
  6
CONTINUOUS
 62
     7
 10
321.7221
 20
118.679900000000000
 11
321.7221
 21
118.903899999999990
  0
LINE
  8
PT3-Grafika_wekt5
  6
CONTINUOUS
 62
     7
 10
321.7221
 20
118.903899999999990
 11
327.5286
 21
118.903899999999990
  0
LINE
  8
PT3-Grafika_wekt5
  6
CONTINUOUS
 62
     7
 10
327.5286
 20
118.903899999999990
 11
327.5286
 21
118.679900000000000
  0
LINE
  8
PT3-Grafika_wekt5
  6
CONTINUOUS
 62
     7
 10
327.5286
 20
118.679900000000000
 11
321.7221
 21
118.679900000000000
  0
LINE
  8
PT3-Grafika_wekt5
  6
CONTINUOUS
 62
     7
 10
321.7236
 20
103.995100000000010
 11
321.7236
 21
110.772500000000010
  0
LINE
  8
PT3-Grafika_wekt5
  6
CONTINUOUS
 62
     7
 10
321.7236
 20
110.981400000000010
 11
321.7236
 21
118.679100000000010
  0
LINE
  8
PT3-Grafika_wekt5
  6
CONTINUOUS
 62
     7
 10
321.7236
 20
118.679100000000010
 11
321.892
 21
118.679100000000010
  0
LINE
  8
PT3-Grafika_wekt5
  6
CONTINUOUS
 62
     7
 10
321.892
 20
118.679100000000010
 11
321.892
 21
110.974500000000010
  0
LINE
  8
PT3-Grafika_wekt5
  6
CONTINUOUS
 62
     7
 10
321.789
 20
99.376900000000006
 11
320.5358
 21
99.376900000000006
  0
LINE
  8
PT3-Grafika_wekt5
  6
CONTINUOUS
 62
     7
 10
321.789
 20
99.377399999999994
 11
321.7894
 21
99.377399999999994
  0
LINE
  8
PT3-Grafika_wekt5
  6
CONTINUOUS
 62
     7
 10
321.7894
 20
99.377399999999994
 11
321.7893
 21
103.770999999999990
  0
LINE
  8
PT3-Grafika_wekt5
  6
CONTINUOUS
 62
     7
 10
321.789
 20
103.770999999999990
 11
321.789
 21
99.376900000000006
  0
LINE
  8
PT3-Grafika_wekt5
  6
CONTINUOUS
 62
     7
 10
321.789
 20
118.679100000000010
 11
321.789
 21
118.679900000000000
  0
LINE
  8
PT3-Grafika_wekt5
  6
CONTINUOUS
 62
     7
 10
321.789
 20
120.474400000000000
 11
321.7894
 21
120.229500000000000
  0
LINE
  8
PT3-Grafika_wekt5
  6
CONTINUOUS
 62
     7
 10
321.7903
 20
99.377399999999994
 11
321.7903
 21
103.770999999999990
  0
LINE
  8
PT3-Grafika_wekt5
  6
CONTINUOUS
 62
     7
 10
321.804
 20
118.903899999999990
 11
321.804
 21
120.467999999999990
  0
LINE
  8
PT3-Grafika_wekt5
  6
CONTINUOUS
 62
     7
 10
321.804
 20
120.467999999999990
 11
327.435
 21
120.467999999999990
  0
LINE
  8
PT3-Grafika_wekt5
  6
CONTINUOUS
 62
     7
 10
327.435
 20
120.467999999999990
 11
327.435
 21
118.903899999999990
  0
LINE
  8
PT3-Grafika_wekt5
  6
CONTINUOUS
 62
     7
 10
321.8595
 20
118.679100000000010
 11
321.8595
 21
118.679900000000000
  0
LINE
  8
PT3-Grafika_wekt5
  6
CONTINUOUS
 62
     7
 10
321.892
 20
103.995100000000010
 11
321.892
 21
110.772699999999990
  0
LINE
  8
PT3-Grafika_wekt5
  6
CONTINUOUS
 62
     7
 10
327.3603
 20
103.995100000000010
 11
327.3603
 21
118.679100000000010
  0
LINE
  8
PT3-Grafika_wekt5
  6
CONTINUOUS
 62
     7
 10
327.3603
 20
118.679100000000010
 11
327.5287
 21
118.679100000000010
  0
LINE
  8
PT3-Grafika_wekt5
  6
CONTINUOUS
 62
     7
 10
327.5287
 20
118.679100000000010
 11
327.5287
 21
103.992600000000010
  0
LINE
  8
PT3-Grafika_wekt5
  6
CONTINUOUS
 62
     7
 10
327.5287
 20
103.992600000000010
 11
327.5286
 21
103.992600000000010
  0
LINE
  8
PT3-Grafika_wekt5
  6
CONTINUOUS
 62
     7
 10
327.378
 20
118.679100000000010
 11
327.378
 21
118.679900000000000
  0
LINE
  8
PT3-Grafika_wekt5
  6
CONTINUOUS
 62
     7
 10
327.4324
 20
99.377399999999994
 11
321.7903
 21
99.377399999999994
  0
LINE
  8
PT3-Grafika_wekt5
  6
CONTINUOUS
 62
     7
 10
327.4324
 20
103.770999999999990
 11
327.4324
 21
99.377399999999994
  0
LINE
  8
PT3-Grafika_wekt5
  6
CONTINUOUS
 62
     7
 10
327.4392
 20
99.373700000000014
 11
327.4392
 21
103.770999999999990
  0
LINE
  8
PT3-Grafika_wekt5
  6
CONTINUOUS
 62
     7
 10
327.4392
 20
118.679100000000010
 11
327.4392
 21
118.679900000000000
  0
LINE
  8
PT3-Grafika_wekt5
  6
CONTINUOUS
 62
     7
 10
327.4392
 20
118.903899999999990
 11
327.4392
 21
120.225300000000000
  0
LINE
  8
PT3-Grafika_wekt5
  6
CONTINUOUS
 62
     7
 10
327.4392
 20
120.225300000000000
 11
327.4395
 21
120.470300000000010
  0
LINE
  8
PT3-Grafika_wekt5
  6
CONTINUOUS
 62
     7
 10
327.4395
 20
120.470300000000010
 11
327.4395
 21
118.903899999999990
  0
LINE
  8
PT3-Grafika_wekt5
  6
CONTINUOUS
 62
     7
 10
327.4393
 20
103.770999999999990
 11
327.4392
 21
99.373700000000014
  0
LINE
  8
PT3-Grafika_wekt5
  6
CONTINUOUS
 62
     7
 10
327.4395
 20
99.373199999999997
 11
327.4395
 21
103.770999999999990
  0
LINE
  8
PT3-Grafika_wekt5
  6
CONTINUOUS
 62
     7
 10
327.4395
 20
118.679100000000010
 11
327.4395
 21
118.679900000000000
  0
LINE
  8
PT3-Grafika_wekt5
  6
CONTINUOUS
 62
     7
 10
327.4395
 20
120.470300000000010
 11
328.6928
 21
120.470300000000010
  0
LINE
  8
PT3-Grafika_wekt5
  6
CONTINUOUS
 62
     7
 10
328.6928
 20
120.470300000000010
 11
328.6928
 21
99.373199999999997
  0
LINE
  8
PT3-Grafika_wekt5
  6
CONTINUOUS
 62
     7
 10
328.6928
 20
99.373199999999997
 11
328.6928
 21
101.564300000000000
  0
LINE
  8
PT3-Grafika_wekt5
  6
CONTINUOUS
 62
     7
 10
328.6928
 20
101.564300000000000
 11
328.7139
 21
101.564300000000000
  0
LINE
  8
PT3-Grafika_wekt5
  6
CONTINUOUS
 62
     7
 10
328.7139
 20
101.564300000000000
 11
328.7139
 21
102.336099999999990
  0
LINE
  8
PT3-Grafika_wekt5
  6
CONTINUOUS
 62
     7
 10
328.7139
 20
102.336099999999990
 11
328.6928
 21
102.336099999999990
  0
LINE
  8
PT3-Grafika_wekt5
  6
CONTINUOUS
 62
     7
 10
328.6928
 20
102.336099999999990
 11
328.6928
 21
117.274499999999990
  0
LINE
  8
PT3-Grafika_wekt5
  6
CONTINUOUS
 62
     7
 10
328.6928
 20
117.274499999999990
 11
328.7139
 21
117.274499999999990
  0
LINE
  8
PT3-Grafika_wekt5
  6
CONTINUOUS
 62
     7
 10
328.7139
 20
117.274499999999990
 11
328.7139
 21
118.046300000000000
  0
LINE
  8
PT3-Grafika_wekt5
  6
CONTINUOUS
 62
     7
 10
328.7139
 20
118.046300000000000
 11
328.6928
 21
118.046300000000000
  0
LINE
  8
PT3-Grafika_wekt5
  6
CONTINUOUS
 62
     7
 10
328.6928
 20
118.046300000000000
 11
328.6928
 21
120.470300000000010
  0
LINE
  8
PT3-Grafika_wekt5
  6
CONTINUOUS
 62
     7
 10
328.6928
 20
102.336099999999990
 11
328.7693
 21
102.336099999999990
  0
LINE
  8
PT3-Grafika_wekt5
  6
CONTINUOUS
 62
     7
 10
328.7693
 20
102.336099999999990
 11
328.7139
 21
102.336099999999990
  0
LINE
  8
PT3-Grafika_wekt5
  6
CONTINUOUS
 62
     7
 10
328.7139
 20
101.564300000000000
 11
328.7693
 21
101.564300000000000
  0
LINE
  8
PT3-Grafika_wekt5
  6
CONTINUOUS
 62
     7
 10
328.7693
 20
101.564300000000000
 11
328.7693
 21
102.336099999999990
  0
LINE
  8
PT3-Grafika_wekt5
  6
CONTINUOUS
 62
     7
 10
328.7693
 20
102.336099999999990
 11
328.836
 21
102.336099999999990
  0
LINE
  8
PT3-Grafika_wekt5
  6
CONTINUOUS
 62
     7
 10
328.836
 20
102.336099999999990
 11
328.836
 21
101.564300000000000
  0
LINE
  8
PT3-Grafika_wekt5
  6
CONTINUOUS
 62
     7
 10
328.836
 20
101.564300000000000
 11
328.7693
 21
101.564300000000000
  0
LINE
  8
PT3-Grafika_wekt5
  6
CONTINUOUS
 62
     7
 10
328.7139
 20
117.274499999999990
 11
328.7693
 21
117.274499999999990
  0
LINE
  8
PT3-Grafika_wekt5
  6
CONTINUOUS
 62
     7
 10
328.7693
 20
117.274499999999990
 11
328.7693
 21
118.046300000000000
  0
LINE
  8
PT3-Grafika_wekt5
  6
CONTINUOUS
 62
     7
 10
328.7693
 20
118.046300000000000
 11
328.7139
 21
118.046300000000000
  0
LINE
  8
PT3-Grafika_wekt5
  6
CONTINUOUS
 62
     7
 10
328.7693
 20
117.274499999999990
 11
328.836
 21
117.274499999999990
  0
LINE
  8
PT3-Grafika_wekt5
  6
CONTINUOUS
 62
     7
 10
328.836
 20
117.274499999999990
 11
328.836
 21
118.046300000000000
  0
LINE
  8
PT3-Grafika_wekt5
  6
CONTINUOUS
 62
     7
 10
328.836
 20
118.046300000000000
 11
328.7693
 21
118.046300000000000
  0
LINE
  8
PT3-Grafika_wekt5
  6
CONTINUOUS
 62
     7
 10
328.836
 20
101.564300000000000
 11
328.8884
 21
101.564300000000000
  0
LINE
  8
PT3-Grafika_wekt5
  6
CONTINUOUS
 62
     7
 10
328.8884
 20
101.564300000000000
 11
328.8884
 21
102.336099999999990
  0
LINE
  8
PT3-Grafika_wekt5
  6
CONTINUOUS
 62
     7
 10
328.8884
 20
102.336099999999990
 11
328.836
 21
102.336099999999990
  0
LINE
  8
PT3-Grafika_wekt5
  6
CONTINUOUS
 62
     7
 10
328.836
 20
117.274499999999990
 11
328.8884
 21
117.274499999999990
  0
LINE
  8
PT3-Grafika_wekt5
  6
CONTINUOUS
 62
     7
 10
328.8884
 20
117.274499999999990
 11
328.8884
 21
118.046300000000000
  0
LINE
  8
PT3-Grafika_wekt5
  6
CONTINUOUS
 62
     7
 10
328.8884
 20
118.046300000000000
 11
328.836
 21
118.046300000000000
  0
LINE
  8
PT3-Grafika_wekt5
  6
CONTINUOUS
 62
     7
 10
328.8884
 20
101.564300000000000
 11
328.9066
 21
101.564300000000000
  0
LINE
  8
PT3-Grafika_wekt5
  6
CONTINUOUS
 62
     7
 10
328.9066
 20
101.564300000000000
 11
328.9066
 21
102.336099999999990
  0
LINE
  8
PT3-Grafika_wekt5
  6
CONTINUOUS
 62
     7
 10
328.9066
 20
102.336099999999990
 11
328.8884
 21
102.336099999999990
  0
LINE
  8
PT3-Grafika_wekt5
  6
CONTINUOUS
 62
     7
 10
328.8884
 20
117.274499999999990
 11
328.9066
 21
117.274499999999990
  0
LINE
  8
PT3-Grafika_wekt5
  6
CONTINUOUS
 62
     7
 10
328.9066
 20
117.274499999999990
 11
328.9066
 21
118.046300000000000
  0
LINE
  8
PT3-Grafika_wekt5
  6
CONTINUOUS
 62
     7
 10
328.9066
 20
118.046300000000000
 11
328.8884
 21
118.046300000000000
  0
LINE
  8
PT3-Grafika_wekt5
  6
CONTINUOUS
 62
     7
 10
311.9362
 20
99.373199999999997
 11
311.9362
 21
121.358499999999990
  0
LINE
  8
PT3-Grafika_wekt5
  6
CONTINUOUS
 62
     7
 10
311.9362
 20
121.358200000000010
 11
312.6135
 21
120.470300000000010
  0
LINE
  8
PT3-Grafika_wekt5
  6
CONTINUOUS
 62
     7
 10
311.9362
 20
121.360000000000010
 11
311.9739
 21
121.310300000000010
  0
LINE
  8
PT3-Grafika_wekt5
  6
CONTINUOUS
 62
     7
 10
311.9362
 20
121.360000000000010
 11
329.4814
 21
121.360000000000010
  0
LINE
  8
PT3-Grafika_wekt5
  6
CONTINUOUS
 62
     7
 10
329.4814
 20
121.360000000000010
 11
328.6928
 21
120.319300000000000
  0
LINE
  8
PT3-Grafika_wekt5
  6
CONTINUOUS
 62
     7
 10
312.6155
 20
120.470300000000010
 11
311.9362
 21
121.360000000000010
  0
LINE
  8
PT3-Grafika_wekt5
  6
CONTINUOUS
 62
     7
 10
313.7013
 20
120.056600000000000
 11
313.713
 21
120.056600000000000
  0
LINE
  8
PT3-Grafika_wekt5
  6
CONTINUOUS
 62
     7
 10
313.7013
 20
120.260600000000010
 11
313.713
 21
120.260600000000010
  0
LINE
  8
PT3-Grafika_wekt5
  6
CONTINUOUS
 62
     7
 10
319.344
 20
120.056600000000000
 11
319.355
 21
120.056600000000000
  0
LINE
  8
PT3-Grafika_wekt5
  6
CONTINUOUS
 62
     7
 10
319.344
 20
120.260600000000010
 11
319.355
 21
120.260600000000010
  0
LINE
  8
PT3-Grafika_wekt5
  6
CONTINUOUS
 62
     7
 10
320.4406
 20
120.260600000000010
 11
320.5358
 21
120.260600000000010
  0
LINE
  8
PT3-Grafika_wekt5
  6
CONTINUOUS
 62
     7
 10
321.7894
 20
120.056600000000000
 11
321.804
 21
120.056600000000000
  0
LINE
  8
PT3-Grafika_wekt5
  6
CONTINUOUS
 62
     7
 10
321.7894
 20
120.260600000000010
 11
321.804
 21
120.260600000000010
  0
LINE
  8
PT3-Grafika_wekt5
  6
CONTINUOUS
 62
     7
 10
327.435
 20
120.056600000000000
 11
327.4392
 21
120.056600000000000
  0
LINE
  8
PT3-Grafika_wekt5
  6
CONTINUOUS
 62
     7
 10
327.435
 20
120.260600000000010
 11
327.4392
 21
120.260600000000010
  0
LINE
  8
PT3-Grafika_wekt5
  6
CONTINUOUS
 62
     7
 10
329.3511
 20
121.188099999999990
 11
329.4814
 21
121.359000000000010
  0
LINE
  8
PT3-Grafika_wekt5
  6
CONTINUOUS
 62
     7
 10
329.4814
 20
121.359000000000010
 11
329.4814
 21
99.373199999999997
  0
LINE
  8
PT3-Grafika_wekt5
  6
CONTINUOUS
 62
     7
 10
290.1291
 20
109.370600000000000
 11
290.1291
 21
127.365800000000010
  0
LINE
  8
PT3-Grafika_wekt5
  6
CONTINUOUS
 62
     7
 10
290.1291
 20
127.365800000000010
 11
290.8286
 21
126.666000000000000
  0
LINE
  8
PT3-Grafika_wekt5
  6
CONTINUOUS
 62
     7
 10
290.8286
 20
126.666000000000000
 11
290.8286
 21
110.370299999999990
  0
LINE
  8
PT3-Grafika_wekt5
  6
CONTINUOUS
 62
     7
 10
290.8286
 20
110.370299999999990
 11
290.1291
 21
109.670500000000000
  0
LINE
  8
PT3-Grafika_wekt5
  6
CONTINUOUS
 62
     7
 10
290.1291
 20
109.670500000000000
 11
304.7194
 21
109.670500000000000
  0
LINE
  8
PT3-Grafika_wekt5
  6
CONTINUOUS
 62
     7
 10
304.7194
 20
109.670500000000000
 11
304.0199
 21
110.370299999999990
  0
LINE
  8
PT3-Grafika_wekt5
  6
CONTINUOUS
 62
     7
 10
304.0199
 20
110.370299999999990
 11
290.8286
 21
110.370299999999990
  0
LINE
  8
PT3-Grafika_wekt5
  6
CONTINUOUS
 62
     7
 10
290.8286
 20
120.667599999999990
 11
304.0199
 21
120.667599999999990
  0
LINE
  8
PT3-Grafika_wekt5
  6
CONTINUOUS
 62
     7
 10
304.0199
 20
120.667599999999990
 11
304.0199
 21
110.370299999999990
  0
LINE
  8
PT3-Grafika_wekt5
  6
CONTINUOUS
 62
     7
 10
304.0199
 20
110.370299999999990
 11
304.0199
 21
126.666000000000000
  0
LINE
  8
PT3-Grafika_wekt5
  6
CONTINUOUS
 62
     7
 10
304.0199
 20
126.666000000000000
 11
290.8286
 21
126.666000000000000
  0
LINE
  8
PT3-Grafika_wekt5
  6
CONTINUOUS
 62
     7
 10
290.8286
 20
121.367400000000000
 11
304.0199
 21
121.367400000000000
  0
LINE
  8
PT3-Grafika_wekt5
  6
CONTINUOUS
 62
     7
 10
304.0199
 20
121.367400000000000
 11
304.0199
 21
126.666000000000000
  0
LINE
  8
PT3-Grafika_wekt5
  6
CONTINUOUS
 62
     7
 10
304.0199
 20
126.666000000000000
 11
304.7194
 21
127.365800000000010
  0
LINE
  8
PT3-Grafika_wekt5
  6
CONTINUOUS
 62
     7
 10
297.0245
 20
110.370299999999990
 11
297.0245
 21
120.667599999999990
  0
LINE
  8
PT3-Grafika_wekt5
  6
CONTINUOUS
 62
     7
 10
297.8239
 20
110.370299999999990
 11
297.8239
 21
120.667599999999990
  0
LINE
  8
PT3-Grafika_wekt5
  6
CONTINUOUS
 62
     7
 10
304.7194
 20
109.370600000000000
 11
290.1291
 21
109.370600000000000
  0
LINE
  8
PT3-Grafika_wekt5
  6
CONTINUOUS
 62
     7
 10
304.7194
 20
109.670500000000000
 11
304.7194
 21
109.370600000000000
  0
LINE
  8
PT3-Grafika_wekt5
  6
CONTINUOUS
 62
     7
 10
473.7823
 20
118.679100000000010
 11
473.7823
 21
118.679900000000000
  0
LINE
  8
PT3-Grafika_wekt5
  6
CONTINUOUS
 62
     7
 10
558.8259
 20
119.810300000000010
 11
559.0247
 21
119.810300000000010
  0
LINE
  8
PT3-Grafika_wekt5
  6
CONTINUOUS
 62
     7
 10
559.0247
 20
119.810300000000010
 11
559.0247
 21
99.373199999999997
  0
LINE
  8
PT3-Grafika_wekt5
  6
CONTINUOUS
 62
     7
 10
559.0252
 20
107.313099999999990
 11
559.0252
 21
107.870499999999990
  0
LINE
  8
PT3-Grafika_wekt5
  6
CONTINUOUS
 62
     7
 10
559.0252
 20
107.870499999999990
 11
559.0552
 21
107.870499999999990
  0
LINE
  8
PT3-Grafika_wekt5
  6
CONTINUOUS
 62
     7
 10
559.0552
 20
107.870499999999990
 11
559.0552
 21
107.313099999999990
  0
LINE
  8
PT3-Grafika_wekt5
  6
CONTINUOUS
 62
     7
 10
559.0552
 20
107.313099999999990
 11
559.0252
 21
107.313099999999990
  0
LINE
  8
PT3-Grafika_wekt5
  6
CONTINUOUS
 62
     7
 10
559.0252
 20
108.422100000000000
 11
559.0252
 21
108.979500000000000
  0
LINE
  8
PT3-Grafika_wekt5
  6
CONTINUOUS
 62
     7
 10
559.0252
 20
108.979500000000000
 11
559.0552
 21
108.979500000000000
  0
LINE
  8
PT3-Grafika_wekt5
  6
CONTINUOUS
 62
     7
 10
559.0552
 20
108.979500000000000
 11
559.0552
 21
108.422100000000000
  0
LINE
  8
PT3-Grafika_wekt5
  6
CONTINUOUS
 62
     7
 10
559.0552
 20
108.422100000000000
 11
559.0252
 21
108.422100000000000
  0
LINE
  8
PT3-Grafika_wekt5
  6
CONTINUOUS
 62
     7
 10
559.0552
 20
107.313099999999990
 11
559.0552
 21
107.870499999999990
  0
LINE
  8
PT3-Grafika_wekt5
  6
CONTINUOUS
 62
     7
 10
559.0552
 20
107.382200000000010
 11
559.0726
 21
107.382200000000010
  0
LINE
  8
PT3-Grafika_wekt5
  6
CONTINUOUS
 62
     7
 10
559.0726
 20
107.382200000000010
 11
559.0726
 21
107.572700000000000
  0
LINE
  8
PT3-Grafika_wekt5
  6
CONTINUOUS
 62
     7
 10
559.0726
 20
107.572700000000000
 11
559.0552
 21
107.572700000000000
  0
LINE
  8
PT3-Grafika_wekt5
  6
CONTINUOUS
 62
     7
 10
559.0552
 20
107.615600000000000
 11
559.0726
 21
107.615600000000000
  0
LINE
  8
PT3-Grafika_wekt5
  6
CONTINUOUS
 62
     7
 10
559.0726
 20
107.615600000000000
 11
559.0726
 21
107.382200000000010
  0
LINE
  8
PT3-Grafika_wekt5
  6
CONTINUOUS
 62
     7
 10
559.0552
 20
107.796600000000010
 11
559.0726
 21
107.796600000000010
  0
LINE
  8
PT3-Grafika_wekt5
  6
CONTINUOUS
 62
     7
 10
559.0726
 20
107.796600000000010
 11
559.0726
 21
107.572700000000000
  0
LINE
  8
PT3-Grafika_wekt5
  6
CONTINUOUS
 62
     7
 10
559.0552
 20
108.422100000000000
 11
559.0552
 21
108.979500000000000
  0
LINE
  8
PT3-Grafika_wekt5
  6
CONTINUOUS
 62
     7
 10
559.0552
 20
108.515099999999990
 11
559.0752
 21
108.515099999999990
  0
LINE
  8
PT3-Grafika_wekt5
  6
CONTINUOUS
 62
     7
 10
559.0752
 20
108.515099999999990
 11
559.0752
 21
108.886599999999990
  0
LINE
  8
PT3-Grafika_wekt5
  6
CONTINUOUS
 62
     7
 10
559.0752
 20
108.886599999999990
 11
559.0552
 21
108.886599999999990
  0
LINE
  8
PT3-Grafika_wekt5
  6
CONTINUOUS
 62
     7
 10
559.0726
 20
107.587700000000010
 11
559.0726
 21
107.628700000000010
  0
LINE
  8
PT3-Grafika_wekt5
  6
CONTINUOUS
 62
     7
 10
559.0752
 20
108.515099999999990
 11
559.0752
 21
108.886599999999990
  0
LINE
  8
PT3-Grafika_wekt5
  6
CONTINUOUS
 62
     7
 10
559.0752
 20
108.596700000000000
 11
559.3628
 21
108.596700000000000
  0
LINE
  8
PT3-Grafika_wekt5
  6
CONTINUOUS
 62
     7
 10
559.3628
 20
108.596700000000000
 11
559.3628
 21
108.805000000000010
  0
LINE
  8
PT3-Grafika_wekt5
  6
CONTINUOUS
 62
     7
 10
559.3628
 20
108.805000000000010
 11
559.0752
 21
108.805000000000010
  0
LINE
  8
PT3-Grafika_wekt5
  6
CONTINUOUS
 62
     7
 10
559.2751
 20
108.596300000000010
 11
559.2751
 21
108.596700000000000
  0
LINE
  8
PT3-Grafika_wekt5
  6
CONTINUOUS
 62
     7
 10
559.2751
 20
108.805000000000010
 11
559.2751
 21
108.805299999999990
  0
LINE
  8
PT3-Grafika_wekt5
  6
CONTINUOUS
 62
     7
 10
559.2751
 20
108.805299999999990
 11
559.2876
 21
108.840200000000010
  0
LINE
  8
PT3-Grafika_wekt5
  6
CONTINUOUS
 62
     7
 10
559.2876
 20
108.840200000000010
 11
559.2876
 21
108.805000000000010
  0
LINE
  8
PT3-Grafika_wekt5
  6
CONTINUOUS
 62
     7
 10
559.2876
 20
108.561500000000000
 11
559.2751
 21
108.596300000000010
  0
LINE
  8
PT3-Grafika_wekt5
  6
CONTINUOUS
 62
     7
 10
559.2876
 20
108.561500000000000
 11
559.3625
 21
108.561500000000000
  0
LINE
  8
PT3-Grafika_wekt5
  6
CONTINUOUS
 62
     7
 10
559.3625
 20
108.561500000000000
 11
559.3625
 21
108.596300000000010
  0
LINE
  8
PT3-Grafika_wekt5
  6
CONTINUOUS
 62
     7
 10
559.3625
 20
108.596300000000010
 11
559.2876
 21
108.596300000000010
  0
LINE
  8
PT3-Grafika_wekt5
  6
CONTINUOUS
 62
     7
 10
559.2876
 20
108.596300000000010
 11
559.2876
 21
108.561500000000000
  0
LINE
  8
PT3-Grafika_wekt5
  6
CONTINUOUS
 62
     7
 10
559.2876
 20
108.596300000000010
 11
559.2876
 21
108.596700000000000
  0
LINE
  8
PT3-Grafika_wekt5
  6
CONTINUOUS
 62
     7
 10
559.2876
 20
108.805299999999990
 11
559.3625
 21
108.805299999999990
  0
LINE
  8
PT3-Grafika_wekt5
  6
CONTINUOUS
 62
     7
 10
559.3625
 20
108.805299999999990
 11
559.3625
 21
108.805000000000010
  0
LINE
  8
PT3-Grafika_wekt5
  6
CONTINUOUS
 62
     7
 10
559.2876
 20
108.840200000000010
 11
559.3625
 21
108.840200000000010
  0
LINE
  8
PT3-Grafika_wekt5
  6
CONTINUOUS
 62
     7
 10
559.3625
 20
108.840200000000010
 11
559.3625
 21
108.805299999999990
  0
LINE
  8
PT3-Grafika_wekt5
  6
CONTINUOUS
 62
     7
 10
559.3625
 20
108.561500000000000
 11
559.375
 21
108.596300000000010
  0
LINE
  8
PT3-Grafika_wekt5
  6
CONTINUOUS
 62
     7
 10
559.375
 20
108.596300000000010
 11
559.375
 21
108.805299999999990
  0
LINE
  8
PT3-Grafika_wekt5
  6
CONTINUOUS
 62
     7
 10
559.375
 20
108.805299999999990
 11
559.3625
 21
108.840200000000010
  0
LINE
  8
PT3-Grafika_wekt5
  6
CONTINUOUS
 62
     7
 10
559.3625
 20
108.596300000000010
 11
559.3625
 21
108.596700000000000
  0
LINE
  8
PT3-Grafika_wekt5
  6
CONTINUOUS
 62
     7
 10
357.3595
 20
109.370600000000000
 11
357.8593
 21
109.370600000000000
  0
LINE
  8
PT3-Grafika_wekt5
  6
CONTINUOUS
 62
     7
 10
357.3595
 20
109.370600000000000
 11
357.3595
 21
109.670500000000000
  0
LINE
  8
PT3-Grafika_wekt5
  6
CONTINUOUS
 62
     7
 10
357.3595
 20
109.670500000000000
 11
357.8593
 21
109.670500000000000
  0
LINE
  8
PT3-Grafika_wekt5
  6
CONTINUOUS
 62
     7
 10
357.8593
 20
109.370600000000000
 11
357.3595
 21
109.370600000000000
  0
LINE
  8
PT3-Grafika_wekt5
  6
CONTINUOUS
 62
     7
 10
406.1272
 20
145.860900000000020
 11
406.1272
 21
146.160799999999990
  0
LINE
  8
PT3-Grafika_wekt5
  6
CONTINUOUS
 62
     7
 10
406.1272
 20
146.160799999999990
 11
417.7195
 21
146.160799999999990
  0
LINE
  8
PT3-Grafika_wekt5
  6
CONTINUOUS
 62
     7
 10
417.7195
 20
146.160799999999990
 11
417.7195
 21
145.860900000000020
  0
LINE
  8
PT3-Grafika_wekt5
  6
CONTINUOUS
 62
     7
 10
417.7195
 20
145.860900000000020
 11
406.1272
 21
145.860900000000020
  0
LINE
  8
PT3-Grafika_wekt5
  6
CONTINUOUS
 62
     7
 10
406.1272
 20
146.660700000000020
 11
406.3271
 21
146.860600000000010
  0
LINE
  8
PT3-Grafika_wekt5
  6
CONTINUOUS
 62
     7
 10
406.3271
 20
146.860600000000010
 11
406.3271
 21
165.155800000000000
  0
LINE
  8
PT3-Grafika_wekt5
  6
CONTINUOUS
 62
     7
 10
406.3271
 20
165.155800000000000
 11
406.1272
 21
165.355700000000010
  0
LINE
  8
PT3-Grafika_wekt5
  6
CONTINUOUS
 62
     7
 10
406.3271
 20
146.860600000000010
 11
417.5197
 21
146.860600000000010
  0
LINE
  8
PT3-Grafika_wekt5
  6
CONTINUOUS
 62
     7
 10
417.5197
 20
146.860600000000010
 11
417.5197
 21
158.157700000000010
  0
LINE
  8
PT3-Grafika_wekt5
  6
CONTINUOUS
 62
     7
 10
417.5197
 20
158.157700000000010
 11
406.3271
 21
158.157700000000010
  0
LINE
  8
PT3-Grafika_wekt5
  6
CONTINUOUS
 62
     7
 10
406.3271
 20
158.857500000000020
 11
417.5197
 21
158.857500000000020
  0
LINE
  8
PT3-Grafika_wekt5
  6
CONTINUOUS
 62
     7
 10
417.5197
 20
158.857500000000020
 11
417.5197
 21
165.155800000000000
  0
LINE
  8
PT3-Grafika_wekt5
  6
CONTINUOUS
 62
     7
 10
417.5197
 20
165.155800000000000
 11
406.3271
 21
165.155800000000000
  0
LINE
  8
PT3-Grafika_wekt5
  6
CONTINUOUS
 62
     7
 10
417.5197
 20
146.860600000000010
 11
417.5197
 21
165.155800000000000
  0
LINE
  8
PT3-Grafika_wekt5
  6
CONTINUOUS
 62
     7
 10
417.5197
 20
165.155800000000000
 11
417.7195
 21
165.355700000000010
  0
LINE
  8
PT3-Grafika_wekt5
  6
CONTINUOUS
 62
     7
 10
417.7195
 20
146.660700000000020
 11
417.5197
 21
146.860600000000010
  0
LINE
  8
PT3-Grafika_wekt5
  6
CONTINUOUS
 62
     7
 10
467.1868
 20
145.860900000000020
 11
467.1868
 21
146.160799999999990
  0
LINE
  8
PT3-Grafika_wekt5
  6
CONTINUOUS
 62
     7
 10
467.1868
 20
146.160799999999990
 11
478.779
 21
146.160799999999990
  0
LINE
  8
PT3-Grafika_wekt5
  6
CONTINUOUS
 62
     7
 10
478.779
 20
146.160799999999990
 11
478.779
 21
145.860900000000020
  0
LINE
  8
PT3-Grafika_wekt5
  6
CONTINUOUS
 62
     7
 10
478.779
 20
145.860900000000020
 11
467.1868
 21
145.860900000000020
  0
LINE
  8
PT3-Grafika_wekt5
  6
CONTINUOUS
 62
     7
 10
467.1868
 20
146.660700000000020
 11
467.3866
 21
146.860600000000010
  0
LINE
  8
PT3-Grafika_wekt5
  6
CONTINUOUS
 62
     7
 10
467.3866
 20
146.860600000000010
 11
467.3866
 21
165.155800000000000
  0
LINE
  8
PT3-Grafika_wekt5
  6
CONTINUOUS
 62
     7
 10
467.3866
 20
165.155800000000000
 11
467.1868
 21
165.355700000000010
  0
LINE
  8
PT3-Grafika_wekt5
  6
CONTINUOUS
 62
     7
 10
467.3866
 20
146.860600000000010
 11
478.5791
 21
146.860600000000010
  0
LINE
  8
PT3-Grafika_wekt5
  6
CONTINUOUS
 62
     7
 10
478.5791
 20
146.860600000000010
 11
478.5791
 21
158.157700000000010
  0
LINE
  8
PT3-Grafika_wekt5
  6
CONTINUOUS
 62
     7
 10
478.5791
 20
158.157700000000010
 11
467.3866
 21
158.157700000000010
  0
LINE
  8
PT3-Grafika_wekt5
  6
CONTINUOUS
 62
     7
 10
467.3866
 20
158.857500000000020
 11
478.5791
 21
158.857500000000020
  0
LINE
  8
PT3-Grafika_wekt5
  6
CONTINUOUS
 62
     7
 10
478.5791
 20
158.857500000000020
 11
478.5791
 21
165.155800000000000
  0
LINE
  8
PT3-Grafika_wekt5
  6
CONTINUOUS
 62
     7
 10
478.5791
 20
165.155800000000000
 11
467.3866
 21
165.155800000000000
  0
LINE
  8
PT3-Grafika_wekt5
  6
CONTINUOUS
 62
     7
 10
478.5791
 20
146.860600000000010
 11
478.5791
 21
165.155800000000000
  0
LINE
  8
PT3-Grafika_wekt5
  6
CONTINUOUS
 62
     7
 10
478.5791
 20
165.155800000000000
 11
478.779
 21
165.355700000000010
  0
LINE
  8
PT3-Grafika_wekt5
  6
CONTINUOUS
 62
     7
 10
478.779
 20
146.660599999999990
 11
478.5791
 21
146.860600000000010
  0
LINE
  8
PT3-Grafika_wekt5
  6
CONTINUOUS
 62
     7
 10
437.1066
 20
145.860900000000020
 11
437.1066
 21
146.160799999999990
  0
LINE
  8
PT3-Grafika_wekt5
  6
CONTINUOUS
 62
     7
 10
437.1066
 20
146.160799999999990
 11
448.6989
 21
146.160799999999990
  0
LINE
  8
PT3-Grafika_wekt5
  6
CONTINUOUS
 62
     7
 10
448.6989
 20
146.160799999999990
 11
448.6989
 21
145.860900000000020
  0
LINE
  8
PT3-Grafika_wekt5
  6
CONTINUOUS
 62
     7
 10
448.6989
 20
145.860900000000020
 11
437.1066
 21
145.860900000000020
  0
LINE
  8
PT3-Grafika_wekt5
  6
CONTINUOUS
 62
     7
 10
437.1066
 20
146.660700000000020
 11
437.3065
 21
146.860600000000010
  0
LINE
  8
PT3-Grafika_wekt5
  6
CONTINUOUS
 62
     7
 10
437.3065
 20
146.860600000000010
 11
437.3065
 21
165.155800000000000
  0
LINE
  8
PT3-Grafika_wekt5
  6
CONTINUOUS
 62
     7
 10
437.3065
 20
165.155800000000000
 11
437.1066
 21
165.355700000000010
  0
LINE
  8
PT3-Grafika_wekt5
  6
CONTINUOUS
 62
     7
 10
437.3065
 20
146.860600000000010
 11
448.499
 21
146.860600000000010
  0
LINE
  8
PT3-Grafika_wekt5
  6
CONTINUOUS
 62
     7
 10
448.499
 20
146.860600000000010
 11
448.499
 21
158.157700000000010
  0
LINE
  8
PT3-Grafika_wekt5
  6
CONTINUOUS
 62
     7
 10
448.499
 20
158.157700000000010
 11
437.3065
 21
158.157700000000010
  0
LINE
  8
PT3-Grafika_wekt5
  6
CONTINUOUS
 62
     7
 10
437.3065
 20
158.857500000000020
 11
448.499
 21
158.857500000000020
  0
LINE
  8
PT3-Grafika_wekt5
  6
CONTINUOUS
 62
     7
 10
448.499
 20
158.857500000000020
 11
448.499
 21
165.155800000000000
  0
LINE
  8
PT3-Grafika_wekt5
  6
CONTINUOUS
 62
     7
 10
448.499
 20
165.155800000000000
 11
437.3065
 21
165.155800000000000
  0
LINE
  8
PT3-Grafika_wekt5
  6
CONTINUOUS
 62
     7
 10
448.499
 20
146.860600000000010
 11
448.499
 21
165.155800000000000
  0
LINE
  8
PT3-Grafika_wekt5
  6
CONTINUOUS
 62
     7
 10
448.499
 20
165.155800000000000
 11
448.6989
 21
165.355700000000010
  0
LINE
  8
PT3-Grafika_wekt5
  6
CONTINUOUS
 62
     7
 10
448.6989
 20
146.660700000000020
 11
448.499
 21
146.860600000000010
  0
LINE
  8
PT3-Grafika_wekt5
  6
CONTINUOUS
 62
     7
 10
313.3997
 20
145.860900000000020
 11
313.3997
 21
146.160799999999990
  0
LINE
  8
PT3-Grafika_wekt5
  6
CONTINUOUS
 62
     7
 10
313.3997
 20
146.160799999999990
 11
327.99
 21
146.160799999999990
  0
LINE
  8
PT3-Grafika_wekt5
  6
CONTINUOUS
 62
     7
 10
327.99
 20
146.160799999999990
 11
327.99
 21
145.860900000000020
  0
LINE
  8
PT3-Grafika_wekt5
  6
CONTINUOUS
 62
     7
 10
327.99
 20
145.860900000000020
 11
313.3997
 21
145.860900000000020
  0
LINE
  8
PT3-Grafika_wekt5
  6
CONTINUOUS
 62
     7
 10
313.3997
 20
146.660700000000020
 11
313.5995
 21
146.860600000000010
  0
LINE
  8
PT3-Grafika_wekt5
  6
CONTINUOUS
 62
     7
 10
313.5995
 20
146.860600000000010
 11
313.5995
 21
163.656299999999990
  0
LINE
  8
PT3-Grafika_wekt5
  6
CONTINUOUS
 62
     7
 10
313.5995
 20
163.656299999999990
 11
313.3997
 21
163.856100000000000
  0
LINE
  8
PT3-Grafika_wekt5
  6
CONTINUOUS
 62
     7
 10
313.5995
 20
146.860600000000010
 11
327.7901
 21
146.860600000000010
  0
LINE
  8
PT3-Grafika_wekt5
  6
CONTINUOUS
 62
     7
 10
327.7901
 20
146.860600000000010
 11
327.7901
 21
156.658000000000020
  0
LINE
  8
PT3-Grafika_wekt5
  6
CONTINUOUS
 62
     7
 10
327.7901
 20
156.658000000000020
 11
313.5995
 21
156.658000000000020
  0
LINE
  8
PT3-Grafika_wekt5
  6
CONTINUOUS
 62
     7
 10
313.5995
 20
157.357800000000000
 11
327.7901
 21
157.357800000000000
  0
LINE
  8
PT3-Grafika_wekt5
  6
CONTINUOUS
 62
     7
 10
327.7901
 20
157.357800000000000
 11
327.7901
 21
163.656299999999990
  0
LINE
  8
PT3-Grafika_wekt5
  6
CONTINUOUS
 62
     7
 10
327.7901
 20
163.656299999999990
 11
313.5995
 21
163.656299999999990
  0
LINE
  8
PT3-Grafika_wekt5
  6
CONTINUOUS
 62
     7
 10
320.2951
 20
146.860600000000010
 11
320.2951
 21
156.658000000000020
  0
LINE
  8
PT3-Grafika_wekt5
  6
CONTINUOUS
 62
     7
 10
321.0945
 20
146.860600000000010
 11
321.0945
 21
156.658000000000020
  0
LINE
  8
PT3-Grafika_wekt5
  6
CONTINUOUS
 62
     7
 10
327.7901
 20
146.860600000000010
 11
327.7901
 21
163.656299999999990
  0
LINE
  8
PT3-Grafika_wekt5
  6
CONTINUOUS
 62
     7
 10
327.7901
 20
163.656299999999990
 11
327.99
 21
163.856100000000000
  0
LINE
  8
PT3-Grafika_wekt5
  6
CONTINUOUS
 62
     7
 10
327.99
 20
146.660700000000020
 11
327.7901
 21
146.860600000000010
  0
LINE
  8
PT3-Grafika_wekt5
  6
CONTINUOUS
 62
     7
 10
290.1151
 20
145.860900000000020
 11
290.1151
 21
146.160799999999990
  0
LINE
  8
PT3-Grafika_wekt5
  6
CONTINUOUS
 62
     7
 10
290.1151
 20
146.160799999999990
 11
304.7054
 21
146.160799999999990
  0
LINE
  8
PT3-Grafika_wekt5
  6
CONTINUOUS
 62
     7
 10
304.7054
 20
146.160799999999990
 11
304.7054
 21
145.860900000000020
  0
LINE
  8
PT3-Grafika_wekt5
  6
CONTINUOUS
 62
     7
 10
304.7054
 20
145.860900000000020
 11
290.1151
 21
145.860900000000020
  0
LINE
  8
PT3-Grafika_wekt5
  6
CONTINUOUS
 62
     7
 10
290.1151
 20
146.660700000000020
 11
290.315
 21
146.860600000000010
  0
LINE
  8
PT3-Grafika_wekt5
  6
CONTINUOUS
 62
     7
 10
290.315
 20
146.860600000000010
 11
290.315
 21
163.656299999999990
  0
LINE
  8
PT3-Grafika_wekt5
  6
CONTINUOUS
 62
     7
 10
290.315
 20
163.656299999999990
 11
290.1151
 21
163.856100000000000
  0
LINE
  8
PT3-Grafika_wekt5
  6
CONTINUOUS
 62
     7
 10
290.315
 20
146.860600000000010
 11
304.5055
 21
146.860600000000010
  0
LINE
  8
PT3-Grafika_wekt5
  6
CONTINUOUS
 62
     7
 10
304.5055
 20
146.860600000000010
 11
304.5055
 21
156.658000000000020
  0
LINE
  8
PT3-Grafika_wekt5
  6
CONTINUOUS
 62
     7
 10
304.5055
 20
156.658000000000020
 11
290.315
 21
156.658000000000020
  0
LINE
  8
PT3-Grafika_wekt5
  6
CONTINUOUS
 62
     7
 10
290.315
 20
157.357800000000000
 11
304.5055
 21
157.357800000000000
  0
LINE
  8
PT3-Grafika_wekt5
  6
CONTINUOUS
 62
     7
 10
304.5055
 20
157.357800000000000
 11
304.5055
 21
163.656299999999990
  0
LINE
  8
PT3-Grafika_wekt5
  6
CONTINUOUS
 62
     7
 10
304.5055
 20
163.656299999999990
 11
290.315
 21
163.656299999999990
  0
LINE
  8
PT3-Grafika_wekt5
  6
CONTINUOUS
 62
     7
 10
297.0105
 20
146.860600000000010
 11
297.0105
 21
156.658000000000020
  0
LINE
  8
PT3-Grafika_wekt5
  6
CONTINUOUS
 62
     7
 10
297.81
 20
146.860600000000010
 11
297.81
 21
156.658000000000020
  0
LINE
  8
PT3-Grafika_wekt5
  6
CONTINUOUS
 62
     7
 10
304.5055
 20
146.860600000000010
 11
304.5055
 21
163.656299999999990
  0
LINE
  8
PT3-Grafika_wekt5
  6
CONTINUOUS
 62
     7
 10
304.5055
 20
163.656299999999990
 11
304.7054
 21
163.856100000000000
  0
LINE
  8
PT3-Grafika_wekt5
  6
CONTINUOUS
 62
     7
 10
304.7054
 20
146.660700000000020
 11
304.5055
 21
146.860600000000010
  0
LINE
  8
PT3-Grafika_wekt5
  6
CONTINUOUS
 62
     7
 10
558.8259
 20
146.360799999999980
 11
559.3256
 21
146.360799999999980
  0
LINE
  8
PT3-Grafika_wekt5
  6
CONTINUOUS
 62
     7
 10
559.3256
 20
146.360799999999980
 11
559.3256
 21
146.660700000000020
  0
LINE
  8
PT3-Grafika_wekt5
  6
CONTINUOUS
 62
     7
 10
559.3256
 20
146.660700000000020
 11
558.8259
 21
146.660700000000020
  0
LINE
  8
PT3-Grafika_wekt5
  6
CONTINUOUS
 62
     7
 10
357.3595
 20
145.860900000000020
 11
357.8593
 21
145.860900000000020
  0
LINE
  8
PT3-Grafika_wekt5
  6
CONTINUOUS
 62
     7
 10
357.3595
 20
145.860900000000020
 11
357.3595
 21
146.160799999999990
  0
LINE
  8
PT3-Grafika_wekt5
  6
CONTINUOUS
 62
     7
 10
357.3595
 20
146.160799999999990
 11
357.8593
 21
146.160799999999990
  0
LINE
  8
PT3-Grafika_wekt5
  6
CONTINUOUS
 62
     7
 10
357.8593
 20
145.860900000000020
 11
357.3595
 21
145.860900000000020
  0
LINE
  8
PT3-Grafika_wekt5
  6
CONTINUOUS
 62
     7
 10
465.8376
 20
179.851800000000000
 11
465.8376
 21
180.151799999999980
  0
LINE
  8
PT3-Grafika_wekt5
  6
CONTINUOUS
 62
     7
 10
465.8376
 20
180.151799999999980
 11
466.5372
 21
180.851600000000020
  0
LINE
  8
PT3-Grafika_wekt5
  6
CONTINUOUS
 62
     7
 10
466.5372
 20
180.851600000000020
 11
466.5372
 21
191.148900000000000
  0
LINE
  8
PT3-Grafika_wekt5
  6
CONTINUOUS
 62
     7
 10
466.5372
 20
191.148900000000000
 11
465.8376
 21
191.848700000000010
  0
LINE
  8
PT3-Grafika_wekt5
  6
CONTINUOUS
 62
     7
 10
465.8376
 20
191.848700000000010
 11
480.8277
 21
191.848700000000010
  0
LINE
  8
PT3-Grafika_wekt5
  6
CONTINUOUS
 62
     7
 10
480.8277
 20
191.848700000000010
 11
480.1281
 21
191.148900000000000
  0
LINE
  8
PT3-Grafika_wekt5
  6
CONTINUOUS
 62
     7
 10
480.1281
 20
191.148900000000000
 11
466.5372
 21
191.148900000000000
  0
LINE
  8
PT3-Grafika_wekt5
  6
CONTINUOUS
 62
     7
 10
465.8376
 20
180.151799999999980
 11
480.8277
 21
180.151799999999980
  0
LINE
  8
PT3-Grafika_wekt5
  6
CONTINUOUS
 62
     7
 10
480.8277
 20
180.151799999999980
 11
480.1281
 21
180.851600000000020
  0
LINE
  8
PT3-Grafika_wekt5
  6
CONTINUOUS
 62
     7
 10
480.1281
 20
180.851600000000020
 11
466.5372
 21
180.851600000000020
  0
LINE
  8
PT3-Grafika_wekt5
  6
CONTINUOUS
 62
     7
 10
480.1281
 20
180.851600000000020
 11
480.1281
 21
191.148900000000000
  0
LINE
  8
PT3-Grafika_wekt5
  6
CONTINUOUS
 62
     7
 10
480.8277
 20
179.851800000000000
 11
465.8376
 21
179.851800000000000
  0
LINE
  8
PT3-Grafika_wekt5
  6
CONTINUOUS
 62
     7
 10
480.8277
 20
180.151799999999980
 11
480.8277
 21
179.851800000000000
  0
LINE
  8
PT3-Grafika_wekt5
  6
CONTINUOUS
 62
     7
 10
552.8297
 20
179.851800000000000
 11
553.3296
 21
179.851800000000000
  0
LINE
  8
PT3-Grafika_wekt5
  6
CONTINUOUS
 62
     7
 10
553.3296
 20
179.851800000000000
 11
553.3296
 21
180.151799999999980
  0
LINE
  8
PT3-Grafika_wekt5
  6
CONTINUOUS
 62
     7
 10
553.3296
 20
180.151799999999980
 11
552.8297
 21
180.151799999999980
  0
LINE
  8
PT3-Grafika_wekt5
  6
CONTINUOUS
 62
     7
 10
449.8983
 20
210.772200000000000
 11
449.8983
 21
220.141300000000000
  0
LINE
  8
PT3-Grafika_wekt5
  6
CONTINUOUS
 62
     7
 10
449.8983
 20
220.141300000000000
 11
456.294
 21
220.141300000000000
  0
LINE
  8
PT3-Grafika_wekt5
  6
CONTINUOUS
 62
     7
 10
456.294
 20
220.141300000000000
 11
456.294
 21
214.927300000000000
  0
LINE
  8
PT3-Grafika_wekt5
  6
CONTINUOUS
 62
     7
 10
65.0209
 20
160.503600000000010
 11
65.0677
 21
160.503600000000010
  0
LINE
  8
PT3-Grafika_wekt5
  6
CONTINUOUS
 62
     7
 10
65.0677
 20
160.503600000000010
 11
65.1446
 21
159.973400000000000
  0
LINE
  8
PT3-Grafika_wekt5
  6
CONTINUOUS
 62
     7
 10
65.1446
 20
159.973400000000000
 11
65.0978
 21
159.973400000000000
  0
LINE
  8
PT3-Grafika_wekt5
  6
CONTINUOUS
 62
     7
 10
65.0978
 20
159.973400000000000
 11
65.0209
 21
160.503600000000010
  0
LINE
  8
PT3-Grafika_wekt5
  6
CONTINUOUS
 62
     7
 10
65.0443
 20
160.503600000000010
 11
65.1211
 21
159.973400000000000
  0
LINE
  8
PT3-Grafika_wekt5
  6
CONTINUOUS
 62
     7
 10
65.1211
 20
159.973400000000000
 11
65.3068
 21
159.753699999999980
  0
LINE
  8
PT3-Grafika_wekt5
  6
CONTINUOUS
 62
     7
 10
65.3068
 20
159.753699999999980
 11
271.0696
 21
159.753699999999980
  0
LINE
  8
PT3-Grafika_wekt5
  6
CONTINUOUS
 62
     7
 10
271.0696
 20
159.753699999999980
 11
270.884
 21
159.973400000000000
  0
LINE
  8
PT3-Grafika_wekt5
  6
CONTINUOUS
 62
     7
 10
270.884
 20
159.973400000000000
 11
270.8071
 21
160.503600000000010
  0
LINE
  8
PT3-Grafika_wekt5
  6
CONTINUOUS
 62
     7
 10
270.8071
 20
160.503600000000010
 11
65.0443
 21
160.503600000000010
  0
LINE
  8
PT3-Grafika_wekt5
  6
CONTINUOUS
 62
     7
 10
65.0978
 20
159.973400000000000
 11
65.2834
 21
159.753699999999980
  0
LINE
  8
PT3-Grafika_wekt5
  6
CONTINUOUS
 62
     7
 10
65.2834
 20
159.753699999999980
 11
65.3301
 21
159.753699999999980
  0
LINE
  8
PT3-Grafika_wekt5
  6
CONTINUOUS
 62
     7
 10
65.3301
 20
159.753699999999980
 11
65.1446
 21
159.973400000000000
  0
LINE
  8
PT3-Grafika_wekt5
  6
CONTINUOUS
 62
     7
 10
65.5575
 20
158.904000000000000
 11
65.5808
 21
158.837200000000000
  0
LINE
  8
PT3-Grafika_wekt5
  6
CONTINUOUS
 62
     7
 10
65.5575
 20
158.904000000000000
 11
65.651
 21
158.904000000000000
  0
LINE
  8
PT3-Grafika_wekt5
  6
CONTINUOUS
 62
     7
 10
65.5795
 20
158.833300000000010
 11
65.6042
 21
158.904000000000000
  0
LINE
  8
PT3-Grafika_wekt5
  6
CONTINUOUS
 62
     7
 10
65.6042
 20
158.904000000000000
 11
65.6042
 21
159.753699999999980
  0
LINE
  8
PT3-Grafika_wekt5
  6
CONTINUOUS
 62
     7
 10
65.5795
 20
158.833300000000010
 11
67.4516
 21
158.833300000000010
  0
LINE
  8
PT3-Grafika_wekt5
  6
CONTINUOUS
 62
     7
 10
67.4516
 20
158.833300000000010
 11
67.4764
 21
158.904000000000000
  0
LINE
  8
PT3-Grafika_wekt5
  6
CONTINUOUS
 62
     7
 10
67.4764
 20
158.904000000000000
 11
65.6042
 21
158.904000000000000
  0
LINE
  8
PT3-Grafika_wekt5
  6
CONTINUOUS
 62
     7
 10
65.6042
 20
158.915200000000000
 11
65.5575
 21
158.904000000000000
  0
LINE
  8
PT3-Grafika_wekt5
  6
CONTINUOUS
 62
     7
 10
65.6042
 20
159.103900000000010
 11
271.3671
 21
159.103900000000010
  0
LINE
  8
PT3-Grafika_wekt5
  6
CONTINUOUS
 62
     7
 10
271.3671
 20
159.103900000000010
 11
271.3671
 21
158.904000000000000
  0
LINE
  8
PT3-Grafika_wekt5
  6
CONTINUOUS
 62
     7
 10
271.3671
 20
158.904000000000000
 11
67.4764
 21
158.904000000000000
  0
LINE
  8
PT3-Grafika_wekt5
  6
CONTINUOUS
 62
     7
 10
67.4764
 20
158.904000000000000
 11
67.7733
 21
158.055600000000000
  0
LINE
  8
PT3-Grafika_wekt5
  6
CONTINUOUS
 62
     7
 10
67.7733
 20
158.055600000000000
 11
67.7485
 21
157.985000000000010
  0
LINE
  8
PT3-Grafika_wekt5
  6
CONTINUOUS
 62
     7
 10
67.7485
 20
157.985000000000010
 11
65.8765
 21
157.985000000000010
  0
LINE
  8
PT3-Grafika_wekt5
  6
CONTINUOUS
 62
     7
 10
65.8765
 20
157.985000000000010
 11
65.5795
 21
158.833300000000010
  0
LINE
  8
PT3-Grafika_wekt5
  6
CONTINUOUS
 62
     7
 10
65.6042
 20
160.503600000000010
 11
65.6042
 21
160.903400000000000
  0
LINE
  8
PT3-Grafika_wekt5
  6
CONTINUOUS
 62
     7
 10
65.6042
 20
160.903400000000000
 11
107.6853
 21
170.997700000000010
  0
LINE
  8
PT3-Grafika_wekt5
  6
CONTINUOUS
 62
     7
 10
107.6853
 20
170.997700000000010
 11
276.4125
 21
170.997700000000010
  0
LINE
  8
PT3-Grafika_wekt5
  6
CONTINUOUS
 62
     7
 10
65.6042
 20
160.903400000000000
 11
271.3671
 21
160.903400000000000
  0
LINE
  8
PT3-Grafika_wekt5
  6
CONTINUOUS
 62
     7
 10
271.3671
 20
160.903400000000000
 11
271.3671
 21
159.103900000000010
  0
LINE
  8
PT3-Grafika_wekt5
  6
CONTINUOUS
 62
     7
 10
271.3671
 20
159.103900000000010
 11
285.3659
 21
162.461900000000010
  0
LINE
  8
PT3-Grafika_wekt5
  6
CONTINUOUS
 62
     7
 10
67.4516
 20
158.833300000000010
 11
67.7485
 21
157.985000000000010
  0
LINE
  8
PT3-Grafika_wekt5
  6
CONTINUOUS
 62
     7
 10
67.4764
 20
158.904000000000000
 11
269.4949
 21
158.904000000000000
  0
LINE
  8
PT3-Grafika_wekt5
  6
CONTINUOUS
 62
     7
 10
269.4949
 20
158.904000000000000
 11
269.7919
 21
158.055600000000000
  0
LINE
  8
PT3-Grafika_wekt5
  6
CONTINUOUS
 62
     7
 10
269.7919
 20
158.055600000000000
 11
67.7733
 21
158.055600000000000
  0
LINE
  8
PT3-Grafika_wekt5
  6
CONTINUOUS
 62
     7
 10
67.7733
 20
158.055600000000000
 11
68.5262
 21
157.459200000000010
  0
LINE
  8
PT3-Grafika_wekt5
  6
CONTINUOUS
 62
     7
 10
68.5262
 20
157.459200000000010
 11
68.5416
 21
157.459200000000010
  0
LINE
  8
PT3-Grafika_wekt5
  6
CONTINUOUS
 62
     7
 10
76.551
 20
157.459200000000010
 11
270.5449
 21
157.459200000000010
  0
LINE
  8
PT3-Grafika_wekt5
  6
CONTINUOUS
 62
     7
 10
270.5449
 20
157.459200000000010
 11
269.7919
 21
158.055600000000000
  0
LINE
  8
PT3-Grafika_wekt5
  6
CONTINUOUS
 62
     7
 10
269.7919
 20
158.055600000000000
 11
271.664
 21
158.055600000000000
  0
LINE
  8
PT3-Grafika_wekt5
  6
CONTINUOUS
 62
     7
 10
271.664
 20
158.055600000000000
 11
271.3671
 21
158.904000000000000
  0
LINE
  8
PT3-Grafika_wekt5
  6
CONTINUOUS
 62
     7
 10
271.3671
 20
158.904000000000000
 11
269.4949
 21
158.904000000000000
  0
LINE
  8
PT3-Grafika_wekt5
  6
CONTINUOUS
 62
     7
 10
269.9182
 20
158.055600000000000
 11
270.5449
 21
157.559300000000010
  0
LINE
  8
PT3-Grafika_wekt5
  6
CONTINUOUS
 62
     7
 10
270.5449
 20
157.559300000000010
 11
270.5449
 21
157.459200000000010
  0
LINE
  8
PT3-Grafika_wekt5
  6
CONTINUOUS
 62
     7
 10
270.7837
 20
160.503600000000010
 11
270.8305
 21
160.503600000000010
  0
LINE
  8
PT3-Grafika_wekt5
  6
CONTINUOUS
 62
     7
 10
270.8305
 20
160.503600000000010
 11
270.9074
 21
159.973400000000000
  0
LINE
  8
PT3-Grafika_wekt5
  6
CONTINUOUS
 62
     7
 10
270.9074
 20
159.973400000000000
 11
270.8606
 21
159.973400000000000
  0
LINE
  8
PT3-Grafika_wekt5
  6
CONTINUOUS
 62
     7
 10
270.8606
 20
159.973400000000000
 11
270.7837
 21
160.503600000000010
  0
LINE
  8
PT3-Grafika_wekt5
  6
CONTINUOUS
 62
     7
 10
270.8305
 20
160.503600000000010
 11
271.3555
 21
160.503600000000010
  0
LINE
  8
PT3-Grafika_wekt5
  6
CONTINUOUS
 62
     7
 10
271.3555
 20
160.503600000000010
 11
271.2786
 21
159.973400000000000
  0
LINE
  8
PT3-Grafika_wekt5
  6
CONTINUOUS
 62
     7
 10
271.2786
 20
159.973400000000000
 11
271.093
 21
159.753699999999980
  0
LINE
  8
PT3-Grafika_wekt5
  6
CONTINUOUS
 62
     7
 10
271.093
 20
159.753699999999980
 11
270.9074
 21
159.973400000000000
  0
LINE
  8
PT3-Grafika_wekt5
  6
CONTINUOUS
 62
     7
 10
270.8606
 20
159.973400000000000
 11
271.0462
 21
159.753699999999980
  0
LINE
  8
PT3-Grafika_wekt5
  6
CONTINUOUS
 62
     7
 10
271.0462
 20
159.753699999999980
 11
271.093
 21
159.753699999999980
  0
LINE
  8
PT3-Grafika_wekt5
  6
CONTINUOUS
 62
     7
 10
271.3203
 20
158.904000000000000
 11
271.3671
 21
158.904000000000000
  0
LINE
  8
PT3-Grafika_wekt5
  6
CONTINUOUS
 62
     7
 10
271.3671
 20
158.904000000000000
 11
271.3918
 21
158.974699999999980
  0
LINE
  8
PT3-Grafika_wekt5
  6
CONTINUOUS
 62
     7
 10
271.3918
 20
158.974699999999980
 11
271.4128
 21
158.915000000000020
  0
LINE
  8
PT3-Grafika_wekt5
  6
CONTINUOUS
 62
     7
 10
271.3671
 20
158.904000000000000
 11
271.4139
 21
158.904000000000000
  0
LINE
  8
PT3-Grafika_wekt5
  6
CONTINUOUS
 62
     7
 10
271.4139
 20
158.904000000000000
 11
271.7108
 21
158.055600000000000
  0
LINE
  8
PT3-Grafika_wekt5
  6
CONTINUOUS
 62
     7
 10
271.7108
 20
158.055600000000000
 11
271.6172
 21
158.055600000000000
  0
LINE
  8
PT3-Grafika_wekt5
  6
CONTINUOUS
 62
     7
 10
271.6172
 20
158.055600000000000
 11
271.3203
 21
158.904000000000000
  0
LINE
  8
PT3-Grafika_wekt5
  6
CONTINUOUS
 62
     7
 10
271.3671
 20
160.903400000000000
 11
285.3659
 21
164.261399999999980
  0
LINE
  8
PT3-Grafika_wekt5
  6
CONTINUOUS
 62
     7
 10
271.4139
 20
158.904000000000000
 11
285.4193
 21
162.263600000000000
  0
LINE
  8
PT3-Grafika_wekt5
  6
CONTINUOUS
 62
     7
 10
271.7108
 20
158.055600000000000
 11
285.4193
 21
161.343900000000020
  0
LINE
  8
PT3-Grafika_wekt5
  6
CONTINUOUS
 62
     7
 10
285.3659
 20
162.262000000000000
 11
271.3671
 21
158.904000000000000
  0
LINE
  8
PT3-Grafika_wekt5
  6
CONTINUOUS
 62
     7
 10
241.9789
 20
109.870399999999990
 11
241.9789
 21
110.170400000000000
  0
LINE
  8
PT3-Grafika_wekt5
  6
CONTINUOUS
 62
     7
 10
241.9789
 20
110.170400000000000
 11
254.1488
 21
110.170400000000000
  0
LINE
  8
PT3-Grafika_wekt5
  6
CONTINUOUS
 62
     7
 10
254.1488
 20
110.170400000000000
 11
254.1488
 21
109.870399999999990
  0
LINE
  8
PT3-Grafika_wekt5
  6
CONTINUOUS
 62
     7
 10
254.1488
 20
109.870399999999990
 11
241.9789
 21
109.870399999999990
  0
LINE
  8
PT3-Grafika_wekt5
  6
CONTINUOUS
 62
     7
 10
242.5034
 20
143.861099999999990
 11
242.5034
 21
143.861500000000010
  0
LINE
  8
PT3-Grafika_wekt5
  6
CONTINUOUS
 62
     7
 10
242.5034
 20
143.861500000000010
 11
243.1588
 21
143.161600000000020
  0
LINE
  8
PT3-Grafika_wekt5
  6
CONTINUOUS
 62
     7
 10
243.1588
 20
143.161600000000020
 11
243.1588
 21
110.870200000000010
  0
LINE
  8
PT3-Grafika_wekt5
  6
CONTINUOUS
 62
     7
 10
243.1588
 20
110.870200000000010
 11
242.5037
 21
110.170600000000010
  0
LINE
  8
PT3-Grafika_wekt5
  6
CONTINUOUS
 62
     7
 10
243.1588
 20
110.870200000000010
 11
254.0181
 21
110.870200000000010
  0
LINE
  8
PT3-Grafika_wekt5
  6
CONTINUOUS
 62
     7
 10
254.0181
 20
110.870200000000010
 11
254.0181
 21
143.161600000000020
  0
LINE
  8
PT3-Grafika_wekt5
  6
CONTINUOUS
 62
     7
 10
254.0181
 20
143.161600000000020
 11
243.1588
 21
143.161600000000020
  0
LINE
  8
PT3-Grafika_wekt5
  6
CONTINUOUS
 62
     7
 10
243.1623
 20
118.867999999999990
 11
254.0181
 21
118.867999999999990
  0
LINE
  8
PT3-Grafika_wekt5
  6
CONTINUOUS
 62
     7
 10
243.1623
 20
119.267900000000000
 11
254.0181
 21
119.267900000000000
  0
LINE
  8
PT3-Grafika_wekt5
  6
CONTINUOUS
 62
     7
 10
243.1623
 20
132.264500000000000
 11
254.0181
 21
132.264500000000000
  0
LINE
  8
PT3-Grafika_wekt5
  6
CONTINUOUS
 62
     7
 10
243.1623
 20
132.664500000000000
 11
254.0181
 21
132.664500000000000
  0
LINE
  8
PT3-Grafika_wekt5
  6
CONTINUOUS
 62
     7
 10
243.22
 20
110.870200000000010
 11
243.22
 21
118.867999999999990
  0
LINE
  8
PT3-Grafika_wekt5
  6
CONTINUOUS
 62
     7
 10
243.22
 20
119.267900000000000
 11
243.22
 21
132.264500000000000
  0
LINE
  8
PT3-Grafika_wekt5
  6
CONTINUOUS
 62
     7
 10
243.22
 20
132.664500000000000
 11
243.22
 21
143.161600000000020
  0
LINE
  8
PT3-Grafika_wekt5
  6
CONTINUOUS
 62
     7
 10
254.0181
 20
110.870200000000010
 11
254.6735
 21
110.170400000000000
  0
LINE
  8
PT3-Grafika_wekt5
  6
CONTINUOUS
 62
     7
 10
254.6735
 20
110.170400000000000
 11
254.6735
 21
143.861500000000010
  0
LINE
  8
PT3-Grafika_wekt5
  6
CONTINUOUS
 62
     7
 10
254.6735
 20
143.861500000000010
 11
254.0181
 21
143.161600000000020
  0
LINE
  8
PT3-Grafika_wekt5
  6
CONTINUOUS
 62
     7
 10
254.1489
 20
109.870399999999990
 11
254.1489
 21
110.170400000000000
  0
LINE
  8
PT3-Grafika_wekt5
  6
CONTINUOUS
 62
     7
 10
254.1489
 20
110.170400000000000
 11
266.3189
 21
110.170400000000000
  0
LINE
  8
PT3-Grafika_wekt5
  6
CONTINUOUS
 62
     7
 10
266.3189
 20
110.170400000000000
 11
266.3189
 21
109.870399999999990
  0
LINE
  8
PT3-Grafika_wekt5
  6
CONTINUOUS
 62
     7
 10
266.3189
 20
109.870399999999990
 11
254.1489
 21
109.870399999999990
  0
LINE
  8
PT3-Grafika_wekt5
  6
CONTINUOUS
 62
     7
 10
254.6735
 20
110.170400000000000
 11
254.6735
 21
143.861500000000010
  0
LINE
  8
PT3-Grafika_wekt5
  6
CONTINUOUS
 62
     7
 10
254.6735
 20
143.861500000000010
 11
255.3288
 21
143.161600000000020
  0
LINE
  8
PT3-Grafika_wekt5
  6
CONTINUOUS
 62
     7
 10
255.3288
 20
143.161600000000020
 11
255.3288
 21
110.870200000000010
  0
LINE
  8
PT3-Grafika_wekt5
  6
CONTINUOUS
 62
     7
 10
255.3288
 20
110.870200000000010
 11
254.6735
 21
110.170400000000000
  0
LINE
  8
PT3-Grafika_wekt5
  6
CONTINUOUS
 62
     7
 10
255.3288
 20
110.870200000000010
 11
266.1881
 21
110.870200000000010
  0
LINE
  8
PT3-Grafika_wekt5
  6
CONTINUOUS
 62
     7
 10
266.1881
 20
110.870200000000010
 11
266.1881
 21
143.161600000000020
  0
LINE
  8
PT3-Grafika_wekt5
  6
CONTINUOUS
 62
     7
 10
266.1881
 20
143.161600000000020
 11
255.3288
 21
143.161600000000020
  0
LINE
  8
PT3-Grafika_wekt5
  6
CONTINUOUS
 62
     7
 10
255.3322
 20
123.866700000000010
 11
266.1881
 21
123.866700000000010
  0
LINE
  8
PT3-Grafika_wekt5
  6
CONTINUOUS
 62
     7
 10
255.3322
 20
124.266600000000010
 11
266.1881
 21
124.266600000000010
  0
LINE
  8
PT3-Grafika_wekt5
  6
CONTINUOUS
 62
     7
 10
255.3322
 20
137.263200000000010
 11
266.1881
 21
137.263200000000010
  0
LINE
  8
PT3-Grafika_wekt5
  6
CONTINUOUS
 62
     7
 10
255.3322
 20
137.663000000000010
 11
266.1881
 21
137.663000000000010
  0
LINE
  8
PT3-Grafika_wekt5
  6
CONTINUOUS
 62
     7
 10
255.39
 20
110.870200000000010
 11
255.39
 21
123.866700000000010
  0
LINE
  8
PT3-Grafika_wekt5
  6
CONTINUOUS
 62
     7
 10
255.39
 20
124.266600000000010
 11
255.39
 21
137.263200000000010
  0
LINE
  8
PT3-Grafika_wekt5
  6
CONTINUOUS
 62
     7
 10
255.39
 20
137.663000000000010
 11
255.39
 21
143.161600000000020
  0
LINE
  8
PT3-Grafika_wekt5
  6
CONTINUOUS
 62
     7
 10
266.1881
 20
110.870200000000010
 11
266.4937
 21
110.543800000000000
  0
LINE
  8
PT3-Grafika_wekt5
  6
CONTINUOUS
 62
     7
 10
266.1881
 20
143.161600000000020
 11
266.4937
 21
143.488000000000000
  0
LINE
  8
PT3-Grafika_wekt5
  6
CONTINUOUS
 62
     7
 10
266.3189
 20
109.870399999999990
 11
266.4937
 21
109.870399999999990
  0
LINE
  8
PT3-Grafika_wekt5
  6
CONTINUOUS
 62
     7
 10
266.3189
 20
110.170400000000000
 11
266.4937
 21
110.170400000000000
  0
LINE
  8
PT3-Grafika_wekt5
  6
CONTINUOUS
 62
     7
 10
197.9797
 20
109.870399999999990
 11
197.9797
 21
110.170400000000000
  0
LINE
  8
PT3-Grafika_wekt5
  6
CONTINUOUS
 62
     7
 10
197.9797
 20
110.170400000000000
 11
210.1497
 21
110.170400000000000
  0
LINE
  8
PT3-Grafika_wekt5
  6
CONTINUOUS
 62
     7
 10
210.1497
 20
110.170400000000000
 11
210.1497
 21
109.870399999999990
  0
LINE
  8
PT3-Grafika_wekt5
  6
CONTINUOUS
 62
     7
 10
210.1497
 20
109.870399999999990
 11
197.9797
 21
109.870399999999990
  0
LINE
  8
PT3-Grafika_wekt5
  6
CONTINUOUS
 62
     7
 10
198.5043
 20
110.170400000000000
 11
198.5043
 21
143.861500000000010
  0
LINE
  8
PT3-Grafika_wekt5
  6
CONTINUOUS
 62
     7
 10
198.5043
 20
143.861500000000010
 11
199.1596
 21
143.161600000000020
  0
LINE
  8
PT3-Grafika_wekt5
  6
CONTINUOUS
 62
     7
 10
199.1596
 20
143.161600000000020
 11
199.1596
 21
110.870200000000010
  0
LINE
  8
PT3-Grafika_wekt5
  6
CONTINUOUS
 62
     7
 10
199.1596
 20
110.870200000000010
 11
198.5043
 21
110.170400000000000
  0
LINE
  8
PT3-Grafika_wekt5
  6
CONTINUOUS
 62
     7
 10
199.1596
 20
110.870200000000010
 11
210.019
 21
110.870200000000010
  0
LINE
  8
PT3-Grafika_wekt5
  6
CONTINUOUS
 62
     7
 10
210.019
 20
110.870200000000010
 11
210.019
 21
143.161600000000020
  0
LINE
  8
PT3-Grafika_wekt5
  6
CONTINUOUS
 62
     7
 10
210.019
 20
143.161600000000020
 11
199.1596
 21
143.161600000000020
  0
LINE
  8
PT3-Grafika_wekt5
  6
CONTINUOUS
 62
     7
 10
199.1631
 20
123.866700000000010
 11
210.019
 21
123.866700000000010
  0
LINE
  8
PT3-Grafika_wekt5
  6
CONTINUOUS
 62
     7
 10
199.1631
 20
124.266600000000010
 11
210.019
 21
124.266600000000010
  0
LINE
  8
PT3-Grafika_wekt5
  6
CONTINUOUS
 62
     7
 10
199.1631
 20
137.263200000000010
 11
210.019
 21
137.263200000000010
  0
LINE
  8
PT3-Grafika_wekt5
  6
CONTINUOUS
 62
     7
 10
199.1631
 20
137.663000000000010
 11
210.019
 21
137.663000000000010
  0
LINE
  8
PT3-Grafika_wekt5
  6
CONTINUOUS
 62
     7
 10
199.2208
 20
110.870200000000010
 11
199.2208
 21
123.866700000000010
  0
LINE
  8
PT3-Grafika_wekt5
  6
CONTINUOUS
 62
     7
 10
199.2208
 20
124.266600000000010
 11
199.2208
 21
137.263200000000010
  0
LINE
  8
PT3-Grafika_wekt5
  6
CONTINUOUS
 62
     7
 10
199.2208
 20
137.663000000000010
 11
199.2208
 21
143.161600000000020
  0
LINE
  8
PT3-Grafika_wekt5
  6
CONTINUOUS
 62
     7
 10
210.019
 20
110.870200000000010
 11
210.3246
 21
110.543800000000000
  0
LINE
  8
PT3-Grafika_wekt5
  6
CONTINUOUS
 62
     7
 10
210.019
 20
143.161600000000020
 11
210.3246
 21
143.488000000000000
  0
LINE
  8
PT3-Grafika_wekt5
  6
CONTINUOUS
 62
     7
 10
210.1497
 20
109.870399999999990
 11
210.3246
 21
109.870399999999990
  0
LINE
  8
PT3-Grafika_wekt5
  6
CONTINUOUS
 62
     7
 10
210.1497
 20
110.170400000000000
 11
210.3246
 21
110.170400000000000
  0
LINE
  8
PT3-Grafika_wekt5
  6
CONTINUOUS
 62
     7
 10
213.8943
 20
109.870399999999990
 11
213.8943
 21
110.170400000000000
  0
LINE
  8
PT3-Grafika_wekt5
  6
CONTINUOUS
 62
     7
 10
213.8943
 20
110.170400000000000
 11
226.0643
 21
110.170400000000000
  0
LINE
  8
PT3-Grafika_wekt5
  6
CONTINUOUS
 62
     7
 10
226.0643
 20
110.170400000000000
 11
226.0643
 21
109.870399999999990
  0
LINE
  8
PT3-Grafika_wekt5
  6
CONTINUOUS
 62
     7
 10
226.0643
 20
109.870399999999990
 11
213.8943
 21
109.870399999999990
  0
LINE
  8
PT3-Grafika_wekt5
  6
CONTINUOUS
 62
     7
 10
214.4189
 20
143.861099999999990
 11
214.4189
 21
143.861500000000010
  0
LINE
  8
PT3-Grafika_wekt5
  6
CONTINUOUS
 62
     7
 10
214.4189
 20
143.861500000000010
 11
215.0742
 21
143.161600000000020
  0
LINE
  8
PT3-Grafika_wekt5
  6
CONTINUOUS
 62
     7
 10
215.0742
 20
143.161600000000020
 11
215.0742
 21
110.870200000000010
  0
LINE
  8
PT3-Grafika_wekt5
  6
CONTINUOUS
 62
     7
 10
215.0742
 20
110.870200000000010
 11
214.4191
 21
110.170600000000010
  0
LINE
  8
PT3-Grafika_wekt5
  6
CONTINUOUS
 62
     7
 10
215.0742
 20
110.870200000000010
 11
225.9335
 21
110.870200000000010
  0
LINE
  8
PT3-Grafika_wekt5
  6
CONTINUOUS
 62
     7
 10
225.9335
 20
110.870200000000010
 11
225.9335
 21
143.161600000000020
  0
LINE
  8
PT3-Grafika_wekt5
  6
CONTINUOUS
 62
     7
 10
225.9335
 20
143.161600000000020
 11
215.0742
 21
143.161600000000020
  0
LINE
  8
PT3-Grafika_wekt5
  6
CONTINUOUS
 62
     7
 10
215.0777
 20
118.867999999999990
 11
225.9335
 21
118.867999999999990
  0
LINE
  8
PT3-Grafika_wekt5
  6
CONTINUOUS
 62
     7
 10
215.0777
 20
119.267900000000000
 11
225.9335
 21
119.267900000000000
  0
LINE
  8
PT3-Grafika_wekt5
  6
CONTINUOUS
 62
     7
 10
215.0777
 20
132.264500000000000
 11
225.9335
 21
132.264500000000000
  0
LINE
  8
PT3-Grafika_wekt5
  6
CONTINUOUS
 62
     7
 10
215.0777
 20
132.664500000000000
 11
225.9335
 21
132.664500000000000
  0
LINE
  8
PT3-Grafika_wekt5
  6
CONTINUOUS
 62
     7
 10
215.1354
 20
110.870200000000010
 11
215.1354
 21
118.867999999999990
  0
LINE
  8
PT3-Grafika_wekt5
  6
CONTINUOUS
 62
     7
 10
215.1354
 20
119.267900000000000
 11
215.1354
 21
132.264500000000000
  0
LINE
  8
PT3-Grafika_wekt5
  6
CONTINUOUS
 62
     7
 10
215.1354
 20
132.664500000000000
 11
215.1354
 21
143.161600000000020
  0
LINE
  8
PT3-Grafika_wekt5
  6
CONTINUOUS
 62
     7
 10
225.9335
 20
110.870200000000010
 11
226.5889
 21
110.170400000000000
  0
LINE
  8
PT3-Grafika_wekt5
  6
CONTINUOUS
 62
     7
 10
226.5889
 20
110.170400000000000
 11
226.5889
 21
143.861500000000010
  0
LINE
  8
PT3-Grafika_wekt5
  6
CONTINUOUS
 62
     7
 10
226.5889
 20
143.861500000000010
 11
225.9335
 21
143.161600000000020
  0
LINE
  8
PT3-Grafika_wekt5
  6
CONTINUOUS
 62
     7
 10
226.0643
 20
109.870399999999990
 11
226.0643
 21
110.170400000000000
  0
LINE
  8
PT3-Grafika_wekt5
  6
CONTINUOUS
 62
     7
 10
226.0643
 20
110.170400000000000
 11
238.2343
 21
110.170400000000000
  0
LINE
  8
PT3-Grafika_wekt5
  6
CONTINUOUS
 62
     7
 10
238.2343
 20
110.170400000000000
 11
238.2343
 21
109.870399999999990
  0
LINE
  8
PT3-Grafika_wekt5
  6
CONTINUOUS
 62
     7
 10
238.2343
 20
109.870399999999990
 11
226.0643
 21
109.870399999999990
  0
LINE
  8
PT3-Grafika_wekt5
  6
CONTINUOUS
 62
     7
 10
226.5889
 20
110.170400000000000
 11
226.5889
 21
143.861500000000010
  0
LINE
  8
PT3-Grafika_wekt5
  6
CONTINUOUS
 62
     7
 10
226.5889
 20
143.861500000000010
 11
227.2442
 21
143.161600000000020
  0
LINE
  8
PT3-Grafika_wekt5
  6
CONTINUOUS
 62
     7
 10
227.2442
 20
143.161600000000020
 11
227.2442
 21
110.870200000000010
  0
LINE
  8
PT3-Grafika_wekt5
  6
CONTINUOUS
 62
     7
 10
227.2442
 20
110.870200000000010
 11
226.5889
 21
110.170400000000000
  0
LINE
  8
PT3-Grafika_wekt5
  6
CONTINUOUS
 62
     7
 10
227.2442
 20
110.870200000000010
 11
238.1036
 21
110.870200000000010
  0
LINE
  8
PT3-Grafika_wekt5
  6
CONTINUOUS
 62
     7
 10
238.1036
 20
110.870200000000010
 11
238.1036
 21
143.161600000000020
  0
LINE
  8
PT3-Grafika_wekt5
  6
CONTINUOUS
 62
     7
 10
238.1036
 20
143.161600000000020
 11
227.2442
 21
143.161600000000020
  0
LINE
  8
PT3-Grafika_wekt5
  6
CONTINUOUS
 62
     7
 10
227.2477
 20
123.866700000000010
 11
238.1036
 21
123.866700000000010
  0
LINE
  8
PT3-Grafika_wekt5
  6
CONTINUOUS
 62
     7
 10
227.2477
 20
124.266600000000010
 11
238.1036
 21
124.266600000000010
  0
LINE
  8
PT3-Grafika_wekt5
  6
CONTINUOUS
 62
     7
 10
227.2477
 20
137.263200000000010
 11
238.1036
 21
137.263200000000010
  0
LINE
  8
PT3-Grafika_wekt5
  6
CONTINUOUS
 62
     7
 10
227.2477
 20
137.663000000000010
 11
238.1036
 21
137.663000000000010
  0
LINE
  8
PT3-Grafika_wekt5
  6
CONTINUOUS
 62
     7
 10
227.3054
 20
110.870200000000010
 11
227.3054
 21
123.866700000000010
  0
LINE
  8
PT3-Grafika_wekt5
  6
CONTINUOUS
 62
     7
 10
227.3054
 20
124.266600000000010
 11
227.3054
 21
137.263200000000010
  0
LINE
  8
PT3-Grafika_wekt5
  6
CONTINUOUS
 62
     7
 10
227.3054
 20
137.663000000000010
 11
227.3054
 21
143.161600000000020
  0
LINE
  8
PT3-Grafika_wekt5
  6
CONTINUOUS
 62
     7
 10
238.1036
 20
110.870200000000010
 11
238.4091
 21
110.543800000000000
  0
LINE
  8
PT3-Grafika_wekt5
  6
CONTINUOUS
 62
     7
 10
238.1036
 20
143.161600000000020
 11
238.4091
 21
143.488000000000000
  0
LINE
  8
PT3-Grafika_wekt5
  6
CONTINUOUS
 62
     7
 10
238.2343
 20
109.870399999999990
 11
238.4091
 21
109.870399999999990
  0
LINE
  8
PT3-Grafika_wekt5
  6
CONTINUOUS
 62
     7
 10
238.2343
 20
110.170400000000000
 11
238.4091
 21
110.170400000000000
  0
LINE
  8
PT3-Grafika_wekt5
  6
CONTINUOUS
 62
     7
 10
169.8951
 20
109.870399999999990
 11
169.8951
 21
110.170400000000000
  0
LINE
  8
PT3-Grafika_wekt5
  6
CONTINUOUS
 62
     7
 10
169.8951
 20
110.170400000000000
 11
182.0651
 21
110.170400000000000
  0
LINE
  8
PT3-Grafika_wekt5
  6
CONTINUOUS
 62
     7
 10
182.0651
 20
110.170400000000000
 11
182.0651
 21
109.870399999999990
  0
LINE
  8
PT3-Grafika_wekt5
  6
CONTINUOUS
 62
     7
 10
182.0651
 20
109.870399999999990
 11
169.8951
 21
109.870399999999990
  0
LINE
  8
PT3-Grafika_wekt5
  6
CONTINUOUS
 62
     7
 10
170.4197
 20
110.170400000000000
 11
170.4197
 21
143.861500000000010
  0
LINE
  8
PT3-Grafika_wekt5
  6
CONTINUOUS
 62
     7
 10
170.4197
 20
143.861500000000010
 11
171.075
 21
143.161600000000020
  0
LINE
  8
PT3-Grafika_wekt5
  6
CONTINUOUS
 62
     7
 10
171.075
 20
143.161600000000020
 11
171.075
 21
110.870200000000010
  0
LINE
  8
PT3-Grafika_wekt5
  6
CONTINUOUS
 62
     7
 10
171.075
 20
110.870200000000010
 11
170.4197
 21
110.170400000000000
  0
LINE
  8
PT3-Grafika_wekt5
  6
CONTINUOUS
 62
     7
 10
171.075
 20
110.870200000000010
 11
181.9344
 21
110.870200000000010
  0
LINE
  8
PT3-Grafika_wekt5
  6
CONTINUOUS
 62
     7
 10
181.9344
 20
110.870200000000010
 11
181.9344
 21
143.161600000000020
  0
LINE
  8
PT3-Grafika_wekt5
  6
CONTINUOUS
 62
     7
 10
181.9344
 20
143.161600000000020
 11
171.075
 21
143.161600000000020
  0
LINE
  8
PT3-Grafika_wekt5
  6
CONTINUOUS
 62
     7
 10
171.0785
 20
123.866700000000010
 11
181.9344
 21
123.866700000000010
  0
LINE
  8
PT3-Grafika_wekt5
  6
CONTINUOUS
 62
     7
 10
171.0785
 20
124.266600000000010
 11
181.9344
 21
124.266600000000010
  0
LINE
  8
PT3-Grafika_wekt5
  6
CONTINUOUS
 62
     7
 10
171.0785
 20
137.263200000000010
 11
181.9344
 21
137.263200000000010
  0
LINE
  8
PT3-Grafika_wekt5
  6
CONTINUOUS
 62
     7
 10
171.0785
 20
137.663000000000010
 11
181.9344
 21
137.663000000000010
  0
LINE
  8
PT3-Grafika_wekt5
  6
CONTINUOUS
 62
     7
 10
171.1362
 20
110.870200000000010
 11
171.1362
 21
123.866700000000010
  0
LINE
  8
PT3-Grafika_wekt5
  6
CONTINUOUS
 62
     7
 10
171.1362
 20
124.266600000000010
 11
171.1362
 21
137.263200000000010
  0
LINE
  8
PT3-Grafika_wekt5
  6
CONTINUOUS
 62
     7
 10
171.1362
 20
137.663000000000010
 11
171.1362
 21
143.161600000000020
  0
LINE
  8
PT3-Grafika_wekt5
  6
CONTINUOUS
 62
     7
 10
181.9344
 20
110.870200000000010
 11
182.24
 21
110.543800000000000
  0
LINE
  8
PT3-Grafika_wekt5
  6
CONTINUOUS
 62
     7
 10
181.9344
 20
143.161600000000020
 11
182.24
 21
143.488000000000000
  0
LINE
  8
PT3-Grafika_wekt5
  6
CONTINUOUS
 62
     7
 10
182.0651
 20
109.870399999999990
 11
182.24
 21
109.870399999999990
  0
LINE
  8
PT3-Grafika_wekt5
  6
CONTINUOUS
 62
     7
 10
182.0651
 20
110.170400000000000
 11
182.24
 21
110.170400000000000
  0
LINE
  8
PT3-Grafika_wekt5
  6
CONTINUOUS
 62
     7
 10
185.8097
 20
109.870399999999990
 11
185.8097
 21
110.170400000000000
  0
LINE
  8
PT3-Grafika_wekt5
  6
CONTINUOUS
 62
     7
 10
185.8097
 20
110.170400000000000
 11
197.9797
 21
110.170400000000000
  0
LINE
  8
PT3-Grafika_wekt5
  6
CONTINUOUS
 62
     7
 10
197.9797
 20
110.170400000000000
 11
197.9797
 21
109.870399999999990
  0
LINE
  8
PT3-Grafika_wekt5
  6
CONTINUOUS
 62
     7
 10
197.9797
 20
109.870399999999990
 11
185.8097
 21
109.870399999999990
  0
LINE
  8
PT3-Grafika_wekt5
  6
CONTINUOUS
 62
     7
 10
186.3343
 20
143.861099999999990
 11
186.3343
 21
143.861500000000010
  0
LINE
  8
PT3-Grafika_wekt5
  6
CONTINUOUS
 62
     7
 10
186.3343
 20
143.861500000000010
 11
186.9896
 21
143.161600000000020
  0
LINE
  8
PT3-Grafika_wekt5
  6
CONTINUOUS
 62
     7
 10
186.9896
 20
143.161600000000020
 11
186.9896
 21
110.870200000000010
  0
LINE
  8
PT3-Grafika_wekt5
  6
CONTINUOUS
 62
     7
 10
186.9896
 20
110.870200000000010
 11
186.3344
 21
110.170500000000000
  0
LINE
  8
PT3-Grafika_wekt5
  6
CONTINUOUS
 62
     7
 10
186.9896
 20
110.870200000000010
 11
197.8489
 21
110.870200000000010
  0
LINE
  8
PT3-Grafika_wekt5
  6
CONTINUOUS
 62
     7
 10
197.8489
 20
110.870200000000010
 11
197.8489
 21
143.161600000000020
  0
LINE
  8
PT3-Grafika_wekt5
  6
CONTINUOUS
 62
     7
 10
197.8489
 20
143.161600000000020
 11
186.9896
 21
143.161600000000020
  0
LINE
  8
PT3-Grafika_wekt5
  6
CONTINUOUS
 62
     7
 10
186.9931
 20
118.867999999999990
 11
197.8489
 21
118.867999999999990
  0
LINE
  8
PT3-Grafika_wekt5
  6
CONTINUOUS
 62
     7
 10
186.9931
 20
119.267900000000000
 11
197.8489
 21
119.267900000000000
  0
LINE
  8
PT3-Grafika_wekt5
  6
CONTINUOUS
 62
     7
 10
186.9931
 20
132.264500000000000
 11
197.8489
 21
132.264500000000000
  0
LINE
  8
PT3-Grafika_wekt5
  6
CONTINUOUS
 62
     7
 10
186.9931
 20
132.664500000000000
 11
197.8489
 21
132.664500000000000
  0
LINE
  8
PT3-Grafika_wekt5
  6
CONTINUOUS
 62
     7
 10
187.0507
 20
110.870200000000010
 11
187.0507
 21
118.867999999999990
  0
LINE
  8
PT3-Grafika_wekt5
  6
CONTINUOUS
 62
     7
 10
187.0507
 20
119.267900000000000
 11
187.0507
 21
132.264500000000000
  0
LINE
  8
PT3-Grafika_wekt5
  6
CONTINUOUS
 62
     7
 10
187.0507
 20
132.664500000000000
 11
187.0507
 21
143.161600000000020
  0
LINE
  8
PT3-Grafika_wekt5
  6
CONTINUOUS
 62
     7
 10
197.8489
 20
110.870200000000010
 11
198.5043
 21
110.170400000000000
  0
LINE
  8
PT3-Grafika_wekt5
  6
CONTINUOUS
 62
     7
 10
198.5043
 20
110.170400000000000
 11
198.5043
 21
143.861500000000010
  0
LINE
  8
PT3-Grafika_wekt5
  6
CONTINUOUS
 62
     7
 10
198.5043
 20
143.861500000000010
 11
197.8489
 21
143.161600000000020
  0
LINE
  8
PT3-Grafika_wekt5
  6
CONTINUOUS
 62
     7
 10
129.6406
 20
109.870399999999990
 11
129.6406
 21
110.170400000000000
  0
LINE
  8
PT3-Grafika_wekt5
  6
CONTINUOUS
 62
     7
 10
129.6406
 20
110.170400000000000
 11
141.8106
 21
110.170400000000000
  0
LINE
  8
PT3-Grafika_wekt5
  6
CONTINUOUS
 62
     7
 10
141.8106
 20
110.170400000000000
 11
141.8106
 21
109.870399999999990
  0
LINE
  8
PT3-Grafika_wekt5
  6
CONTINUOUS
 62
     7
 10
141.8106
 20
109.870399999999990
 11
129.6406
 21
109.870399999999990
  0
LINE
  8
PT3-Grafika_wekt5
  6
CONTINUOUS
 62
     7
 10
130.1651
 20
143.861099999999990
 11
130.1651
 21
143.861500000000010
  0
LINE
  8
PT3-Grafika_wekt5
  6
CONTINUOUS
 62
     7
 10
130.1651
 20
143.861500000000010
 11
130.8205
 21
143.161600000000020
  0
LINE
  8
PT3-Grafika_wekt5
  6
CONTINUOUS
 62
     7
 10
130.8205
 20
143.161600000000020
 11
130.8205
 21
110.870200000000010
  0
LINE
  8
PT3-Grafika_wekt5
  6
CONTINUOUS
 62
     7
 10
130.8205
 20
110.870200000000010
 11
130.1653
 21
110.170500000000000
  0
LINE
  8
PT3-Grafika_wekt5
  6
CONTINUOUS
 62
     7
 10
130.8205
 20
110.870200000000010
 11
141.6798
 21
110.870200000000010
  0
LINE
  8
PT3-Grafika_wekt5
  6
CONTINUOUS
 62
     7
 10
141.6798
 20
110.870200000000010
 11
141.6798
 21
143.161600000000020
  0
LINE
  8
PT3-Grafika_wekt5
  6
CONTINUOUS
 62
     7
 10
141.6798
 20
143.161600000000020
 11
130.8205
 21
143.161600000000020
  0
LINE
  8
PT3-Grafika_wekt5
  6
CONTINUOUS
 62
     7
 10
130.8239
 20
118.867999999999990
 11
141.6798
 21
118.867999999999990
  0
LINE
  8
PT3-Grafika_wekt5
  6
CONTINUOUS
 62
     7
 10
130.8239
 20
119.267900000000000
 11
141.6798
 21
119.267900000000000
  0
LINE
  8
PT3-Grafika_wekt5
  6
CONTINUOUS
 62
     7
 10
130.8239
 20
132.264500000000000
 11
141.6798
 21
132.264500000000000
  0
LINE
  8
PT3-Grafika_wekt5
  6
CONTINUOUS
 62
     7
 10
130.8239
 20
132.664500000000000
 11
141.6798
 21
132.664500000000000
  0
LINE
  8
PT3-Grafika_wekt5
  6
CONTINUOUS
 62
     7
 10
130.8816
 20
110.870200000000010
 11
130.8816
 21
118.867999999999990
  0
LINE
  8
PT3-Grafika_wekt5
  6
CONTINUOUS
 62
     7
 10
130.8816
 20
119.267900000000000
 11
130.8816
 21
132.264500000000000
  0
LINE
  8
PT3-Grafika_wekt5
  6
CONTINUOUS
 62
     7
 10
130.8816
 20
132.664500000000000
 11
130.8816
 21
143.161600000000020
  0
LINE
  8
PT3-Grafika_wekt5
  6
CONTINUOUS
 62
     7
 10
141.6798
 20
110.870200000000010
 11
142.3351
 21
110.170400000000000
  0
LINE
  8
PT3-Grafika_wekt5
  6
CONTINUOUS
 62
     7
 10
142.3351
 20
110.170400000000000
 11
142.3351
 21
143.861500000000010
  0
LINE
  8
PT3-Grafika_wekt5
  6
CONTINUOUS
 62
     7
 10
142.3351
 20
143.861500000000010
 11
141.6798
 21
143.161600000000020
  0
LINE
  8
PT3-Grafika_wekt5
  6
CONTINUOUS
 62
     7
 10
141.8106
 20
109.870399999999990
 11
141.8106
 21
110.170400000000000
  0
LINE
  8
PT3-Grafika_wekt5
  6
CONTINUOUS
 62
     7
 10
141.8106
 20
110.170400000000000
 11
153.9805
 21
110.170400000000000
  0
LINE
  8
PT3-Grafika_wekt5
  6
CONTINUOUS
 62
     7
 10
153.9805
 20
110.170400000000000
 11
153.9805
 21
109.870399999999990
  0
LINE
  8
PT3-Grafika_wekt5
  6
CONTINUOUS
 62
     7
 10
153.9805
 20
109.870399999999990
 11
141.8106
 21
109.870399999999990
  0
LINE
  8
PT3-Grafika_wekt5
  6
CONTINUOUS
 62
     7
 10
142.3351
 20
110.170400000000000
 11
142.3351
 21
143.861500000000010
  0
LINE
  8
PT3-Grafika_wekt5
  6
CONTINUOUS
 62
     7
 10
142.3351
 20
143.861500000000010
 11
142.9904
 21
143.161600000000020
  0
LINE
  8
PT3-Grafika_wekt5
  6
CONTINUOUS
 62
     7
 10
142.9904
 20
143.161600000000020
 11
142.9904
 21
110.870200000000010
  0
LINE
  8
PT3-Grafika_wekt5
  6
CONTINUOUS
 62
     7
 10
142.9904
 20
110.870200000000010
 11
142.3351
 21
110.170400000000000
  0
LINE
  8
PT3-Grafika_wekt5
  6
CONTINUOUS
 62
     7
 10
142.9904
 20
110.870200000000010
 11
153.8498
 21
110.870200000000010
  0
LINE
  8
PT3-Grafika_wekt5
  6
CONTINUOUS
 62
     7
 10
153.8498
 20
110.870200000000010
 11
153.8498
 21
143.161600000000020
  0
LINE
  8
PT3-Grafika_wekt5
  6
CONTINUOUS
 62
     7
 10
153.8498
 20
143.161600000000020
 11
142.9904
 21
143.161600000000020
  0
LINE
  8
PT3-Grafika_wekt5
  6
CONTINUOUS
 62
     7
 10
142.9939
 20
123.866700000000010
 11
153.8498
 21
123.866700000000010
  0
LINE
  8
PT3-Grafika_wekt5
  6
CONTINUOUS
 62
     7
 10
142.9939
 20
124.266600000000010
 11
153.8498
 21
124.266600000000010
  0
LINE
  8
PT3-Grafika_wekt5
  6
CONTINUOUS
 62
     7
 10
142.9939
 20
137.263200000000010
 11
153.8498
 21
137.263200000000010
  0
LINE
  8
PT3-Grafika_wekt5
  6
CONTINUOUS
 62
     7
 10
142.9939
 20
137.663000000000010
 11
153.8498
 21
137.663000000000010
  0
LINE
  8
PT3-Grafika_wekt5
  6
CONTINUOUS
 62
     7
 10
143.0516
 20
110.870200000000010
 11
143.0516
 21
123.866700000000010
  0
LINE
  8
PT3-Grafika_wekt5
  6
CONTINUOUS
 62
     7
 10
143.0516
 20
124.266600000000010
 11
143.0516
 21
137.263200000000010
  0
LINE
  8
PT3-Grafika_wekt5
  6
CONTINUOUS
 62
     7
 10
143.0516
 20
137.663000000000010
 11
143.0516
 21
143.161600000000020
  0
LINE
  8
PT3-Grafika_wekt5
  6
CONTINUOUS
 62
     7
 10
153.8498
 20
110.870200000000010
 11
154.1554
 21
110.543800000000000
  0
LINE
  8
PT3-Grafika_wekt5
  6
CONTINUOUS
 62
     7
 10
153.8498
 20
143.161600000000020
 11
154.1554
 21
143.488000000000000
  0
LINE
  8
PT3-Grafika_wekt5
  6
CONTINUOUS
 62
     7
 10
153.9805
 20
109.870399999999990
 11
154.1554
 21
109.870399999999990
  0
LINE
  8
PT3-Grafika_wekt5
  6
CONTINUOUS
 62
     7
 10
153.9805
 20
110.170400000000000
 11
154.1554
 21
110.170400000000000
  0
LINE
  8
PT3-Grafika_wekt5
  6
CONTINUOUS
 62
     7
 10
157.7251
 20
109.870399999999990
 11
157.7251
 21
110.170400000000000
  0
LINE
  8
PT3-Grafika_wekt5
  6
CONTINUOUS
 62
     7
 10
157.7251
 20
110.170400000000000
 11
169.8951
 21
110.170400000000000
  0
LINE
  8
PT3-Grafika_wekt5
  6
CONTINUOUS
 62
     7
 10
169.8951
 20
110.170400000000000
 11
169.8951
 21
109.870399999999990
  0
LINE
  8
PT3-Grafika_wekt5
  6
CONTINUOUS
 62
     7
 10
169.8951
 20
109.870399999999990
 11
157.7251
 21
109.870399999999990
  0
LINE
  8
PT3-Grafika_wekt5
  6
CONTINUOUS
 62
     7
 10
158.2497
 20
143.861099999999990
 11
158.2497
 21
143.861500000000010
  0
LINE
  8
PT3-Grafika_wekt5
  6
CONTINUOUS
 62
     7
 10
158.2497
 20
143.861500000000010
 11
158.905
 21
143.161600000000020
  0
LINE
  8
PT3-Grafika_wekt5
  6
CONTINUOUS
 62
     7
 10
158.905
 20
143.161600000000020
 11
158.905
 21
110.870200000000010
  0
LINE
  8
PT3-Grafika_wekt5
  6
CONTINUOUS
 62
     7
 10
158.905
 20
110.870200000000010
 11
158.2499
 21
110.170500000000000
  0
LINE
  8
PT3-Grafika_wekt5
  6
CONTINUOUS
 62
     7
 10
158.905
 20
110.870200000000010
 11
169.7644
 21
110.870200000000010
  0
LINE
  8
PT3-Grafika_wekt5
  6
CONTINUOUS
 62
     7
 10
169.7644
 20
110.870200000000010
 11
169.7644
 21
143.161600000000020
  0
LINE
  8
PT3-Grafika_wekt5
  6
CONTINUOUS
 62
     7
 10
169.7644
 20
143.161600000000020
 11
158.905
 21
143.161600000000020
  0
LINE
  8
PT3-Grafika_wekt5
  6
CONTINUOUS
 62
     7
 10
158.9085
 20
118.867999999999990
 11
169.7644
 21
118.867999999999990
  0
LINE
  8
PT3-Grafika_wekt5
  6
CONTINUOUS
 62
     7
 10
158.9085
 20
119.267900000000000
 11
169.7644
 21
119.267900000000000
  0
LINE
  8
PT3-Grafika_wekt5
  6
CONTINUOUS
 62
     7
 10
158.9085
 20
132.264500000000000
 11
169.7644
 21
132.264500000000000
  0
LINE
  8
PT3-Grafika_wekt5
  6
CONTINUOUS
 62
     7
 10
158.9085
 20
132.664500000000000
 11
169.7644
 21
132.664500000000000
  0
LINE
  8
PT3-Grafika_wekt5
  6
CONTINUOUS
 62
     7
 10
158.9662
 20
110.870200000000010
 11
158.9662
 21
118.867999999999990
  0
LINE
  8
PT3-Grafika_wekt5
  6
CONTINUOUS
 62
     7
 10
158.9662
 20
119.267900000000000
 11
158.9662
 21
132.264500000000000
  0
LINE
  8
PT3-Grafika_wekt5
  6
CONTINUOUS
 62
     7
 10
158.9662
 20
132.664500000000000
 11
158.9662
 21
143.161600000000020
  0
LINE
  8
PT3-Grafika_wekt5
  6
CONTINUOUS
 62
     7
 10
169.7644
 20
110.870200000000010
 11
170.4197
 21
110.170400000000000
  0
LINE
  8
PT3-Grafika_wekt5
  6
CONTINUOUS
 62
     7
 10
170.4197
 20
110.170400000000000
 11
170.4197
 21
143.861500000000010
  0
LINE
  8
PT3-Grafika_wekt5
  6
CONTINUOUS
 62
     7
 10
170.4197
 20
143.861500000000010
 11
169.7644
 21
143.161600000000020
  0
LINE
  8
PT3-Grafika_wekt5
  6
CONTINUOUS
 62
     7
 10
101.5559
 20
109.870399999999990
 11
101.5559
 21
110.170400000000000
  0
LINE
  8
PT3-Grafika_wekt5
  6
CONTINUOUS
 62
     7
 10
101.5559
 20
110.170400000000000
 11
113.7259
 21
110.170400000000000
  0
LINE
  8
PT3-Grafika_wekt5
  6
CONTINUOUS
 62
     7
 10
113.7259
 20
110.170400000000000
 11
113.7259
 21
109.870399999999990
  0
LINE
  8
PT3-Grafika_wekt5
  6
CONTINUOUS
 62
     7
 10
113.7259
 20
109.870399999999990
 11
101.5559
 21
109.870399999999990
  0
LINE
  8
PT3-Grafika_wekt5
  6
CONTINUOUS
 62
     7
 10
102.0805
 20
143.861099999999990
 11
102.0805
 21
143.861500000000010
  0
LINE
  8
PT3-Grafika_wekt5
  6
CONTINUOUS
 62
     7
 10
102.0805
 20
143.861500000000010
 11
102.7358
 21
143.161600000000020
  0
LINE
  8
PT3-Grafika_wekt5
  6
CONTINUOUS
 62
     7
 10
102.7358
 20
143.161600000000020
 11
102.7358
 21
110.870200000000010
  0
LINE
  8
PT3-Grafika_wekt5
  6
CONTINUOUS
 62
     7
 10
102.7358
 20
110.870200000000010
 11
102.0805
 21
110.170500000000000
  0
LINE
  8
PT3-Grafika_wekt5
  6
CONTINUOUS
 62
     7
 10
102.7358
 20
110.870200000000010
 11
113.5951
 21
110.870200000000010
  0
LINE
  8
PT3-Grafika_wekt5
  6
CONTINUOUS
 62
     7
 10
113.5951
 20
110.870200000000010
 11
113.5951
 21
143.161600000000020
  0
LINE
  8
PT3-Grafika_wekt5
  6
CONTINUOUS
 62
     7
 10
113.5951
 20
143.161600000000020
 11
102.7358
 21
143.161600000000020
  0
LINE
  8
PT3-Grafika_wekt5
  6
CONTINUOUS
 62
     7
 10
102.7392
 20
118.867999999999990
 11
113.5951
 21
118.867999999999990
  0
LINE
  8
PT3-Grafika_wekt5
  6
CONTINUOUS
 62
     7
 10
102.7392
 20
119.267900000000000
 11
113.5951
 21
119.267900000000000
  0
LINE
  8
PT3-Grafika_wekt5
  6
CONTINUOUS
 62
     7
 10
102.7392
 20
132.264500000000000
 11
113.5951
 21
132.264500000000000
  0
LINE
  8
PT3-Grafika_wekt5
  6
CONTINUOUS
 62
     7
 10
102.7392
 20
132.664500000000000
 11
113.5951
 21
132.664500000000000
  0
LINE
  8
PT3-Grafika_wekt5
  6
CONTINUOUS
 62
     7
 10
102.797
 20
110.870200000000010
 11
102.797
 21
118.867999999999990
  0
LINE
  8
PT3-Grafika_wekt5
  6
CONTINUOUS
 62
     7
 10
102.797
 20
119.267900000000000
 11
102.797
 21
132.264500000000000
  0
LINE
  8
PT3-Grafika_wekt5
  6
CONTINUOUS
 62
     7
 10
102.797
 20
132.664500000000000
 11
102.797
 21
143.161600000000020
  0
LINE
  8
PT3-Grafika_wekt5
  6
CONTINUOUS
 62
     7
 10
113.5951
 20
110.870200000000010
 11
114.2504
 21
110.170400000000000
  0
LINE
  8
PT3-Grafika_wekt5
  6
CONTINUOUS
 62
     7
 10
114.2504
 20
110.170400000000000
 11
114.2504
 21
143.861500000000010
  0
LINE
  8
PT3-Grafika_wekt5
  6
CONTINUOUS
 62
     7
 10
114.2504
 20
143.861500000000010
 11
113.5951
 21
143.161600000000020
  0
LINE
  8
PT3-Grafika_wekt5
  6
CONTINUOUS
 62
     7
 10
113.726
 20
109.870399999999990
 11
113.726
 21
110.170400000000000
  0
LINE
  8
PT3-Grafika_wekt5
  6
CONTINUOUS
 62
     7
 10
113.726
 20
110.170400000000000
 11
125.8959
 21
110.170400000000000
  0
LINE
  8
PT3-Grafika_wekt5
  6
CONTINUOUS
 62
     7
 10
125.8959
 20
110.170400000000000
 11
125.8959
 21
109.870399999999990
  0
LINE
  8
PT3-Grafika_wekt5
  6
CONTINUOUS
 62
     7
 10
125.8959
 20
109.870399999999990
 11
113.726
 21
109.870399999999990
  0
LINE
  8
PT3-Grafika_wekt5
  6
CONTINUOUS
 62
     7
 10
114.2505
 20
110.170400000000000
 11
114.2505
 21
143.861500000000010
  0
LINE
  8
PT3-Grafika_wekt5
  6
CONTINUOUS
 62
     7
 10
114.2505
 20
143.861500000000010
 11
114.9058
 21
143.161600000000020
  0
LINE
  8
PT3-Grafika_wekt5
  6
CONTINUOUS
 62
     7
 10
114.9058
 20
143.161600000000020
 11
114.9058
 21
110.870200000000010
  0
LINE
  8
PT3-Grafika_wekt5
  6
CONTINUOUS
 62
     7
 10
114.9058
 20
110.870200000000010
 11
114.2505
 21
110.170400000000000
  0
LINE
  8
PT3-Grafika_wekt5
  6
CONTINUOUS
 62
     7
 10
114.9058
 20
110.870200000000010
 11
125.7652
 21
110.870200000000010
  0
LINE
  8
PT3-Grafika_wekt5
  6
CONTINUOUS
 62
     7
 10
125.7652
 20
110.870200000000010
 11
125.7652
 21
143.161600000000020
  0
LINE
  8
PT3-Grafika_wekt5
  6
CONTINUOUS
 62
     7
 10
125.7652
 20
143.161600000000020
 11
114.9058
 21
143.161600000000020
  0
LINE
  8
PT3-Grafika_wekt5
  6
CONTINUOUS
 62
     7
 10
114.9093
 20
123.866700000000010
 11
125.7652
 21
123.866700000000010
  0
LINE
  8
PT3-Grafika_wekt5
  6
CONTINUOUS
 62
     7
 10
114.9093
 20
124.266600000000010
 11
125.7652
 21
124.266600000000010
  0
LINE
  8
PT3-Grafika_wekt5
  6
CONTINUOUS
 62
     7
 10
114.9093
 20
137.263200000000010
 11
125.7652
 21
137.263200000000010
  0
LINE
  8
PT3-Grafika_wekt5
  6
CONTINUOUS
 62
     7
 10
114.9093
 20
137.663000000000010
 11
125.7652
 21
137.663000000000010
  0
LINE
  8
PT3-Grafika_wekt5
  6
CONTINUOUS
 62
     7
 10
114.967
 20
110.870200000000010
 11
114.967
 21
123.866700000000010
  0
LINE
  8
PT3-Grafika_wekt5
  6
CONTINUOUS
 62
     7
 10
114.967
 20
124.266600000000010
 11
114.967
 21
137.263200000000010
  0
LINE
  8
PT3-Grafika_wekt5
  6
CONTINUOUS
 62
     7
 10
114.967
 20
137.663000000000010
 11
114.967
 21
143.161600000000020
  0
LINE
  8
PT3-Grafika_wekt5
  6
CONTINUOUS
 62
     7
 10
125.7652
 20
110.870200000000010
 11
126.0708
 21
110.543800000000000
  0
LINE
  8
PT3-Grafika_wekt5
  6
CONTINUOUS
 62
     7
 10
125.7652
 20
143.161600000000020
 11
126.0708
 21
143.488000000000000
  0
LINE
  8
PT3-Grafika_wekt5
  6
CONTINUOUS
 62
     7
 10
125.8959
 20
109.870399999999990
 11
126.0708
 21
109.870399999999990
  0
LINE
  8
PT3-Grafika_wekt5
  6
CONTINUOUS
 62
     7
 10
125.8959
 20
110.170400000000000
 11
126.0708
 21
110.170400000000000
  0
LINE
  8
PT3-Grafika_wekt5
  6
CONTINUOUS
 62
     7
 10
73.4714
 20
109.870399999999990
 11
73.4714
 21
110.170400000000000
  0
LINE
  8
PT3-Grafika_wekt5
  6
CONTINUOUS
 62
     7
 10
73.4714
 20
110.170400000000000
 11
85.6414
 21
110.170400000000000
  0
LINE
  8
PT3-Grafika_wekt5
  6
CONTINUOUS
 62
     7
 10
85.6414
 20
110.170400000000000
 11
85.6414
 21
109.870399999999990
  0
LINE
  8
PT3-Grafika_wekt5
  6
CONTINUOUS
 62
     7
 10
85.6414
 20
109.870399999999990
 11
73.4714
 21
109.870399999999990
  0
LINE
  8
PT3-Grafika_wekt5
  6
CONTINUOUS
 62
     7
 10
73.9959
 20
143.861099999999990
 11
73.9959
 21
143.861500000000010
  0
LINE
  8
PT3-Grafika_wekt5
  6
CONTINUOUS
 62
     7
 10
73.9959
 20
143.861500000000010
 11
74.6512
 21
143.161600000000020
  0
LINE
  8
PT3-Grafika_wekt5
  6
CONTINUOUS
 62
     7
 10
74.6512
 20
143.161600000000020
 11
74.6512
 21
110.870200000000010
  0
LINE
  8
PT3-Grafika_wekt5
  6
CONTINUOUS
 62
     7
 10
74.6512
 20
110.870200000000010
 11
73.996
 21
110.170400000000000
  0
LINE
  8
PT3-Grafika_wekt5
  6
CONTINUOUS
 62
     7
 10
74.6512
 20
110.870200000000010
 11
85.5107
 21
110.870200000000010
  0
LINE
  8
PT3-Grafika_wekt5
  6
CONTINUOUS
 62
     7
 10
85.5107
 20
110.870200000000010
 11
85.5107
 21
143.161600000000020
  0
LINE
  8
PT3-Grafika_wekt5
  6
CONTINUOUS
 62
     7
 10
85.5107
 20
143.161600000000020
 11
74.6512
 21
143.161600000000020
  0
LINE
  8
PT3-Grafika_wekt5
  6
CONTINUOUS
 62
     7
 10
74.6547
 20
118.867999999999990
 11
85.5107
 21
118.867999999999990
  0
LINE
  8
PT3-Grafika_wekt5
  6
CONTINUOUS
 62
     7
 10
74.6547
 20
119.267900000000000
 11
85.5107
 21
119.267900000000000
  0
LINE
  8
PT3-Grafika_wekt5
  6
CONTINUOUS
 62
     7
 10
74.6547
 20
132.264500000000000
 11
85.5107
 21
132.264500000000000
  0
LINE
  8
PT3-Grafika_wekt5
  6
CONTINUOUS
 62
     7
 10
74.6547
 20
132.664500000000000
 11
85.5107
 21
132.664500000000000
  0
LINE
  8
PT3-Grafika_wekt5
  6
CONTINUOUS
 62
     7
 10
74.7125
 20
110.870200000000010
 11
74.7125
 21
118.867999999999990
  0
LINE
  8
PT3-Grafika_wekt5
  6
CONTINUOUS
 62
     7
 10
74.7125
 20
119.267900000000000
 11
74.7125
 21
132.264500000000000
  0
LINE
  8
PT3-Grafika_wekt5
  6
CONTINUOUS
 62
     7
 10
74.7125
 20
132.664500000000000
 11
74.7125
 21
143.161600000000020
  0
LINE
  8
PT3-Grafika_wekt5
  6
CONTINUOUS
 62
     7
 10
85.5107
 20
110.870200000000010
 11
86.1659
 21
110.170400000000000
  0
LINE
  8
PT3-Grafika_wekt5
  6
CONTINUOUS
 62
     7
 10
86.1659
 20
110.170400000000000
 11
86.1659
 21
143.861500000000010
  0
LINE
  8
PT3-Grafika_wekt5
  6
CONTINUOUS
 62
     7
 10
86.1659
 20
143.861500000000010
 11
85.5107
 21
143.161600000000020
  0
LINE
  8
PT3-Grafika_wekt5
  6
CONTINUOUS
 62
     7
 10
85.6414
 20
109.870399999999990
 11
85.6414
 21
110.170400000000000
  0
LINE
  8
PT3-Grafika_wekt5
  6
CONTINUOUS
 62
     7
 10
85.6414
 20
110.170400000000000
 11
97.8113
 21
110.170400000000000
  0
LINE
  8
PT3-Grafika_wekt5
  6
CONTINUOUS
 62
     7
 10
97.8113
 20
110.170400000000000
 11
97.8113
 21
109.870399999999990
  0
LINE
  8
PT3-Grafika_wekt5
  6
CONTINUOUS
 62
     7
 10
97.8113
 20
109.870399999999990
 11
85.6414
 21
109.870399999999990
  0
LINE
  8
PT3-Grafika_wekt5
  6
CONTINUOUS
 62
     7
 10
86.1659
 20
110.170400000000000
 11
86.1659
 21
143.861500000000010
  0
LINE
  8
PT3-Grafika_wekt5
  6
CONTINUOUS
 62
     7
 10
86.1659
 20
143.861500000000010
 11
86.8212
 21
143.161600000000020
  0
LINE
  8
PT3-Grafika_wekt5
  6
CONTINUOUS
 62
     7
 10
86.8212
 20
143.161600000000020
 11
86.8212
 21
110.870200000000010
  0
LINE
  8
PT3-Grafika_wekt5
  6
CONTINUOUS
 62
     7
 10
86.8212
 20
110.870200000000010
 11
86.1659
 21
110.170400000000000
  0
LINE
  8
PT3-Grafika_wekt5
  6
CONTINUOUS
 62
     7
 10
86.8212
 20
110.870200000000010
 11
97.6806
 21
110.870200000000010
  0
LINE
  8
PT3-Grafika_wekt5
  6
CONTINUOUS
 62
     7
 10
97.6806
 20
110.870200000000010
 11
97.6806
 21
143.161600000000020
  0
LINE
  8
PT3-Grafika_wekt5
  6
CONTINUOUS
 62
     7
 10
97.6806
 20
143.161600000000020
 11
86.8212
 21
143.161600000000020
  0
LINE
  8
PT3-Grafika_wekt5
  6
CONTINUOUS
 62
     7
 10
86.8247
 20
123.866700000000010
 11
97.6806
 21
123.866700000000010
  0
LINE
  8
PT3-Grafika_wekt5
  6
CONTINUOUS
 62
     7
 10
86.8247
 20
124.266600000000010
 11
97.6806
 21
124.266600000000010
  0
LINE
  8
PT3-Grafika_wekt5
  6
CONTINUOUS
 62
     7
 10
86.8247
 20
137.263200000000010
 11
97.6806
 21
137.263200000000010
  0
LINE
  8
PT3-Grafika_wekt5
  6
CONTINUOUS
 62
     7
 10
86.8247
 20
137.663000000000010
 11
97.6806
 21
137.663000000000010
  0
LINE
  8
PT3-Grafika_wekt5
  6
CONTINUOUS
 62
     7
 10
86.8824
 20
110.870200000000010
 11
86.8824
 21
123.866700000000010
  0
LINE
  8
PT3-Grafika_wekt5
  6
CONTINUOUS
 62
     7
 10
86.8824
 20
124.266600000000010
 11
86.8824
 21
137.263200000000010
  0
LINE
  8
PT3-Grafika_wekt5
  6
CONTINUOUS
 62
     7
 10
86.8824
 20
137.663000000000010
 11
86.8824
 21
143.161600000000020
  0
LINE
  8
PT3-Grafika_wekt5
  6
CONTINUOUS
 62
     7
 10
97.6806
 20
110.870200000000010
 11
97.9862
 21
110.543800000000000
  0
LINE
  8
PT3-Grafika_wekt5
  6
CONTINUOUS
 62
     7
 10
97.6806
 20
143.161600000000020
 11
97.9862
 21
143.488000000000000
  0
LINE
  8
PT3-Grafika_wekt5
  6
CONTINUOUS
 62
     7
 10
97.8113
 20
109.870399999999990
 11
97.9862
 21
109.870399999999990
  0
LINE
  8
PT3-Grafika_wekt5
  6
CONTINUOUS
 62
     7
 10
97.8113
 20
110.170400000000000
 11
97.9862
 21
110.170400000000000
  0
LINE
  8
PT3-Grafika_wekt5
  6
CONTINUOUS
 62
     7
 10
74.8162
 20
163.113200000000010
 11
74.8162
 21
163.216200000000010
  0
LINE
  8
PT3-Grafika_wekt5
  6
CONTINUOUS
 62
     7
 10
74.8162
 20
163.216200000000010
 11
75.2458
 21
163.216200000000010
  0
LINE
  8
PT3-Grafika_wekt5
  6
CONTINUOUS
 62
     7
 10
28.849
 20
120.940900000000000
 11
29.0136
 21
120.516799999999990
  0
LINE
  8
PT3-Grafika_wekt5
  6
CONTINUOUS
 62
     7
 10
29.0136
 20
120.516799999999990
 11
29.4107
 21
120.341100000000010
  0
LINE
  8
PT3-Grafika_wekt5
  6
CONTINUOUS
 62
     7
 10
29.4107
 20
120.341100000000010
 11
29.4195
 21
120.341100000000010
  0
LINE
  8
PT3-Grafika_wekt5
  6
CONTINUOUS
 62
     7
 10
29.4195
 20
120.341100000000010
 11
29.8166
 21
120.516799999999990
  0
LINE
  8
PT3-Grafika_wekt5
  6
CONTINUOUS
 62
     7
 10
29.8166
 20
120.516799999999990
 11
29.9811
 21
120.940900000000000
  0
LINE
  8
PT3-Grafika_wekt5
  6
CONTINUOUS
 62
     7
 10
29.9811
 20
120.940900000000000
 11
30.0747
 21
120.940900000000000
  0
LINE
  8
PT3-Grafika_wekt5
  6
CONTINUOUS
 62
     7
 10
30.0747
 20
120.940900000000000
 11
28.9514
 21
120.940900000000000
  0
LINE
  8
PT3-Grafika_wekt5
  6
CONTINUOUS
 62
     7
 10
29.4107
 20
120.341100000000010
 11
29.4282
 21
120.341100000000010
  0
LINE
  8
PT3-Grafika_wekt5
  6
CONTINUOUS
 62
     7
 10
29.4282
 20
120.341100000000010
 11
29.8253
 21
120.516799999999990
  0
LINE
  8
PT3-Grafika_wekt5
  6
CONTINUOUS
 62
     7
 10
29.8253
 20
120.516799999999990
 11
29.8078
 21
120.516799999999990
  0
LINE
  8
PT3-Grafika_wekt5
  6
CONTINUOUS
 62
     7
 10
29.8078
 20
120.516799999999990
 11
29.4107
 21
120.341100000000010
  0
LINE
  8
PT3-Grafika_wekt5
  6
CONTINUOUS
 62
     7
 10
29.4282
 20
120.341100000000010
 11
30.5253
 21
120.341100000000010
  0
LINE
  8
PT3-Grafika_wekt5
  6
CONTINUOUS
 62
     7
 10
29.8078
 20
120.516799999999990
 11
29.9724
 21
120.940900000000000
  0
LINE
  8
PT3-Grafika_wekt5
  6
CONTINUOUS
 62
     7
 10
29.9724
 20
120.940900000000000
 11
28.849
 21
120.940900000000000
  0
LINE
  8
PT3-Grafika_wekt5
  6
CONTINUOUS
 62
     7
 10
29.8253
 20
120.516799999999990
 11
29.9898
 21
120.940900000000000
  0
LINE
  8
PT3-Grafika_wekt5
  6
CONTINUOUS
 62
     7
 10
29.9898
 20
120.940900000000000
 11
29.9724
 21
120.940900000000000
  0
LINE
  8
PT3-Grafika_wekt5
  6
CONTINUOUS
 62
     7
 10
30.0573
 20
120.841000000000010
 11
30.8516
 21
119.992700000000010
  0
LINE
  8
PT3-Grafika_wekt5
  6
CONTINUOUS
 62
     7
 10
30.8516
 20
119.992700000000010
 11
31.5689
 21
119.992700000000010
  0
LINE
  8
PT3-Grafika_wekt5
  6
CONTINUOUS
 62
     7
 10
31.5689
 20
119.992700000000010
 11
34.5204
 21
120.185300000000010
  0
LINE
  8
PT3-Grafika_wekt5
  6
CONTINUOUS
 62
     7
 10
30.0747
 20
120.842099999999990
 11
30.0747
 21
121.340900000000000
  0
LINE
  8
PT3-Grafika_wekt5
  6
CONTINUOUS
 62
     7
 10
30.0747
 20
121.340900000000000
 11
67.8719
 21
123.807500000000000
  0
LINE
  8
PT3-Grafika_wekt5
  6
CONTINUOUS
 62
     7
 10
67.8719
 20
123.807500000000000
 11
67.8719
 21
123.507600000000000
  0
LINE
  8
PT3-Grafika_wekt5
  6
CONTINUOUS
 62
     7
 10
67.8719
 20
123.507600000000000
 11
30.0747
 21
121.041000000000000
  0
LINE
  8
PT3-Grafika_wekt5
  6
CONTINUOUS
 62
     7
 10
30.0758
 20
120.842199999999990
 11
30.1409
 21
120.911700000000000
  0
LINE
  8
PT3-Grafika_wekt5
  6
CONTINUOUS
 62
     7
 10
30.1409
 20
120.911700000000000
 11
30.1985
 21
120.850200000000000
  0
LINE
  8
PT3-Grafika_wekt5
  6
CONTINUOUS
 62
     7
 10
30.8516
 20
119.992700000000010
 11
68.6488
 21
122.459300000000010
  0
LINE
  8
PT3-Grafika_wekt5
  6
CONTINUOUS
 62
     7
 10
68.6488
 20
122.459300000000010
 11
67.8546
 21
123.307600000000010
  0
LINE
  8
PT3-Grafika_wekt5
  6
CONTINUOUS
 62
     7
 10
67.8546
 20
123.307600000000010
 11
30.0573
 21
120.841000000000010
  0
LINE
  8
PT3-Grafika_wekt5
  6
CONTINUOUS
 62
     7
 10
30.869
 20
119.992700000000010
 11
68.6662
 21
122.459300000000010
  0
LINE
  8
PT3-Grafika_wekt5
  6
CONTINUOUS
 62
     7
 10
68.6662
 20
122.459300000000010
 11
68.6488
 21
122.459300000000010
  0
LINE
  8
PT3-Grafika_wekt5
  6
CONTINUOUS
 62
     7
 10
31.5697
 20
119.992700000000010
 11
33.5855
 21
119.327800000000000
  0
LINE
  8
PT3-Grafika_wekt5
  6
CONTINUOUS
 62
     7
 10
33.5855
 20
119.327800000000000
 11
33.5855
 21
119.427799999999990
  0
LINE
  8
PT3-Grafika_wekt5
  6
CONTINUOUS
 62
     7
 10
33.5855
 20
119.427799999999990
 11
31.8227
 21
120.009199999999990
  0
LINE
  8
PT3-Grafika_wekt5
  6
CONTINUOUS
 62
     7
 10
33.5855
 20
119.327800000000000
 11
33.623
 21
119.327800000000000
  0
LINE
  8
PT3-Grafika_wekt5
  6
CONTINUOUS
 62
     7
 10
33.5855
 20
119.427799999999990
 11
33.623
 21
119.427799999999990
  0
LINE
  8
PT3-Grafika_wekt5
  6
CONTINUOUS
 62
     7
 10
67.8546
 20
123.307600000000010
 11
67.8719
 21
123.307600000000010
  0
LINE
  8
PT3-Grafika_wekt5
  6
CONTINUOUS
 62
     7
 10
67.8719
 20
123.307600000000010
 11
67.8719
 21
123.507600000000000
  0
LINE
  8
PT3-Grafika_wekt5
  6
CONTINUOUS
 62
     7
 10
67.8719
 20
123.507600000000000
 11
68.5416
 21
123.507600000000000
  0
LINE
  8
PT3-Grafika_wekt5
  6
CONTINUOUS
 62
     7
 10
67.8719
 20
123.307600000000010
 11
68.5416
 21
123.307600000000010
  0
LINE
  8
PT3-Grafika_wekt5
  6
CONTINUOUS
 62
     7
 10
67.8719
 20
123.807500000000000
 11
68.5416
 21
123.807500000000000
  0
LINE
  8
PT3-Grafika_wekt5
  6
CONTINUOUS
 62
     7
 10
67.8894
 20
123.307600000000010
 11
68.6836
 21
122.459300000000010
  0
LINE
  8
PT3-Grafika_wekt5
  6
CONTINUOUS
 62
     7
 10
68.6836
 20
122.459300000000010
 11
68.6662
 21
122.459300000000010
  0
LINE
  8
PT3-Grafika_wekt5
  6
CONTINUOUS
 62
     7
 10
68.6662
 20
122.459300000000010
 11
68.6662
 21
122.459499999999990
  0
LINE
  8
PT3-Grafika_wekt5
  6
CONTINUOUS
 62
     7
 10
68.5962
 20
122.552600000000010
 11
68.6017
 21
122.553000000000000
  0
LINE
  8
PT3-Grafika_wekt5
  6
CONTINUOUS
 62
     7
 10
68.6017
 20
122.553000000000000
 11
68.618
 21
122.529400000000010
  0
LINE
  8
PT3-Grafika_wekt5
  6
CONTINUOUS
 62
     7
 10
68.6017
 20
122.553000000000000
 11
69.2273
 21
122.552699999999990
  0
LINE
  8
PT3-Grafika_wekt5
  6
CONTINUOUS
 62
     7
 10
69.2273
 20
122.552699999999990
 11
69.2457
 21
122.539800000000010
  0
LINE
  8
PT3-Grafika_wekt5
  6
CONTINUOUS
 62
     7
 10
68.6662
 20
122.459300000000010
 11
69.3312
 21
122.459000000000000
  0
LINE
  8
PT3-Grafika_wekt5
  6
CONTINUOUS
 62
     7
 10
33.0755
 20
120.090900000000000
 11
33.1208
 21
120.042499999999990
  0
LINE
  8
PT3-Grafika_wekt5
  6
CONTINUOUS
 62
     7
 10
33.2346
 20
120.004899999999990
 11
33.623
 21
120.004899999999990
  0
LINE
  8
PT3-Grafika_wekt5
  6
CONTINUOUS
 62
     7
 10
68.0073
 20
123.181700000000010
 11
68.5416
 21
123.216600000000000
  0
LINE
  8
PT3-Grafika_wekt5
  6
CONTINUOUS
 62
     7
 10
166.2508
 20
170.997700000000010
 11
166.2508
 21
175.053200000000000
  0
LINE
  8
PT3-Grafika_wekt5
  6
CONTINUOUS
 62
     7
 10
166.2508
 20
175.053200000000000
 11
171.3995
 21
175.053200000000000
  0
LINE
  8
PT3-Grafika_wekt5
  6
CONTINUOUS
 62
     7
 10
171.3995
 20
175.053200000000000
 11
171.3995
 21
170.997700000000010
  0
LINE
  8
PT3-Grafika_wekt5
  6
CONTINUOUS
 62
     7
 10
171.3995
 20
175.053200000000000
 11
174.4079
 21
175.053200000000000
  0
LINE
  8
PT3-Grafika_wekt5
  6
CONTINUOUS
 62
     7
 10
174.4079
 20
175.053200000000000
 11
174.4079
 21
170.997700000000010
  0
LINE
  8
PT3-Grafika_wekt5
  6
CONTINUOUS
 62
     7
 10
62.4229
 20
123.451899999999990
 11
62.4229
 21
130.165100000000000
  0
LINE
  8
PT3-Grafika_wekt5
  6
CONTINUOUS
 62
     7
 10
62.4229
 20
130.165100000000000
 11
68.414
 21
130.165100000000000
  0
LINE
  8
PT3-Grafika_wekt5
  6
CONTINUOUS
 62
     7
 10
68.414
 20
130.165100000000000
 11
68.414
 21
123.807500000000000
  0
LINE
  8
PT3-Grafika_wekt5
  6
CONTINUOUS
 62
     7
 10
68.414
 20
130.165100000000000
 11
68.5416
 21
130.165100000000000
  0
LINE
  8
PT3-Grafika_wekt5
  6
CONTINUOUS
 62
     7
 10
553.3296
 20
95.874200000000002
 11
576.813
 21
95.874200000000002
  0
LINE
  8
PT3-Grafika_wekt5
  6
CONTINUOUS
 62
     7
 10
576.813
 20
95.874200000000002
 11
576.813
 21
94.124200000000002
  0
LINE
  8
PT3-Grafika_wekt5
  6
CONTINUOUS
 62
     7
 10
487.6717
 20
225.139900000000010
 11
487.8981
 21
225.139900000000010
  0
LINE
  8
PT3-Grafika_wekt5
  6
CONTINUOUS
 62
     7
 10
487.8981
 20
225.139900000000010
 11
487.8981
 21
216.598999999999990
  0
LINE
  8
PT3-Grafika_wekt5
  6
CONTINUOUS
 62
     7
 10
553.3296
 20
97.623700000000014
 11
573.8152
 21
97.623700000000014
  0
LINE
  8
PT3-Grafika_wekt5
  6
CONTINUOUS
 62
     7
 10
573.8152
 20
97.623700000000014
 11
573.8152
 21
95.874200000000002
  0
LINE
  8
PT3-Grafika_wekt5
  6
CONTINUOUS
 62
     7
 10
552.83
 20
99.373199999999997
 11
570.8174
 21
99.373199999999997
  0
LINE
  8
PT3-Grafika_wekt5
  6
CONTINUOUS
 62
     7
 10
570.8174
 20
99.373199999999997
 11
570.8174
 21
97.623700000000014
  0
LINE
  8
PT3-Grafika_wekt5
  6
CONTINUOUS
 62
     7
 10
271.6851
 20
97.373799999999989
 11
271.6851
 21
99.373199999999997
  0
LINE
  8
PT3-Grafika_wekt5
  6
CONTINUOUS
 62
     7
 10
271.6851
 20
99.373199999999997
 11
357.8593
 21
99.373199999999997
  0
LINE
  8
PT3-Grafika_wekt5
  6
CONTINUOUS
 62
     7
 10
270.566
 20
96.519200000000012
 11
270.566
 21
97.373799999999989
  0
LINE
  8
PT3-Grafika_wekt5
  6
CONTINUOUS
 62
     7
 10
270.566
 20
97.373799999999989
 11
357.8593
 21
97.373799999999989
  0
LINE
  8
PT3-Grafika_wekt5
  6
CONTINUOUS
 62
     7
 10
483.1745
 20
220.141300000000000
 11
483.1745
 21
225.139900000000010
  0
LINE
  8
PT3-Grafika_wekt5
  6
CONTINUOUS
 62
     7
 10
483.1745
 20
225.139900000000010
 11
483.1747
 21
225.139900000000010
  0
LINE
  8
PT3-Grafika_wekt5
  6
CONTINUOUS
 62
     7
 10
404.9321
 20
204.996700000000000
 11
404.9321
 21
215.142600000000020
  0
LINE
  8
PT3-Grafika_wekt5
  6
CONTINUOUS
 62
     7
 10
404.9321
 20
215.142600000000020
 11
411.3279
 21
215.142600000000020
  0
LINE
  8
PT3-Grafika_wekt5
  6
CONTINUOUS
 62
     7
 10
411.3279
 20
215.142600000000020
 11
411.3279
 21
209.151800000000010
  0
LINE
  8
PT3-Grafika_wekt5
  6
CONTINUOUS
 62
     7
 10
73.9856
 20
110.170400000000000
 11
73.9856
 21
143.861099999999990
  0
LINE
  8
PT3-Grafika_wekt5
  6
CONTINUOUS
 62
     7
 10
73.9856
 20
143.861099999999990
 11
73.996
 21
143.861099999999990
  0
LINE
  8
PT3-Grafika_wekt5
  6
CONTINUOUS
 62
     7
 10
102.0701
 20
110.170400000000000
 11
102.0701
 21
143.861099999999990
  0
LINE
  8
PT3-Grafika_wekt5
  6
CONTINUOUS
 62
     7
 10
102.0701
 20
143.861099999999990
 11
102.0805
 21
143.861099999999990
  0
LINE
  8
PT3-Grafika_wekt5
  6
CONTINUOUS
 62
     7
 10
130.1548
 20
110.170400000000000
 11
130.1548
 21
143.861099999999990
  0
LINE
  8
PT3-Grafika_wekt5
  6
CONTINUOUS
 62
     7
 10
130.1548
 20
143.861099999999990
 11
130.1653
 21
143.861099999999990
  0
LINE
  8
PT3-Grafika_wekt5
  6
CONTINUOUS
 62
     7
 10
158.2394
 20
110.170400000000000
 11
158.2394
 21
143.861099999999990
  0
LINE
  8
PT3-Grafika_wekt5
  6
CONTINUOUS
 62
     7
 10
158.2394
 20
143.861099999999990
 11
158.2499
 21
143.861099999999990
  0
LINE
  8
PT3-Grafika_wekt5
  6
CONTINUOUS
 62
     7
 10
186.324
 20
110.170400000000000
 11
186.324
 21
143.861099999999990
  0
LINE
  8
PT3-Grafika_wekt5
  6
CONTINUOUS
 62
     7
 10
186.324
 20
143.861099999999990
 11
186.3344
 21
143.861099999999990
  0
LINE
  8
PT3-Grafika_wekt5
  6
CONTINUOUS
 62
     7
 10
214.4086
 20
110.170400000000000
 11
214.4086
 21
143.861099999999990
  0
LINE
  8
PT3-Grafika_wekt5
  6
CONTINUOUS
 62
     7
 10
214.4086
 20
143.861099999999990
 11
214.4191
 21
143.861099999999990
  0
LINE
  8
PT3-Grafika_wekt5
  6
CONTINUOUS
 62
     7
 10
242.4933
 20
110.170400000000000
 11
242.4933
 21
143.861099999999990
  0
LINE
  8
PT3-Grafika_wekt5
  6
CONTINUOUS
 62
     7
 10
242.4933
 20
143.861099999999990
 11
242.5037
 21
143.861099999999990
  0
LINE
  8
PT3-Grafika_wekt5
  6
CONTINUOUS
 62
     7
 10
467.9773
 20
99.373500000000007
 11
477.7906
 21
99.373500000000007
  0
LINE
  8
PT3-Grafika_wekt5
  6
CONTINUOUS
 62
     7
 10
449.8983
 20
210.772200000000000
 11
449.8983
 21
220.141300000000000
  0
LINE
  8
PT3-Grafika_wekt5
  6
CONTINUOUS
 62
     7
 10
449.8983
 20
220.141300000000000
 11
456.294
 21
220.141300000000000
  0
LINE
  8
PT3-Grafika_wekt5
  6
CONTINUOUS
 62
     7
 10
456.294
 20
220.141300000000000
 11
456.294
 21
214.927300000000000
  0
LINE
  8
PT3-Grafika_wekt5
  6
CONTINUOUS
 62
     7
 10
483.1744
 20
199.472800000000010
 11
483.1744
 21
205.145199999999990
  0
LINE
  8
PT3-Grafika_wekt5
  6
CONTINUOUS
 62
     7
 10
483.1744
 20
205.145199999999990
 11
487.6715
 21
205.145199999999990
  0
LINE
  8
PT3-Grafika_wekt5
  6
CONTINUOUS
 62
     7
 10
487.6715
 20
205.145199999999990
 11
487.6715
 21
196.551300000000000
  0
LINE
  8
PT3-Grafika_wekt5
  6
CONTINUOUS
 62
     7
 10
33.623
 20
96.340599999999995
 11
33.623
 21
120.126700000000000
  0
LINE
  8
PT3-Grafika_wekt5
  6
CONTINUOUS
 62
     7
 10
68.0118
 20
123.176899999999990
 11
68.5416
 21
123.176899999999990
  0
LINE
  8
PT3-Grafika_wekt5
  6
CONTINUOUS
 62
     7
 10
68.5416
 20
123.176899999999990
 11
68.5416
 21
122.610999999999990
  0
LINE
  8
PT3-Grafika_wekt5
  6
CONTINUOUS
 62
     7
 10
68.5416
 20
122.610999999999990
 11
68.5416
 21
123.166900000000000
  0
LINE
  8
PT3-Grafika_wekt5
  6
CONTINUOUS
 62
     7
 10
68.5416
 20
97.021400000000000
 11
68.5416
 21
122.407500000000000
  0
LINE
  8
PT3-Grafika_wekt5
  6
CONTINUOUS
 62
     7
 10
68.5416
 20
122.407500000000000
 11
68.5416
 21
96.198100000000011
  0
LINE
  8
PT3-Grafika_wekt5
  6
CONTINUOUS
 62
     7
 10
68.5416
 20
98.573499999999996
 11
270.566
 21
98.573499999999996
  0
LINE
  8
PT3-Grafika_wekt5
  6
CONTINUOUS
 62
     7
 10
270.566
 20
98.573499999999996
 11
270.566
 21
95.373799999999989
  0
LINE
  8
PT3-Grafika_wekt5
  6
CONTINUOUS
 62
     7
 10
68.5416
 20
122.610999999999990
 11
68.5416
 21
157.459999999999980
  0
LINE
  8
PT3-Grafika_wekt5
  6
CONTINUOUS
 62
     7
 10
73.6462
 20
110.170400000000000
 11
73.6462
 21
143.861500000000010
  0
LINE
  8
PT3-Grafika_wekt5
  6
CONTINUOUS
 62
     7
 10
73.6462
 20
143.861500000000010
 11
97.9862
 21
143.861500000000010
  0
LINE
  8
PT3-Grafika_wekt5
  6
CONTINUOUS
 62
     7
 10
97.9862
 20
143.861500000000010
 11
97.9862
 21
109.870399999999990
  0
LINE
  8
PT3-Grafika_wekt5
  6
CONTINUOUS
 62
     7
 10
97.9862
 20
109.870399999999990
 11
97.8113
 21
109.870399999999990
  0
LINE
  8
PT3-Grafika_wekt5
  6
CONTINUOUS
 62
     7
 10
97.9862
 20
143.861500000000010
 11
101.7308
 21
143.861500000000010
  0
LINE
  8
PT3-Grafika_wekt5
  6
CONTINUOUS
 62
     7
 10
101.7308
 20
143.861500000000010
 11
101.7308
 21
110.170400000000000
  0
LINE
  8
PT3-Grafika_wekt5
  6
CONTINUOUS
 62
     7
 10
101.7308
 20
143.861500000000010
 11
126.0708
 21
143.861500000000010
  0
LINE
  8
PT3-Grafika_wekt5
  6
CONTINUOUS
 62
     7
 10
126.0708
 20
143.861500000000010
 11
126.0708
 21
109.870399999999990
  0
LINE
  8
PT3-Grafika_wekt5
  6
CONTINUOUS
 62
     7
 10
126.0708
 20
109.870399999999990
 11
125.8959
 21
109.870399999999990
  0
LINE
  8
PT3-Grafika_wekt5
  6
CONTINUOUS
 62
     7
 10
126.0708
 20
143.861500000000010
 11
129.8154
 21
143.861500000000010
  0
LINE
  8
PT3-Grafika_wekt5
  6
CONTINUOUS
 62
     7
 10
129.8154
 20
143.861500000000010
 11
129.8154
 21
110.170400000000000
  0
LINE
  8
PT3-Grafika_wekt5
  6
CONTINUOUS
 62
     7
 10
129.8154
 20
143.861500000000010
 11
154.1554
 21
143.861500000000010
  0
LINE
  8
PT3-Grafika_wekt5
  6
CONTINUOUS
 62
     7
 10
154.1554
 20
143.861500000000010
 11
154.1554
 21
109.870399999999990
  0
LINE
  8
PT3-Grafika_wekt5
  6
CONTINUOUS
 62
     7
 10
154.1554
 20
109.870399999999990
 11
153.9805
 21
109.870399999999990
  0
LINE
  8
PT3-Grafika_wekt5
  6
CONTINUOUS
 62
     7
 10
154.1554
 20
143.861500000000010
 11
157.9
 21
143.861500000000010
  0
LINE
  8
PT3-Grafika_wekt5
  6
CONTINUOUS
 62
     7
 10
157.9
 20
143.861500000000010
 11
157.9
 21
110.170400000000000
  0
LINE
  8
PT3-Grafika_wekt5
  6
CONTINUOUS
 62
     7
 10
157.9
 20
143.861500000000010
 11
182.24
 21
143.861500000000010
  0
LINE
  8
PT3-Grafika_wekt5
  6
CONTINUOUS
 62
     7
 10
182.24
 20
143.861500000000010
 11
182.24
 21
109.870399999999990
  0
LINE
  8
PT3-Grafika_wekt5
  6
CONTINUOUS
 62
     7
 10
182.24
 20
109.870399999999990
 11
182.0651
 21
109.870399999999990
  0
LINE
  8
PT3-Grafika_wekt5
  6
CONTINUOUS
 62
     7
 10
185.9846
 20
110.170400000000000
 11
185.9846
 21
143.861500000000010
  0
LINE
  8
PT3-Grafika_wekt5
  6
CONTINUOUS
 62
     7
 10
185.9846
 20
143.861500000000010
 11
210.3246
 21
143.861500000000010
  0
LINE
  8
PT3-Grafika_wekt5
  6
CONTINUOUS
 62
     7
 10
210.3246
 20
143.861500000000010
 11
210.3246
 21
109.870399999999990
  0
LINE
  8
PT3-Grafika_wekt5
  6
CONTINUOUS
 62
     7
 10
210.3246
 20
109.870399999999990
 11
210.1497
 21
109.870399999999990
  0
LINE
  8
PT3-Grafika_wekt5
  6
CONTINUOUS
 62
     7
 10
210.3246
 20
143.861500000000010
 11
214.0692
 21
143.861500000000010
  0
LINE
  8
PT3-Grafika_wekt5
  6
CONTINUOUS
 62
     7
 10
214.0692
 20
143.861500000000010
 11
214.0692
 21
110.170400000000000
  0
LINE
  8
PT3-Grafika_wekt5
  6
CONTINUOUS
 62
     7
 10
214.0692
 20
143.861500000000010
 11
238.4091
 21
143.861500000000010
  0
LINE
  8
PT3-Grafika_wekt5
  6
CONTINUOUS
 62
     7
 10
238.4091
 20
143.861500000000010
 11
238.4091
 21
109.870399999999990
  0
LINE
  8
PT3-Grafika_wekt5
  6
CONTINUOUS
 62
     7
 10
238.4091
 20
109.870399999999990
 11
238.2343
 21
109.870399999999990
  0
LINE
  8
PT3-Grafika_wekt5
  6
CONTINUOUS
 62
     7
 10
242.1538
 20
110.170400000000000
 11
242.1538
 21
143.861500000000010
  0
LINE
  8
PT3-Grafika_wekt5
  6
CONTINUOUS
 62
     7
 10
242.1538
 20
143.861500000000010
 11
266.4937
 21
143.861500000000010
  0
LINE
  8
PT3-Grafika_wekt5
  6
CONTINUOUS
 62
     7
 10
266.4937
 20
143.861500000000010
 11
266.4937
 21
109.870399999999990
  0
LINE
  8
PT3-Grafika_wekt5
  6
CONTINUOUS
 62
     7
 10
266.4937
 20
109.870399999999990
 11
266.3189
 21
109.870399999999990
  0
LINE
  8
PT3-Grafika_wekt5
  6
CONTINUOUS
 62
     7
 10
270.566
 20
98.573499999999996
 11
270.566
 21
158.055600000000000
  0
LINE
  8
PT3-Grafika_wekt5
  6
CONTINUOUS
 62
     7
 10
271.6851
 20
98.573499999999996
 11
270.566
 21
98.573499999999996
  0
LINE
  8
PT3-Grafika_wekt5
  6
CONTINUOUS
 62
     7
 10
279.1547
 20
164.078700000000000
 11
279.1547
 21
169.820600000000010
  0
LINE
  8
PT3-Grafika_wekt5
  6
CONTINUOUS
 62
     7
 10
357.8593
 20
135.163800000000010
 11
357.8593
 21
95.017300000000006
  0
LINE
  8
PT3-Grafika_wekt5
  6
CONTINUOUS
 62
     7
 10
290.1151
 20
145.860900000000020
 11
290.1151
 21
163.856100000000000
  0
LINE
  8
PT3-Grafika_wekt5
  6
CONTINUOUS
 62
     7
 10
290.1151
 20
163.856100000000000
 11
304.7054
 21
163.856100000000000
  0
LINE
  8
PT3-Grafika_wekt5
  6
CONTINUOUS
 62
     7
 10
304.7054
 20
163.856100000000000
 11
304.7054
 21
146.160799999999990
  0
LINE
  8
PT3-Grafika_wekt5
  6
CONTINUOUS
 62
     7
 10
290.1291
 20
109.370600000000000
 11
290.1291
 21
127.365800000000010
  0
LINE
  8
PT3-Grafika_wekt5
  6
CONTINUOUS
 62
     7
 10
290.1291
 20
127.365800000000010
 11
304.7194
 21
127.365800000000010
  0
LINE
  8
PT3-Grafika_wekt5
  6
CONTINUOUS
 62
     7
 10
304.7194
 20
127.365800000000010
 11
304.7194
 21
109.670500000000000
  0
LINE
  8
PT3-Grafika_wekt5
  6
CONTINUOUS
 62
     7
 10
304.7054
 20
145.860900000000020
 11
290.1151
 21
145.860900000000020
  0
LINE
  8
PT3-Grafika_wekt5
  6
CONTINUOUS
 62
     7
 10
312.3634
 20
120.798399999999990
 11
312.3646
 21
120.798399999999990
  0
LINE
  8
PT3-Grafika_wekt5
  6
CONTINUOUS
 62
     7
 10
313.3997
 20
145.860900000000020
 11
313.3997
 21
163.856100000000000
  0
LINE
  8
PT3-Grafika_wekt5
  6
CONTINUOUS
 62
     7
 10
313.3997
 20
163.856100000000000
 11
327.99
 21
163.856100000000000
  0
LINE
  8
PT3-Grafika_wekt5
  6
CONTINUOUS
 62
     7
 10
327.99
 20
163.856100000000000
 11
327.99
 21
146.160799999999990
  0
LINE
  8
PT3-Grafika_wekt5
  6
CONTINUOUS
 62
     7
 10
325.2868
 20
99.373199999999997
 11
325.2868
 21
99.377399999999994
  0
LINE
  8
PT3-Grafika_wekt5
  6
CONTINUOUS
 62
     7
 10
327.99
 20
145.860900000000020
 11
313.3997
 21
145.860900000000020
  0
LINE
  8
PT3-Grafika_wekt5
  6
CONTINUOUS
 62
     7
 10
357.8593
 20
98.873400000000004
 11
393.2358
 21
98.873400000000004
  0
LINE
  8
PT3-Grafika_wekt5
  6
CONTINUOUS
 62
     7
 10
393.2358
 20
98.873400000000004
 11
393.2358
 21
94.872899999999987
  0
LINE
  8
PT3-Grafika_wekt5
  6
CONTINUOUS
 62
     7
 10
357.8593
 20
135.163800000000010
 11
357.8593
 21
169.820600000000010
  0
LINE
  8
PT3-Grafika_wekt5
  6
CONTINUOUS
 62
     7
 10
393.2358
 20
98.873400000000004
 11
393.237
 21
98.873400000000004
  0
LINE
  8
PT3-Grafika_wekt5
  6
CONTINUOUS
 62
     7
 10
393.4357
 20
94.872099999999989
 11
393.4357
 21
98.873400000000004
  0
LINE
  8
PT3-Grafika_wekt5
  6
CONTINUOUS
 62
     7
 10
393.4357
 20
98.873400000000004
 11
393.2358
 21
98.873400000000004
  0
LINE
  8
PT3-Grafika_wekt5
  6
CONTINUOUS
 62
     7
 10
393.4357
 20
98.873400000000004
 11
553.3296
 21
98.873400000000004
  0
LINE
  8
PT3-Grafika_wekt5
  6
CONTINUOUS
 62
     7
 10
553.3296
 20
98.873400000000004
 11
553.3296
 21
94.124200000000002
  0
LINE
  8
PT3-Grafika_wekt5
  6
CONTINUOUS
 62
     7
 10
393.7357
 20
98.873400000000004
 11
393.7357
 21
135.163800000000010
  0
LINE
  8
PT3-Grafika_wekt5
  6
CONTINUOUS
 62
     7
 10
393.7357
 20
135.163800000000010
 11
393.7357
 21
169.820600000000010
  0
LINE
  8
PT3-Grafika_wekt5
  6
CONTINUOUS
 62
     7
 10
393.9353
 20
98.873400000000004
 11
393.9353
 21
135.163800000000010
  0
LINE
  8
PT3-Grafika_wekt5
  6
CONTINUOUS
 62
     7
 10
393.9353
 20
135.163800000000010
 11
393.7357
 21
135.163800000000010
  0
LINE
  8
PT3-Grafika_wekt5
  6
CONTINUOUS
 62
     7
 10
393.9353
 20
135.163800000000010
 11
393.9353
 21
169.820600000000010
  0
LINE
  8
PT3-Grafika_wekt5
  6
CONTINUOUS
 62
     7
 10
406.1272
 20
109.370600000000000
 11
406.1272
 21
128.865399999999990
  0
LINE
  8
PT3-Grafika_wekt5
  6
CONTINUOUS
 62
     7
 10
406.1272
 20
128.865399999999990
 11
417.7195
 21
128.865399999999990
  0
LINE
  8
PT3-Grafika_wekt5
  6
CONTINUOUS
 62
     7
 10
417.7195
 20
128.865399999999990
 11
417.7195
 21
109.670500000000000
  0
LINE
  8
PT3-Grafika_wekt5
  6
CONTINUOUS
 62
     7
 10
406.1272
 20
145.860900000000020
 11
406.1272
 21
165.355700000000010
  0
LINE
  8
PT3-Grafika_wekt5
  6
CONTINUOUS
 62
     7
 10
406.1272
 20
165.355700000000010
 11
417.7195
 21
165.355700000000010
  0
LINE
  8
PT3-Grafika_wekt5
  6
CONTINUOUS
 62
     7
 10
417.7195
 20
165.355700000000010
 11
417.7195
 21
146.160799999999990
  0
LINE
  8
PT3-Grafika_wekt5
  6
CONTINUOUS
 62
     7
 10
417.7195
 20
145.860900000000020
 11
406.1272
 21
145.860900000000020
  0
LINE
  8
PT3-Grafika_wekt5
  6
CONTINUOUS
 62
     7
 10
437.1066
 20
109.370600000000000
 11
437.1066
 21
128.865399999999990
  0
LINE
  8
PT3-Grafika_wekt5
  6
CONTINUOUS
 62
     7
 10
437.1066
 20
128.865399999999990
 11
448.6989
 21
128.865399999999990
  0
LINE
  8
PT3-Grafika_wekt5
  6
CONTINUOUS
 62
     7
 10
448.6989
 20
128.865399999999990
 11
448.6989
 21
109.670500000000000
  0
LINE
  8
PT3-Grafika_wekt5
  6
CONTINUOUS
 62
     7
 10
437.1066
 20
145.860900000000020
 11
437.1066
 21
165.355700000000010
  0
LINE
  8
PT3-Grafika_wekt5
  6
CONTINUOUS
 62
     7
 10
437.1066
 20
165.355700000000010
 11
448.6989
 21
165.355700000000010
  0
LINE
  8
PT3-Grafika_wekt5
  6
CONTINUOUS
 62
     7
 10
448.6989
 20
165.355700000000010
 11
448.6989
 21
146.160799999999990
  0
LINE
  8
PT3-Grafika_wekt5
  6
CONTINUOUS
 62
     7
 10
448.6989
 20
145.860900000000020
 11
437.1066
 21
145.860900000000020
  0
LINE
  8
PT3-Grafika_wekt5
  6
CONTINUOUS
 62
     7
 10
458.3925
 20
174.415000000000020
 11
458.3925
 21
193.896799999999980
  0
LINE
  8
PT3-Grafika_wekt5
  6
CONTINUOUS
 62
     7
 10
465.8376
 20
179.851900000000000
 11
465.8376
 21
191.848799999999980
  0
LINE
  8
PT3-Grafika_wekt5
  6
CONTINUOUS
 62
     7
 10
465.8376
 20
191.848799999999980
 11
480.8277
 21
191.848799999999980
  0
LINE
  8
PT3-Grafika_wekt5
  6
CONTINUOUS
 62
     7
 10
480.8277
 20
191.848799999999980
 11
480.8277
 21
180.151799999999980
  0
LINE
  8
PT3-Grafika_wekt5
  6
CONTINUOUS
 62
     7
 10
466.9869
 20
99.273200000000003
 11
466.9869
 21
99.373199999999997
  0
LINE
  8
PT3-Grafika_wekt5
  6
CONTINUOUS
 62
     7
 10
466.9869
 20
99.373199999999997
 11
478.6522
 21
99.373199999999997
  0
LINE
  8
PT3-Grafika_wekt5
  6
CONTINUOUS
 62
     7
 10
467.0218
 20
120.798399999999990
 11
467.0229
 21
120.798399999999990
  0
LINE
  8
PT3-Grafika_wekt5
  6
CONTINUOUS
 62
     7
 10
467.1868
 20
145.860900000000020
 11
467.1868
 21
165.355700000000010
  0
LINE
  8
PT3-Grafika_wekt5
  6
CONTINUOUS
 62
     7
 10
467.1868
 20
165.355700000000010
 11
478.7791
 21
165.355700000000010
  0
LINE
  8
PT3-Grafika_wekt5
  6
CONTINUOUS
 62
     7
 10
478.7791
 20
165.355700000000010
 11
478.7791
 21
145.860900000000020
  0
LINE
  8
PT3-Grafika_wekt5
  6
CONTINUOUS
 62
     7
 10
478.7791
 20
145.860900000000020
 11
467.1868
 21
145.860900000000020
  0
LINE
  8
PT3-Grafika_wekt5
  6
CONTINUOUS
 62
     7
 10
478.979
 20
99.273200000000003
 11
466.9869
 21
99.273200000000003
  0
LINE
  8
PT3-Grafika_wekt5
  6
CONTINUOUS
 62
     7
 10
478.979
 20
99.373199999999997
 11
478.979
 21
99.273200000000003
  0
LINE
  8
PT3-Grafika_wekt5
  6
CONTINUOUS
 62
     7
 10
488.3725
 20
174.415000000000020
 11
488.3725
 21
193.896799999999980
  0
LINE
  8
PT3-Grafika_wekt5
  6
CONTINUOUS
 62
     7
 10
552.8297
 20
174.415100000000000
 11
552.8297
 21
192.500000000000000
  0
LINE
  8
PT3-Grafika_wekt5
  6
CONTINUOUS
 62
     7
 10
552.8297
 20
191.848799999999980
 11
552.83
 21
191.848799999999980
  0
LINE
  8
PT3-Grafika_wekt5
  6
CONTINUOUS
 62
     7
 10
552.83
 20
191.848799999999980
 11
552.83
 21
180.151799999999980
  0
LINE
  8
PT3-Grafika_wekt5
  6
CONTINUOUS
 62
     7
 10
552.83
 20
98.873400000000004
 11
552.83
 21
135.163800000000010
  0
LINE
  8
PT3-Grafika_wekt5
  6
CONTINUOUS
 62
     7
 10
552.83
 20
135.163800000000010
 11
552.83
 21
169.820600000000010
  0
LINE
  8
PT3-Grafika_wekt5
  6
CONTINUOUS
 62
     7
 10
552.83
 20
174.415000000000020
 11
552.83
 21
179.851800000000000
  0
LINE
  8
PT3-Grafika_wekt5
  6
CONTINUOUS
 62
     7
 10
557.3124
 20
170.154499999999980
 11
558.8256
 21
170.154499999999980
  0
LINE
  8
PT3-Grafika_wekt5
  6
CONTINUOUS
 62
     7
 10
558.8256
 20
170.154499999999980
 11
558.8256
 21
135.163800000000010
  0
LINE
  8
PT3-Grafika_wekt5
  6
CONTINUOUS
 62
     7
 10
558.8256
 20
99.373199999999997
 11
558.8256
 21
135.163800000000010
  0
LINE
  8
PT3-Grafika_wekt5
  6
CONTINUOUS
 62
     7
 10
558.8256
 20
135.163800000000010
 11
558.8259
 21
135.163800000000010
  0
LINE
  8
PT3-Grafika_wekt5
  6
CONTINUOUS
 62
     7
 10
558.8259
 20
135.163800000000010
 11
558.8259
 21
99.373199999999997
  0
LINE
  8
PT3-Grafika_wekt5
  6
CONTINUOUS
 62
     7
 10
558.8256
 20
170.154499999999980
 11
558.8256
 21
170.293200000000010
  0
LINE
  8
PT3-Grafika_wekt5
  6
CONTINUOUS
 62
     7
 10
558.8256
 20
170.768900000000000
 11
558.8256
 21
190.315200000000000
  0
LINE
  8
PT3-Grafika_wekt5
  6
CONTINUOUS
 62
     7
 10
558.8259
 20
135.163800000000010
 11
558.8259
 21
170.154499999999980
  0
LINE
  8
PT3-Grafika_wekt5
  6
CONTINUOUS
 62
     7
 10
558.8259
 20
170.154499999999980
 11
558.8256
 21
170.154499999999980
  0
LINE
  8
PT3-Grafika_wekt5
  6
CONTINUOUS
 62
     7
 10
558.8259
 20
170.154499999999980
 11
558.8259
 21
170.293400000000020
  0
LINE
  8
PT3-Grafika_wekt5
  6
CONTINUOUS
 62
     7
 10
558.8259
 20
170.768900000000000
 11
558.8259
 21
190.315200000000000
  0
LINE
  8
PT3-Grafika_wekt5
  6
CONTINUOUS
 62
     7
 10
413.9218
 20
199.019299999999990
 11
413.9218
 21
215.142600000000020
  0
LINE
  8
PT3-Grafika_wekt5
  6
CONTINUOUS
 62
     7
 10
413.9218
 20
215.142600000000020
 11
413.9218
 21
201.940900000000000
  0
LINE
  8
PT3-Grafika_wekt5
  6
CONTINUOUS
 62
     7
 10
413.9218
 20
215.142600000000020
 11
422.9158
 21
215.142600000000020
  0
LINE
  8
PT3-Grafika_wekt5
  6
CONTINUOUS
 62
     7
 10
422.9158
 20
215.142600000000020
 11
422.9158
 21
199.019299999999990
  0
LINE
  8
PT3-Grafika_wekt5
  6
CONTINUOUS
 62
     7
 10
483.1747
 20
220.141300000000000
 11
483.1747
 21
225.139900000000010
  0
LINE
  8
PT3-Grafika_wekt5
  6
CONTINUOUS
 62
     7
 10
483.1747
 20
225.139900000000010
 11
487.6717
 21
225.139900000000010
  0
LINE
  8
PT3-Grafika_wekt5
  6
CONTINUOUS
 62
     7
 10
487.6717
 20
225.139900000000010
 11
487.6717
 21
216.746100000000010
  0
LINE
  8
PT3-Grafika_wekt5
  6
CONTINUOUS
 62
     7
 10
514.5551
 20
206.985300000000000
 11
514.5551
 21
210.143900000000000
  0
LINE
  8
PT3-Grafika_wekt5
  6
CONTINUOUS
 62
     7
 10
514.5551
 20
210.143900000000000
 11
523.5492
 21
210.143900000000000
  0
LINE
  8
PT3-Grafika_wekt5
  6
CONTINUOUS
 62
     7
 10
523.5492
 20
210.143900000000000
 11
523.5492
 21
206.985300000000000
  0
LINE
  8
PT3-Grafika_wekt5
  6
CONTINUOUS
 62
     7
 10
595.2858
 20
94.048300000000012
 11
13.218
 21
96.423800000000000
  0
LINE
  8
PT3-Grafika_wekt5
  6
CONTINUOUS
 62
     7
 10
461.7168
 20
94.593400000000003
 11
461.7168
 21
96.873400000000004
  0
LINE
  8
PT3-Grafika_wekt5
  6
CONTINUOUS
 62
     7
 10
461.7168
 20
96.873400000000004
 11
484.249
 21
96.873400000000004
  0
LINE
  8
PT3-Grafika_wekt5
  6
CONTINUOUS
 62
     7
 10
484.249
 20
96.873400000000004
 11
484.249
 21
94.501499999999993
  0
LINE
  8
PT3-Grafika_wekt5
  6
CONTINUOUS
 62
     7
 10
481.2356
 20
98.873400000000004
 11
481.2756
 21
96.873400000000004
  0
LINE
  8
PT3-Grafika_wekt5
  6
CONTINUOUS
 62
     7
 10
464.7158
 20
98.873400000000004
 11
464.7235
 21
96.873400000000004
  0
LINE
  8
PT3-Grafika_wekt5
  6
CONTINUOUS
 62
     7
 10
413.9218
 20
199.019299999999990
 11
422.9158
 21
199.019299999999990
  0
LINE
  8
PT3-Grafika_wekt5
  6
CONTINUOUS
 62
     7
 10
483.1744
 20
209.084400000000020
 11
487.6715
 21
209.084400000000020
  0
LINE
  8
PT3-Grafika_wekt5
  6
CONTINUOUS
 62
     7
 10
279.1547
 20
164.078700000000000
 11
285.3659
 21
164.261399999999980
  0
LINE
  8
PT3-Grafika_wekt5
  6
CONTINUOUS
 62
     7
 10
285.3659
 20
164.261399999999980
 11
285.4193
 21
161.343900000000020
  0
LINE
  8
PT3-Grafika_wekt5
  6
CONTINUOUS
 62
     7
 10
279.1536
 20
159.841000000000010
 11
279.1388
 21
99.373199999999997
  0
LINE
  8
PT3-Grafika_wekt5
  6
CONTINUOUS
 62
     7
 10
276.5931
 20
171.168800000000000
 11
317.4032
 21
209.863300000000010
  0
LINE
  8
PT3-Grafika_wekt5
  6
CONTINUOUS
 62
     7
 10
281.0209
 20
175.367099999999990
 11
280.9694
 21
177.355000000000020
  0
LINE
  8
PT3-Grafika_wekt5
  6
CONTINUOUS
 62
     7
 10
280.9694
 20
177.355000000000020
 11
317.2362
 21
211.741600000000010
  0
LINE
  8
PT3-Grafika_wekt5
  6
CONTINUOUS
 62
     7
 10
280.9694
 20
177.355000000000020
 11
278.1408
 21
177.270400000000000
  0
LINE
  8
PT3-Grafika_wekt5
  6
CONTINUOUS
 62
     7
 10
278.1408
 20
177.270400000000000
 11
314.397
 21
211.646999999999990
  0
LINE
  8
PT3-Grafika_wekt5
  6
CONTINUOUS
 62
     7
 10
314.397
 20
211.646999999999990
 11
317.2362
 21
211.741600000000010
  0
LINE
  8
PT3-Grafika_wekt5
  6
CONTINUOUS
 62
     7
 10
278.1408
 20
177.270400000000000
 11
278.0467
 21
172.547100000000000
  0
LINE
  8
PT3-Grafika_wekt5
  6
CONTINUOUS
 62
     7
 10
317.2362
 20
211.741600000000010
 11
319.2496
 21
209.863300000000010
  0
LINE
  8
PT3-Grafika_wekt5
  6
CONTINUOUS
 62
     7
 10
336.3733
 20
200.313899999999990
 11
340.8703
 21
200.375299999999980
  0
LINE
  8
PT3-Grafika_wekt5
  6
CONTINUOUS
 62
     7
 10
302.9127
 20
187.125400000000010
 11
307.111
 21
187.125600000000020
  0
LINE
  8
PT3-Grafika_wekt5
  6
CONTINUOUS
 62
     7
 10
307.111
 20
187.125600000000020
 11
311.7309
 21
189.207699999999990
  0
ENDSEC
  0
EOF
