  0
SECTION
  2
HEADER
  9
$ACADVER
  1
AC1004
  9
$EXTMIN
 10
0.0
 20
0.0
  9
$EXTMAX
 10
390.000000000000000
 20
270.000000000000000
  9
$LIMMIN
 10
0.0
 20
0.0
  9
$LIMMAX
 10
390.000000000000000
 20
270.000000000000000
  9
$CLAYER
  8
PT4-Rzut7
  0
ENDSEC
  0
SECTION
  2
TABLES
  0
TABLE
  2
LTYPE
 70
11
  0
LTYPE
  2
CONTINUOUS
 70
     0
  3
Solid line
 72
    65
 73
     0
 40
     0.0
  0
LTYPE
  2
GESTRICHELT
 70
     0
  3
__ __ __ __ __ __ __ __ __ __ __ __ __ __ __
 72
    65
 73
     2
 40
     0.75
 49
0.5
 49
-0.25
  0
LTYPE
  2
VERDECKT
 70
     0
  3
_ _ _ _ _ _ _ _ _ _ _ _ _ _ _ _ _ _ _ _ _ _
 72
    65
 73
     2
 40
     0.25
 49
0.125
 49
-0.125
  0
LTYPE
  2
MITTELLINIE
 70
     0
  3
____ _ ____ _ ____ _ ____ _ ____ _ ____ _ __
 72
    65
 73
     4
 40
     2.0
 49
1.25
 49
-0.25
 49
0.25
 49
-0.25
  0
LTYPE
  2
PHANTOM
 70
     0
  3
_____ _ _ _____ _ _ _____ _ _ _____ _ _ ____
 72
    65
 73
     6
 40
     2.5
 49
1.25
 49
-0.25
 49
0.25
 49
-0.25
 49
0.25
 49
-0.25
  0
LTYPE
  2
PUNKTIERT
 70
     0
  3
............................................
 72
    65
 73
     2
 40
     0.25
 49
0.0
 49
-0.25
  0
LTYPE
  2
STRICHPUNKTIERT
 70
     0
  3
__ . __ . __ . __ . __ . __ . __ . __ . __ .
 72
    65
 73
     4
 40
     1.0
 49
0.5
 49
-0.25
 49
0.0
 49
-0.25
  0
LTYPE
  2
RAND
 70
     0
  3
__ __ . __ __ . __ __ . __ __ . __ __ . __ _
 72
    65
 73
     6
 40
     1.75
 49
0.5
 49
-0.25
 49
0.5
 49
-0.25
 49
0.0
 49
-0.25
  0
LTYPE
  2
TRENNLINIE
 70
     0
  3
__ . . __ . . __ . . __ . . __ . . __ . . __
 72
    65
 73
     6
 40
     1.25
 49
0.5
 49
-0.25
 49
0.0
 49
-0.25
 49
0.0
 49
-0.25
  0
LTYPE
  2
ENG_PUNKTIERT
 70
     0
  3
Schließen
 72
    65
 73
     2
 40
     0.1
 49
0.05
 49
-0.05
  0
LTYPE
  2
CLOSE
 70
     0
  3

 72
    65
 73
     0
 40
     0.0
  0
ENDTAB
  0
TABLE
  2
LAYER
 70
   16
  0
LAYER
  2
PT1-Tabelka_rysu1
 70
     0
 62
    -7
  6
CONTINUOUS
  0
LAYER
  2
PT2-Rzut2
 70
     0
 62
     7
  6
CONTINUOUS
  0
LAYER
  2
PT2-Opis3
 70
     0
 62
     7
  6
CONTINUOUS
  0
LAYER
  2
PT2-Wymiarowanie4
 70
     0
 62
     7
  6
CONTINUOUS
  0
LAYER
  2
PT3-Rzut5
 70
     0
 62
     7
  6
CONTINUOUS
  0
LAYER
  2
PT3-Kreskowanie6
 70
     0
 62
     7
  6
CONTINUOUS
  0
LAYER
  2
PT4-Rzut7
 70
     0
 62
     7
  6
CONTINUOUS
  0
LAYER
  2
PT4-Opis8
 70
     0
 62
     7
  6
CONTINUOUS
  0
LAYER
  2
PT4-Wymiarowanie9
 70
     0
 62
     7
  6
CONTINUOUS
  0
LAYER
  2
PT5-Rzut10
 70
     0
 62
    -7
  6
CONTINUOUS
  0
LAYER
  2
PT5-Kreskowanie11
 70
     0
 62
    -7
  6
CONTINUOUS
  0
LAYER
  2
PT6-Rzut12
 70
     0
 62
     7
  6
CONTINUOUS
  0
LAYER
  2
PT6-Opis13
 70
     0
 62
     7
  6
CONTINUOUS
  0
LAYER
  2
PT6-Wymiarowanie14
 70
     0
 62
     7
  6
CONTINUOUS
  0
LAYER
  2
PT7-Rzut15
 70
     0
 62
     7
  6
CONTINUOUS
  0
LAYER
  2
PT7-Kreskowanie16
 70
     0
 62
     7
  6
CONTINUOUS
  0
ENDTAB
  0
TABLE
  2
STYLE
 70
    1
  0
STYLE
  2
STANDARD
 70
    0
 40
0.0
 41
1.0
 50
0.0
71
     0
 42
0.2
  3
txt
  4

  0
ENDTAB
  0
ENDSEC
  0
SECTION
  2
ENTITIES
  0
POLYLINE
  8
PT1-Tabelka_rysu1
  6
CONTINUOUS
 62
     7
 66
     1
 70
     1
  0
VERTEX
  8
PT1-Tabelka_rysu1
 10
378.3813
 20
5.220799999999997
  0
VERTEX
  8
PT1-Tabelka_rysu1
 10
379.4396
 20
5.220799999999997
  0
VERTEX
  8
PT1-Tabelka_rysu1
 10
379.4396
 20
66.251299999999986
  0
VERTEX
  8
PT1-Tabelka_rysu1
 10
378.3813
 20
66.251299999999986
  0
SEQEND
  8
PT1-Tabelka_rysu1
  0
LINE
  8
PT1-Tabelka_rysu1
  6
CONTINUOUS
 62
     7
 10
378.3813
 20
6.279100000000028
 11
378.3813
 21
67.309699999999992
  0
LINE
  8
PT1-Tabelka_rysu1
  6
CONTINUOUS
 62
     7
 10
378.3813
 20
67.309699999999992
 11
306.4146
 21
67.309699999999992
  0
LINE
  8
PT1-Tabelka_rysu1
  6
CONTINUOUS
 62
     7
 10
306.4146
 20
6.279100000000028
 11
306.4146
 21
67.309699999999992
  0
LINE
  8
PT2-Rzut2
  6
CONTINUOUS
 62
     7
 10
52.6193
 20
31.886799999999994
 11
119.8512
 21
211.866300000000000
  0
LINE
  8
PT2-Rzut2
  6
CONTINUOUS
 62
     7
 10
119.8488
 20
211.867200000000000
 11
223.0835
 21
173.295400000000000
  0
LINE
  8
PT2-Rzut2
  6
CONTINUOUS
 62
     7
 10
223.0844
 20
173.297800000000000
 11
170.2394
 21
31.886799999999994
  0
LINE
  8
PT2-Rzut2
  6
CONTINUOUS
 62
     7
 10
232.0932
 20
177.400899999999980
 11
122.3007
 21
218.423800000000000
  0
LINE
  8
PT2-Rzut2
  6
CONTINUOUS
 62
     7
 10
115.7444
 20
220.876199999999980
 11
45.1468
 21
31.886799999999994
  0
POLYLINE
  8
PT3-Kreskowanie6
  6
CONTINUOUS
 62
     7
 66
     1
 70
     1
  0
VERTEX
  8
PT3-Kreskowanie6
 10
224.8735
 20
173.800400000000000
  0
VERTEX
  8
PT3-Kreskowanie6
 10
226.3716
 20
177.937600000000000
  0
VERTEX
  8
PT3-Kreskowanie6
 10
217.9158
 20
181.096999999999980
  0
VERTEX
  8
PT3-Kreskowanie6
 10
216.4428
 20
176.950400000000000
  0
SEQEND
  8
PT3-Kreskowanie6
  0
POLYLINE
  8
PT3-Kreskowanie6
  6
CONTINUOUS
 62
     7
 66
     1
 70
     1
  0
VERTEX
  8
PT3-Kreskowanie6
 10
46.9117
 20
31.886799999999994
  0
VERTEX
  8
PT3-Kreskowanie6
 10
51.0181
 20
31.886799999999994
  0
VERTEX
  8
PT3-Kreskowanie6
 10
118.971
 20
213.796500000000010
  0
VERTEX
  8
PT3-Kreskowanie6
 10
116.6237
 20
218.943600000000000
  0
SEQEND
  8
PT3-Kreskowanie6
  0
POLYLINE
  8
PT3-Kreskowanie6
  6
CONTINUOUS
 62
     7
 66
     1
 70
     1
  0
VERTEX
  8
PT3-Kreskowanie6
 10
116.6237
 20
218.943600000000000
  0
VERTEX
  8
PT3-Kreskowanie6
 10
118.971
 20
213.796500000000010
  0
VERTEX
  8
PT3-Kreskowanie6
 10
216.5828
 20
177.325100000000020
  0
VERTEX
  8
PT3-Kreskowanie6
 10
217.9828
 20
181.072100000000010
  0
SEQEND
  8
PT3-Kreskowanie6
  0
POLYLINE
  8
PT3-Kreskowanie6
  6
CONTINUOUS
 62
     7
 66
     1
 70
     1
  0
VERTEX
  8
PT3-Kreskowanie6
 10
230.1607
 20
176.521999999999990
  0
VERTEX
  8
PT3-Kreskowanie6
 10
226.4137
 20
177.922000000000000
  0
VERTEX
  8
PT3-Kreskowanie6
 10
171.8407
 20
31.886799999999994
  0
VERTEX
  8
PT3-Kreskowanie6
 10
176.1108
 20
31.886799999999994
  0
SEQEND
  8
PT3-Kreskowanie6
  0
LINE
  8
PT3-Rzut5
  6
CONTINUOUS
 62
     7
 10
51.0181
 20
31.886799999999994
 11
118.971
 21
213.796500000000010
  0
LINE
  8
PT3-Rzut5
  6
CONTINUOUS
 62
     7
 10
118.9686
 20
213.797400000000010
 11
216.5828
 21
177.325100000000020
  0
LINE
  8
PT3-Rzut5
  6
CONTINUOUS
 62
     7
 10
216.5837
 20
177.327400000000010
 11
216.4428
 21
176.950400000000000
  0
LINE
  8
PT3-Rzut5
  6
CONTINUOUS
 62
     7
 10
216.4404
 20
176.951300000000000
 11
224.8735
 21
173.800400000000000
  0
LINE
  8
PT3-Rzut5
  6
CONTINUOUS
 62
     7
 10
224.8744
 20
173.802700000000020
 11
171.8407
 21
31.886799999999994
  0
LINE
  8
PT3-Rzut5
  6
CONTINUOUS
 62
     7
 10
176.1108
 20
31.886799999999994
 11
230.1607
 21
176.521999999999990
  0
LINE
  8
PT3-Rzut5
  6
CONTINUOUS
 62
     7
 10
230.163
 20
176.520899999999980
 11
116.6237
 21
218.943600000000000
  0
LINE
  8
PT3-Rzut5
  6
CONTINUOUS
 62
     7
 10
116.6246
 20
218.946000000000000
 11
46.748
 21
31.886799999999994
  0
LINE
  8
PT4-Rzut7
  6
CONTINUOUS
 62
     7
 10
215.4054
 20
31.886799999999994
 11
265.1632
 21
165.057500000000000
  0
LINE
  8
PT4-Rzut7
  6
CONTINUOUS
 62
     7
 10
258.6068
 20
167.509900000000020
 11
258.6019
 21
167.496600000000000
  0
LINE
  8
PT4-Rzut7
  6
CONTINUOUS
 62
     7
 10
258.6019
 20
167.496600000000000
 11
232.1159
 21
177.392799999999990
  0
LINE
  8
PT4-Rzut7
  6
CONTINUOUS
 62
     7
 10
229.6444
 20
170.843599999999980
 11
256.1518
 21
160.939300000000000
  0
LINE
  8
PT4-Rzut7
  6
CONTINUOUS
 62
     7
 10
256.1518
 20
160.939300000000000
 11
207.9328
 21
31.886799999999994
  0
LINE
  8
PT4-Rzut7
  6
CONTINUOUS
 62
     7
 10
257.5214
 20
144.040899999999990
 11
291.0595
 21
131.510200000000000
  0
LINE
  8
PT4-Rzut7
  6
CONTINUOUS
 62
     7
 10
291.0586
 20
131.507900000000010
 11
315.9133
 21
198.018000000000000
  0
LINE
  8
PT4-Rzut7
  6
CONTINUOUS
 62
     7
 10
315.9156
 20
198.017100000000000
 11
281.441
 21
210.898100000000000
  0
LINE
  8
PT4-Rzut7
  6
CONTINUOUS
 62
     7
 10
278.4747
 20
200.103700000000000
 11
257.5237
 21
144.040100000000000
  0
LINE
  8
PT4-Rzut7
  6
CONTINUOUS
 62
     7
 10
286.9549
 20
140.516400000000000
 11
266.5313
 21
148.147200000000000
  0
LINE
  8
PT4-Rzut7
  6
CONTINUOUS
 62
     7
 10
266.5305
 20
148.144900000000010
 11
286.4845
 21
201.540899999999990
  0
LINE
  8
PT4-Rzut7
  6
CONTINUOUS
 62
     7
 10
286.4822
 20
201.541799999999990
 11
306.9056
 21
193.910900000000000
  0
LINE
  8
PT4-Rzut7
  6
CONTINUOUS
 62
     7
 10
306.9065
 20
193.913299999999990
 11
286.9526
 21
140.517300000000010
  0
LINE
  8
PT4-Rzut7
  6
CONTINUOUS
 62
     7
 10
208.1648
 20
113.376600000000000
 11
214.8155
 21
110.891099999999990
  0
LINE
  8
PT4-Rzut7
  6
CONTINUOUS
 62
     7
 10
214.8146
 20
110.888800000000000
 11
218.316
 21
120.258399999999990
  0
LINE
  8
PT4-Rzut7
  6
CONTINUOUS
 62
     7
 10
218.3184
 20
120.257499999999990
 11
211.6653
 21
122.743799999999990
  0
POLYLINE
  8
PT5-Kreskowanie11
  6
CONTINUOUS
 62
     7
 66
     1
 70
     1
  0
VERTEX
  8
PT5-Kreskowanie11
 10
209.5272
 20
31.886799999999994
  0
VERTEX
  8
PT5-Kreskowanie11
 10
213.7975
 20
31.886799999999994
  0
VERTEX
  8
PT5-Kreskowanie11
 10
263.23
 20
164.166000000000000
  0
VERTEX
  8
PT5-Kreskowanie11
 10
258.0827
 20
161.819200000000000
  0
SEQEND
  8
PT5-Kreskowanie11
  0
POLYLINE
  8
PT5-Kreskowanie11
  6
CONTINUOUS
 62
     7
 66
     1
 70
     1
  0
VERTEX
  8
PT5-Kreskowanie11
 10
258.0827
 20
161.819200000000000
  0
VERTEX
  8
PT5-Kreskowanie11
 10
263.23
 20
164.166000000000000
  0
VERTEX
  8
PT5-Kreskowanie11
 10
230.1605
 20
176.521999999999990
  0
VERTEX
  8
PT5-Kreskowanie11
 10
228.7605
 20
172.775100000000010
  0
SEQEND
  8
PT5-Kreskowanie11
  0
POLYLINE
  8
PT5-Kreskowanie11
  6
CONTINUOUS
 62
     7
 66
     1
 70
     1
  0
VERTEX
  8
PT5-Kreskowanie11
 10
209.4726
 20
121.161300000000010
  0
VERTEX
  8
PT5-Kreskowanie11
 10
207.5472
 20
116.009199999999990
  0
VERTEX
  8
PT5-Kreskowanie11
 10
215.6031
 20
112.998700000000010
  0
VERTEX
  8
PT5-Kreskowanie11
 10
217.5284
 20
118.150800000000000
  0
SEQEND
  8
PT5-Kreskowanie11
  0
LINE
  8
PT5-Rzut10
  6
CONTINUOUS
 62
     7
 10
213.7975
 20
31.886799999999994
 11
263.23
 21
164.166000000000000
  0
LINE
  8
PT5-Rzut10
  6
CONTINUOUS
 62
     7
 10
263.2323
 20
164.165200000000000
 11
230.1605
 21
176.521999999999990
  0
LINE
  8
PT5-Rzut10
  6
CONTINUOUS
 62
     7
 10
230.1614
 20
176.524400000000010
 11
228.7605
 21
172.775100000000010
  0
LINE
  8
PT5-Rzut10
  6
CONTINUOUS
 62
     7
 10
228.7582
 20
172.775899999999980
 11
258.0827
 21
161.819200000000000
  0
LINE
  8
PT5-Rzut10
  6
CONTINUOUS
 62
     7
 10
258.0836
 20
161.821500000000010
 11
209.5272
 21
31.886799999999994
  0
LINE
  8
PT5-Rzut10
  6
CONTINUOUS
 62
     7
 10
258.0488
 20
145.445200000000000
 11
290.1794
 21
133.440300000000010
  0
LINE
  8
PT5-Rzut10
  6
CONTINUOUS
 62
     7
 10
290.1785
 20
133.437999999999990
 11
313.9831
 21
197.137900000000000
  0
LINE
  8
PT5-Rzut10
  6
CONTINUOUS
 62
     7
 10
313.9854
 20
197.137100000000000
 11
280.9159
 21
209.492999999999990
  0
LINE
  8
PT5-Rzut10
  6
CONTINUOUS
 62
     7
 10
287.835
 20
138.586299999999990
 11
263.196
 21
147.792100000000000
  0
LINE
  8
PT5-Rzut10
  6
CONTINUOUS
 62
     7
 10
283.2627
 20
204.346000000000000
 11
308.8359
 21
194.791000000000000
  0
LINE
  8
PT5-Rzut10
  6
CONTINUOUS
 62
     7
 10
308.8367
 20
194.793400000000020
 11
287.8326
 21
138.587200000000000
  0
LINE
  8
PT5-Rzut10
  6
CONTINUOUS
 62
     7
 10
207.5449
 20
116.010099999999990
 11
215.6031
 21
112.998700000000010
  0
LINE
  8
PT5-Rzut10
  6
CONTINUOUS
 62
     7
 10
215.6022
 20
112.996399999999990
 11
217.5284
 21
118.150800000000000
  0
LINE
  8
PT5-Rzut10
  6
CONTINUOUS
 62
     7
 10
217.5308
 20
118.149900000000000
 11
209.4726
 21
121.161300000000010
  0
LINE
  8
PT5-Rzut10
  6
CONTINUOUS
 62
     7
 10
209.4734
 20
121.163600000000000
 11
207.5472
 21
116.009199999999990
  0
LINE
  8
PT5-Rzut10
  6
GESTRICHELT
 62
     6
 10
209.6599
 20
121.091199999999990
 11
217.5286
 21
118.151199999999990
  0
LINE
  8
PT5-Rzut10
  6
GESTRICHELT
 62
     6
 10
217.5286
 20
118.151199999999990
 11
215.6033
 21
112.999200000000000
  0
LINE
  8
PT5-Rzut10
  6
GESTRICHELT
 62
     6
 10
215.6033
 20
112.999200000000000
 11
207.7346
 21
115.939200000000000
  0
LINE
  8
PT6-Rzut12
  6
CONTINUOUS
 62
     7
 10
122.3007
 20
218.423800000000000
 11
132.9037
 21
246.808100000000000
  0
LINE
  8
PT6-Rzut12
  6
CONTINUOUS
 62
     7
 10
132.9014
 20
246.808899999999990
 11
197.7781
 21
222.568700000000010
  0
LINE
  8
PT6-Rzut12
  6
CONTINUOUS
 62
     7
 10
197.7789
 20
222.571000000000000
 11
194.593
 21
214.044299999999990
  0
LINE
  8
PT6-Rzut12
  6
CONTINUOUS
 62
     7
 10
201.1503
 20
211.594200000000000
 11
204.3353
 21
220.118699999999990
  0
LINE
  8
PT6-Rzut12
  6
CONTINUOUS
 62
     7
 10
204.333
 20
220.119599999999990
 11
269.2097
 21
195.879300000000000
  0
LINE
  8
PT6-Rzut12
  6
CONTINUOUS
 62
     7
 10
269.2105
 20
195.881700000000000
 11
258.6047
 21
167.501000000000000
  0
LINE
  8
PT6-Rzut12
  6
CONTINUOUS
 62
     7
 10
265.1643
 20
165.057099999999990
 11
278.2173
 21
199.986400000000000
  0
LINE
  8
PT6-Rzut12
  6
CONTINUOUS
 62
     7
 10
278.2196
 20
199.985500000000000
 11
128.796
 21
255.815499999999990
  0
LINE
  8
PT6-Rzut12
  6
CONTINUOUS
 62
     7
 10
128.7969
 20
255.817800000000010
 11
115.7435
 21
220.873800000000020
  0
LINE
  8
PT6-Rzut12
  6
CONTINUOUS
 62
     7
 10
155.1599
 20
215.647300000000000
 11
158.5199
 21
224.640099999999990
  0
LINE
  8
PT6-Rzut12
  6
CONTINUOUS
 62
     7
 10
151.9628
 20
227.090200000000010
 11
148.6027
 21
218.097399999999990
  0
LINE
  8
PT6-Rzut12
  6
CONTINUOUS
 62
     7
 10
238.6238
 20
184.461000000000010
 11
241.9838
 21
193.453800000000000
  0
LINE
  8
PT6-Rzut12
  6
CONTINUOUS
 62
     7
 10
235.4266
 20
195.903899999999990
 11
232.0666
 21
186.911100000000000
  0
POLYLINE
  8
PT7-Kreskowanie16
  6
CONTINUOUS
 62
     7
 66
     1
 70
     1
  0
VERTEX
  8
PT7-Kreskowanie16
 10
116.6237
 20
218.943600000000000
  0
VERTEX
  8
PT7-Kreskowanie16
 10
120.3708
 20
217.543900000000010
  0
VERTEX
  8
PT7-Kreskowanie16
 10
132.0235
 20
248.738200000000010
  0
VERTEX
  8
PT7-Kreskowanie16
 10
129.6762
 20
253.885300000000000
  0
SEQEND
  8
PT7-Kreskowanie16
  0
POLYLINE
  8
PT7-Kreskowanie16
  6
CONTINUOUS
 62
     7
 66
     1
 70
     1
  0
VERTEX
  8
PT7-Kreskowanie16
 10
129.6762
 20
253.885300000000000
  0
VERTEX
  8
PT7-Kreskowanie16
 10
132.0235
 20
248.738200000000010
  0
VERTEX
  8
PT7-Kreskowanie16
 10
271.1399
 20
196.759400000000000
  0
VERTEX
  8
PT7-Kreskowanie16
 10
276.2871
 20
199.106300000000000
  0
SEQEND
  8
PT7-Kreskowanie16
  0
POLYLINE
  8
PT7-Kreskowanie16
  6
CONTINUOUS
 62
     7
 66
     1
 70
     1
  0
VERTEX
  8
PT7-Kreskowanie16
 10
276.2871
 20
199.106300000000000
  0
VERTEX
  8
PT7-Kreskowanie16
 10
271.1399
 20
196.759400000000000
  0
VERTEX
  8
PT7-Kreskowanie16
 10
259.483
 20
165.566300000000010
  0
VERTEX
  8
PT7-Kreskowanie16
 10
263.23
 20
164.166000000000000
  0
SEQEND
  8
PT7-Kreskowanie16
  0
LINE
  8
PT7-Rzut15
  6
CONTINUOUS
 62
     7
 10
120.3699
 20
217.541600000000020
 11
132.0235
 21
248.738200000000010
  0
LINE
  8
PT7-Rzut15
  6
CONTINUOUS
 62
     7
 10
199.8027
 20
223.416200000000000
 11
196.6518
 21
214.983000000000000
  0
LINE
  8
PT7-Rzut15
  6
CONTINUOUS
 62
     7
 10
196.6495
 20
214.983900000000010
 11
200.2115
 21
213.652999999999990
  0
LINE
  8
PT7-Rzut15
  6
CONTINUOUS
 62
     7
 10
200.2106
 20
213.650700000000000
 11
203.3615
 21
222.083800000000000
  0
LINE
  8
PT7-Rzut15
  6
CONTINUOUS
 62
     7
 10
132.0235
 20
248.738200000000010
 11
271.1399
 21
196.759400000000000
  0
LINE
  8
PT7-Rzut15
  6
CONTINUOUS
 62
     7
 10
271.1408
 20
196.761799999999990
 11
259.483
 21
165.566300000000010
  0
LINE
  8
PT7-Rzut15
  6
CONTINUOUS
 62
     7
 10
263.2291
 20
164.163700000000010
 11
276.2871
 21
199.106300000000000
  0
LINE
  8
PT7-Rzut15
  6
CONTINUOUS
 62
     7
 10
276.2894
 20
199.105500000000010
 11
129.6762
 21
253.885300000000000
  0
LINE
  8
PT7-Rzut15
  6
CONTINUOUS
 62
     7
 10
129.6771
 20
253.887700000000000
 11
116.6237
 21
218.943600000000000
  0
LINE
  8
PT7-Rzut15
  6
CONTINUOUS
 62
     7
 10
154.2202
 20
217.703800000000000
 11
156.4611
 21
223.701300000000000
  0
LINE
  8
PT7-Rzut15
  6
CONTINUOUS
 62
     7
 10
156.4635
 20
223.700400000000000
 11
152.9015
 21
225.031399999999990
  0
LINE
  8
PT7-Rzut15
  6
CONTINUOUS
 62
     7
 10
152.9024
 20
225.033700000000010
 11
150.6615
 21
219.036200000000010
  0
LINE
  8
PT7-Rzut15
  6
CONTINUOUS
 62
     7
 10
150.6591
 20
219.037100000000010
 11
154.2211
 21
217.706099999999990
  0
LINE
  8
PT7-Rzut15
  6
CONTINUOUS
 62
     7
 10
237.6845
 20
186.518399999999990
 11
239.9256
 21
192.516500000000010
  0
LINE
  8
PT7-Rzut15
  6
CONTINUOUS
 62
     7
 10
239.9279
 20
192.515600000000010
 11
236.3659
 21
193.846499999999990
  0
LINE
  8
PT7-Rzut15
  6
CONTINUOUS
 62
     7
 10
236.3668
 20
193.848799999999980
 11
234.1257
 21
187.850799999999990
  0
LINE
  8
PT7-Rzut15
  6
CONTINUOUS
 62
     7
 10
234.1234
 20
187.851600000000020
 11
237.6854
 21
186.520800000000010
  0
LINE
  8
PT2-Rzut2
  6
VERDECKT
 62
     7
 10
31.2628
 20
31.886799999999994
 11
254.7074
 21
31.886799999999994
  0
LINE
  8
PT2-Rzut2
  6
CONTINUOUS
 62
     7
 10
177.7122
 20
31.886799999999994
 11
208.9524
 21
115.484199999999990
  0
LINE
  8
PT2-Rzut2
  6
CONTINUOUS
 62
     7
 10
210.8777
 20
120.636200000000000
 11
230.1706
 21
172.263399999999990
  0
LINE
  8
PT2-Rzut2
  6
CONTINUOUS
 62
     7
 10
231.5658
 20
175.997000000000010
 11
232.0908
 21
177.401799999999980
  0
LINE
  8
PT5-Rzut10
  6
CONTINUOUS
 62
     7
 10
258.0488
 20
145.445200000000000
 11
278.4747
 21
200.103700000000000
  0
LINE
  8
PT7-Rzut15
  6
CONTINUOUS
 62
     7
 10
199.8018
 20
223.413900000000010
 11
203.3615
 21
222.083800000000000
  0
LINE
  8
PT6-Rzut12
  6
CONTINUOUS
 62
     7
 10
197.7789
 20
222.571000000000000
 11
199.2775
 21
222.010500000000010
  0
LINE
  8
PT6-Rzut12
  6
CONTINUOUS
 62
     7
 10
202.8139
 20
220.687800000000010
 11
204.333
 21
220.119599999999990
  0
LINE
  8
PT6-Rzut12
  6
CONTINUOUS
 62
     7
 10
194.593
 20
214.044299999999990
 11
201.1503
 21
211.594200000000000
  0
LINE
  8
PT6-Rzut12
  6
CONTINUOUS
 62
     7
 10
151.9628
 20
227.090200000000010
 11
158.5199
 21
224.640099999999990
  0
LINE
  8
PT6-Rzut12
  6
CONTINUOUS
 62
     7
 10
148.6027
 20
218.097399999999990
 11
155.1599
 21
215.647300000000000
  0
LINE
  8
PT6-Rzut12
  6
CONTINUOUS
 62
     7
 10
235.4266
 20
195.903899999999990
 11
241.9838
 21
193.453800000000000
  0
LINE
  8
PT6-Rzut12
  6
CONTINUOUS
 62
     7
 10
232.0666
 20
186.911100000000000
 11
238.6238
 21
184.461000000000010
  0
TEXT
  8
PT6-Wymiarowanie14
  6
CONTINUOUS
 62
     7
 10
132.379799999999990
 20
220.288299999999990
 40
2.000000000000000
 50
339.500000000000000
  1
2,62
  0
TEXT
  8
PT6-Wymiarowanie14
  6
CONTINUOUS
 62
     7
 10
138.551500000000000
 20
218.759999999999990
 40
1.500000000000000
 50
339.500000000000000
  1
5
  0
LINE
  8
PT6-Wymiarowanie14
  6
CONTINUOUS
 62
     7
 10
121.8715
 20
221.561300000000020
 11
146.4623
 21
212.369000000000000
  0
LINE
  8
PT6-Wymiarowanie14
  6
CONTINUOUS
 62
     7
 10
120.9348
 20
221.911400000000010
 11
121.8715
 21
221.561300000000020
  0
LINE
  8
PT6-Wymiarowanie14
  6
CONTINUOUS
 62
     7
 10
147.399
 20
212.018800000000000
 11
146.4623
 21
212.369000000000000
  0
LINE
  8
PT6-Wymiarowanie14
  6
CONTINUOUS
 62
     7
 10
122.5148
 20
221.854500000000000
 11
121.2282
 21
221.268100000000000
  0
LINE
  8
PT6-Wymiarowanie14
  6
CONTINUOUS
 62
     7
 10
147.1057
 20
212.662199999999980
 11
145.819
 21
212.075699999999980
  0
LINE
  8
PT6-Wymiarowanie14
  6
CONTINUOUS
 62
     7
 10
121.5213
 20
220.624599999999990
 11
122.2216
 21
222.497999999999990
  0
LINE
  8
PT6-Wymiarowanie14
  6
CONTINUOUS
 62
     7
 10
146.1122
 20
211.432300000000000
 11
146.8125
 21
213.305700000000000
  0
TEXT
  8
PT6-Wymiarowanie14
  6
CONTINUOUS
 62
     7
 10
149.049600000000000
 20
214.056899999999980
 40
2.000000000000000
 50
339.500000000000000
  1
70
  0
LINE
  8
PT6-Wymiarowanie14
  6
CONTINUOUS
 62
     7
 10
146.4623
 20
212.369000000000000
 11
153.0191
 21
209.917900000000000
  0
LINE
  8
PT6-Wymiarowanie14
  6
CONTINUOUS
 62
     7
 10
145.5256
 20
212.719100000000000
 11
146.4623
 21
212.369000000000000
  0
LINE
  8
PT6-Wymiarowanie14
  6
CONTINUOUS
 62
     7
 10
153.9558
 20
209.567800000000010
 11
153.0191
 21
209.917900000000000
  0
LINE
  8
PT6-Wymiarowanie14
  6
CONTINUOUS
 62
     7
 10
147.1057
 20
212.662199999999980
 11
145.819
 21
212.075699999999980
  0
LINE
  8
PT6-Wymiarowanie14
  6
CONTINUOUS
 62
     7
 10
153.6625
 20
210.211199999999990
 11
152.3758
 21
209.624699999999990
  0
LINE
  8
PT6-Wymiarowanie14
  6
CONTINUOUS
 62
     7
 10
146.1122
 20
211.432300000000000
 11
146.8125
 21
213.305700000000000
  0
LINE
  8
PT6-Wymiarowanie14
  6
CONTINUOUS
 62
     7
 10
152.669
 20
208.981300000000000
 11
153.3693
 21
210.854600000000000
  0
TEXT
  8
PT6-Wymiarowanie14
  6
CONTINUOUS
 62
     7
 10
168.794999999999990
 20
206.675900000000010
 40
2.000000000000000
 50
339.500000000000000
  1
3,75
  0
LINE
  8
PT6-Wymiarowanie14
  6
CONTINUOUS
 62
     7
 10
153.0191
 20
209.917900000000000
 11
188.1452
 21
196.787399999999990
  0
LINE
  8
PT6-Wymiarowanie14
  6
CONTINUOUS
 62
     7
 10
152.0824
 20
210.268100000000000
 11
153.0191
 21
209.917900000000000
  0
LINE
  8
PT6-Wymiarowanie14
  6
CONTINUOUS
 62
     7
 10
189.0818
 20
196.437299999999990
 11
188.1452
 21
196.787399999999990
  0
LINE
  8
PT6-Wymiarowanie14
  6
CONTINUOUS
 62
     7
 10
153.6625
 20
210.211199999999990
 11
152.3758
 21
209.624699999999990
  0
LINE
  8
PT6-Wymiarowanie14
  6
CONTINUOUS
 62
     7
 10
188.7885
 20
197.080699999999980
 11
187.5018
 21
196.494200000000010
  0
LINE
  8
PT6-Wymiarowanie14
  6
CONTINUOUS
 62
     7
 10
152.669
 20
208.981300000000000
 11
153.3693
 21
210.854600000000000
  0
LINE
  8
PT6-Wymiarowanie14
  6
CONTINUOUS
 62
     7
 10
187.795
 20
195.850700000000020
 11
188.4953
 21
197.724100000000020
  0
TEXT
  8
PT6-Wymiarowanie14
  6
CONTINUOUS
 62
     7
 10
190.732499999999990
 20
198.475399999999980
 40
2.000000000000000
 50
339.500000000000000
  1
70
  0
LINE
  8
PT6-Wymiarowanie14
  6
CONTINUOUS
 62
     7
 10
188.1452
 20
196.787399999999990
 11
194.7022
 21
194.336299999999990
  0
LINE
  8
PT6-Wymiarowanie14
  6
CONTINUOUS
 62
     7
 10
187.2085
 20
197.137600000000020
 11
188.1452
 21
196.787399999999990
  0
LINE
  8
PT6-Wymiarowanie14
  6
CONTINUOUS
 62
     7
 10
195.6389
 20
193.986200000000000
 11
194.7022
 21
194.336299999999990
  0
LINE
  8
PT6-Wymiarowanie14
  6
CONTINUOUS
 62
     7
 10
188.7885
 20
197.080699999999980
 11
187.5018
 21
196.494200000000010
  0
LINE
  8
PT6-Wymiarowanie14
  6
CONTINUOUS
 62
     7
 10
195.3455
 20
194.629599999999980
 11
194.0588
 21
194.043099999999980
  0
LINE
  8
PT6-Wymiarowanie14
  6
CONTINUOUS
 62
     7
 10
187.795
 20
195.850700000000020
 11
188.4953
 21
197.724100000000020
  0
LINE
  8
PT6-Wymiarowanie14
  6
CONTINUOUS
 62
     7
 10
194.352
 20
193.399700000000000
 11
195.0523
 21
195.273000000000000
  0
TEXT
  8
PT6-Wymiarowanie14
  6
CONTINUOUS
 62
     7
 10
210.524900000000000
 20
191.076799999999990
 40
2.000000000000000
 50
339.500000000000000
  1
3,76
  0
LINE
  8
PT6-Wymiarowanie14
  6
CONTINUOUS
 62
     7
 10
194.7022
 20
194.336299999999990
 11
229.9218
 21
181.170799999999990
  0
LINE
  8
PT6-Wymiarowanie14
  6
CONTINUOUS
 62
     7
 10
193.7655
 20
194.686500000000000
 11
194.7022
 21
194.336299999999990
  0
LINE
  8
PT6-Wymiarowanie14
  6
CONTINUOUS
 62
     7
 10
230.8585
 20
180.820699999999990
 11
229.9218
 21
181.170799999999990
  0
LINE
  8
PT6-Wymiarowanie14
  6
CONTINUOUS
 62
     7
 10
195.3455
 20
194.629599999999980
 11
194.0588
 21
194.043099999999980
  0
LINE
  8
PT6-Wymiarowanie14
  6
CONTINUOUS
 62
     7
 10
230.5651
 20
181.464100000000000
 11
229.2785
 21
180.877600000000000
  0
LINE
  8
PT6-Wymiarowanie14
  6
CONTINUOUS
 62
     7
 10
194.352
 20
193.399700000000000
 11
195.0523
 21
195.273000000000000
  0
LINE
  8
PT6-Wymiarowanie14
  6
CONTINUOUS
 62
     7
 10
229.5716
 20
180.234100000000010
 11
230.2719
 21
182.107500000000020
  0
TEXT
  8
PT6-Wymiarowanie14
  6
CONTINUOUS
 62
     7
 10
232.509099999999990
 20
182.858800000000000
 40
2.000000000000000
 50
339.500000000000000
  1
70
  0
LINE
  8
PT6-Wymiarowanie14
  6
CONTINUOUS
 62
     7
 10
229.9218
 20
181.170799999999990
 11
236.4787
 21
178.719800000000020
  0
LINE
  8
PT6-Wymiarowanie14
  6
CONTINUOUS
 62
     7
 10
228.9851
 20
181.521000000000020
 11
229.9218
 21
181.170799999999990
  0
LINE
  8
PT6-Wymiarowanie14
  6
CONTINUOUS
 62
     7
 10
237.4154
 20
178.369599999999990
 11
236.4787
 21
178.719800000000020
  0
LINE
  8
PT6-Wymiarowanie14
  6
CONTINUOUS
 62
     7
 10
230.5651
 20
181.464100000000000
 11
229.2785
 21
180.877600000000000
  0
LINE
  8
PT6-Wymiarowanie14
  6
CONTINUOUS
 62
     7
 10
237.122
 20
179.013000000000010
 11
235.8354
 21
178.426600000000010
  0
LINE
  8
PT6-Wymiarowanie14
  6
CONTINUOUS
 62
     7
 10
229.5716
 20
180.234100000000010
 11
230.2719
 21
182.107500000000020
  0
LINE
  8
PT6-Wymiarowanie14
  6
CONTINUOUS
 62
     7
 10
236.1286
 20
177.783099999999990
 11
236.8289
 21
179.656499999999990
  0
TEXT
  8
PT6-Wymiarowanie14
  6
CONTINUOUS
 62
     7
 10
246.940400000000010
 20
177.464200000000010
 40
2.000000000000000
 50
339.500000000000000
  1
2,61
  0
TEXT
  8
PT6-Wymiarowanie14
  6
CONTINUOUS
 62
     7
 10
253.112100000000000
 20
175.935900000000000
 40
1.500000000000000
 50
339.500000000000000
  1
5
  0
LINE
  8
PT6-Wymiarowanie14
  6
CONTINUOUS
 62
     7
 10
236.4787
 20
178.719800000000020
 11
260.9763
 21
169.562299999999990
  0
LINE
  8
PT6-Wymiarowanie14
  6
CONTINUOUS
 62
     7
 10
235.542
 20
179.069900000000020
 11
236.4787
 21
178.719800000000020
  0
LINE
  8
PT6-Wymiarowanie14
  6
CONTINUOUS
 62
     7
 10
261.913
 20
169.212100000000020
 11
260.9763
 21
169.562299999999990
  0
LINE
  8
PT6-Wymiarowanie14
  6
CONTINUOUS
 62
     7
 10
237.122
 20
179.013000000000010
 11
235.8354
 21
178.426600000000010
  0
LINE
  8
PT6-Wymiarowanie14
  6
CONTINUOUS
 62
     7
 10
261.6196
 20
169.855500000000010
 11
260.333
 21
169.269099999999980
  0
LINE
  8
PT6-Wymiarowanie14
  6
CONTINUOUS
 62
     7
 10
236.1286
 20
177.783099999999990
 11
236.8289
 21
179.656499999999990
  0
LINE
  8
PT6-Wymiarowanie14
  6
CONTINUOUS
 62
     7
 10
260.6262
 20
168.625600000000020
 11
261.3265
 21
170.499000000000000
  0
TEXT
  8
PT6-Wymiarowanie14
  6
CONTINUOUS
 62
     7
 10
157.838699999999990
 20
206.695300000000000
 40
2.000000000000000
 50
69.799999999999997
  1
1,04
  0
LINE
  8
PT6-Wymiarowanie14
  6
CONTINUOUS
 62
     7
 10
159.0739
 20
203.123600000000010
 11
162.6672
 21
212.883299999999990
  0
LINE
  8
PT6-Wymiarowanie14
  6
CONTINUOUS
 62
     7
 10
158.7284
 20
202.185200000000010
 11
159.0739
 21
203.123600000000010
  0
LINE
  8
PT6-Wymiarowanie14
  6
CONTINUOUS
 62
     7
 10
163.0127
 20
213.821699999999990
 11
162.6672
 21
212.883299999999990
  0
LINE
  8
PT6-Wymiarowanie14
  6
CONTINUOUS
 62
     7
 10
158.7775
 20
203.765500000000000
 11
159.3704
 21
202.481699999999990
  0
LINE
  8
PT6-Wymiarowanie14
  6
CONTINUOUS
 62
     7
 10
162.3708
 20
213.525199999999980
 11
162.9636
 21
212.241500000000000
  0
LINE
  8
PT6-Wymiarowanie14
  6
CONTINUOUS
 62
     7
 10
160.0124
 20
202.778099999999990
 11
158.1355
 21
203.469100000000000
  0
LINE
  8
PT6-Wymiarowanie14
  6
CONTINUOUS
 62
     7
 10
163.6056
 20
212.537800000000000
 11
161.7288
 21
213.228800000000010
  0
TEXT
  8
PT6-Wymiarowanie14
  6
CONTINUOUS
 62
     7
 10
161.698000000000010
 20
217.177500000000010
 40
2.000000000000000
 50
69.799999999999997
  1
96
  0
LINE
  8
PT6-Wymiarowanie14
  6
CONTINUOUS
 62
     7
 10
162.6672
 20
212.883299999999990
 11
165.984
 21
221.892000000000000
  0
LINE
  8
PT6-Wymiarowanie14
  6
CONTINUOUS
 62
     7
 10
162.3217
 20
211.944899999999990
 11
162.6672
 21
212.883299999999990
  0
LINE
  8
PT6-Wymiarowanie14
  6
CONTINUOUS
 62
     7
 10
166.3295
 20
222.830500000000000
 11
165.984
 21
221.892000000000000
  0
LINE
  8
PT6-Wymiarowanie14
  6
CONTINUOUS
 62
     7
 10
162.3708
 20
213.525199999999980
 11
162.9636
 21
212.241500000000000
  0
LINE
  8
PT6-Wymiarowanie14
  6
CONTINUOUS
 62
     7
 10
165.6876
 20
222.533900000000020
 11
166.2804
 21
221.250200000000010
  0
LINE
  8
PT6-Wymiarowanie14
  6
CONTINUOUS
 62
     7
 10
163.6056
 20
212.537800000000000
 11
161.7288
 21
213.228800000000010
  0
LINE
  8
PT6-Wymiarowanie14
  6
CONTINUOUS
 62
     7
 10
166.9224
 20
221.546500000000010
 11
165.0456
 21
222.237500000000010
  0
TEXT
  8
PT6-Wymiarowanie14
  6
CONTINUOUS
 62
     7
 10
165.249599999999990
 20
226.824000000000010
 40
2.000000000000000
 50
69.799999999999997
  1
1,33
  0
LINE
  8
PT6-Wymiarowanie14
  6
CONTINUOUS
 62
     7
 10
165.984
 20
221.892000000000000
 11
170.579
 21
234.372400000000000
  0
LINE
  8
PT6-Wymiarowanie14
  6
CONTINUOUS
 62
     7
 10
165.6385
 20
220.953599999999990
 11
165.984
 21
221.892000000000000
  0
LINE
  8
PT6-Wymiarowanie14
  6
CONTINUOUS
 62
     7
 10
170.9245
 20
235.310800000000000
 11
170.579
 21
234.372400000000000
  0
LINE
  8
PT6-Wymiarowanie14
  6
CONTINUOUS
 62
     7
 10
165.6876
 20
222.533900000000020
 11
166.2804
 21
221.250200000000010
  0
LINE
  8
PT6-Wymiarowanie14
  6
CONTINUOUS
 62
     7
 10
170.2825
 20
235.014299999999990
 11
170.8754
 21
233.730500000000010
  0
LINE
  8
PT6-Wymiarowanie14
  6
CONTINUOUS
 62
     7
 10
166.9224
 20
221.546500000000010
 11
165.0456
 21
222.237500000000010
  0
LINE
  8
PT6-Wymiarowanie14
  6
CONTINUOUS
 62
     7
 10
171.5174
 20
234.026900000000010
 11
169.6405
 21
234.717899999999990
  0
TEXT
  8
PT6-Wymiarowanie14
  6
CONTINUOUS
 62
     7
 10
198.834599999999990
 20
197.917300000000010
 40
2.000000000000000
 50
69.599999999999994
  1
2,27
  0
LINE
  8
PT6-Wymiarowanie14
  6
CONTINUOUS
 62
     7
 10
197.9106
 20
188.576700000000020
 11
205.8357
 21
209.848600000000000
  0
LINE
  8
PT6-Wymiarowanie14
  6
CONTINUOUS
 62
     7
 10
197.5614
 20
187.639700000000000
 11
197.9106
 21
188.576700000000020
  0
LINE
  8
PT6-Wymiarowanie14
  6
CONTINUOUS
 62
     7
 10
206.1848
 20
210.785699999999990
 11
205.8357
 21
209.848600000000000
  0
LINE
  8
PT6-Wymiarowanie14
  6
CONTINUOUS
 62
     7
 10
197.6166
 20
189.219699999999990
 11
198.2045
 21
187.933699999999990
  0
LINE
  8
PT6-Wymiarowanie14
  6
CONTINUOUS
 62
     7
 10
205.5417
 20
210.491600000000010
 11
206.1296
 21
209.205600000000000
  0
LINE
  8
PT6-Wymiarowanie14
  6
CONTINUOUS
 62
     7
 10
198.8476
 20
188.227600000000000
 11
196.9735
 21
188.925900000000010
  0
LINE
  8
PT6-Wymiarowanie14
  6
CONTINUOUS
 62
     7
 10
206.7728
 20
209.499500000000010
 11
204.8986
 21
210.197800000000000
  0
TEXT
  8
PT6-Wymiarowanie14
  6
CONTINUOUS
 62
     7
 10
204.647500000000010
 20
213.519800000000000
 40
2.000000000000000
 50
69.599999999999994
  1
1,06
  0
LINE
  8
PT6-Wymiarowanie14
  6
CONTINUOUS
 62
     7
 10
205.8357
 20
209.848600000000000
 11
209.5364
 21
219.781700000000000
  0
LINE
  8
PT6-Wymiarowanie14
  6
CONTINUOUS
 62
     7
 10
205.4866
 20
208.911599999999990
 11
205.8357
 21
209.848600000000000
  0
LINE
  8
PT6-Wymiarowanie14
  6
CONTINUOUS
 62
     7
 10
209.8855
 20
220.718799999999990
 11
209.5364
 21
219.781700000000000
  0
LINE
  8
PT6-Wymiarowanie14
  6
CONTINUOUS
 62
     7
 10
205.5417
 20
210.491600000000010
 11
206.1296
 21
209.205600000000000
  0
LINE
  8
PT6-Wymiarowanie14
  6
CONTINUOUS
 62
     7
 10
209.2424
 20
220.424700000000000
 11
209.8303
 21
219.138700000000000
  0
LINE
  8
PT6-Wymiarowanie14
  6
CONTINUOUS
 62
     7
 10
206.7728
 20
209.499500000000010
 11
204.8986
 21
210.197800000000000
  0
LINE
  8
PT6-Wymiarowanie14
  6
CONTINUOUS
 62
     7
 10
210.4734
 20
219.432600000000010
 11
208.5993
 21
220.130799999999990
  0
TEXT
  8
PT6-Wymiarowanie14
  6
CONTINUOUS
 62
     7
 10
241.287900000000010
 20
175.505100000000000
 40
2.000000000000000
 50
69.700000000000003
  1
1,04
  0
LINE
  8
PT6-Wymiarowanie14
  6
CONTINUOUS
 62
     7
 10
242.5186
 20
171.932000000000020
 11
246.1268
 21
181.685200000000010
  0
LINE
  8
PT6-Wymiarowanie14
  6
CONTINUOUS
 62
     7
 10
242.1716
 20
170.994200000000010
 11
242.5186
 21
171.932000000000020
  0
LINE
  8
PT6-Wymiarowanie14
  6
CONTINUOUS
 62
     7
 10
246.4738
 20
182.623099999999990
 11
246.1268
 21
181.685200000000010
  0
LINE
  8
PT6-Wymiarowanie14
  6
CONTINUOUS
 62
     7
 10
242.2232
 20
172.574400000000000
 11
242.814
 21
171.289699999999980
  0
LINE
  8
PT6-Wymiarowanie14
  6
CONTINUOUS
 62
     7
 10
245.8314
 20
182.327499999999990
 11
246.4222
 21
181.042900000000000
  0
LINE
  8
PT6-Wymiarowanie14
  6
CONTINUOUS
 62
     7
 10
243.4565
 20
171.585100000000010
 11
241.5807
 21
172.279000000000000
  0
LINE
  8
PT6-Wymiarowanie14
  6
CONTINUOUS
 62
     7
 10
247.0647
 20
181.338200000000000
 11
245.1889
 21
182.032199999999990
  0
TEXT
  8
PT6-Wymiarowanie14
  6
CONTINUOUS
 62
     7
 10
245.163500000000000
 20
185.980700000000010
 40
2.000000000000000
 50
69.700000000000003
  1
96
  0
LINE
  8
PT6-Wymiarowanie14
  6
CONTINUOUS
 62
     7
 10
246.1268
 20
181.685200000000010
 11
249.4578
 21
190.688699999999980
  0
LINE
  8
PT6-Wymiarowanie14
  6
CONTINUOUS
 62
     7
 10
245.7799
 20
180.747300000000000
 11
246.1268
 21
181.685200000000010
  0
LINE
  8
PT6-Wymiarowanie14
  6
CONTINUOUS
 62
     7
 10
249.8047
 20
191.626600000000000
 11
249.4578
 21
190.688699999999980
  0
LINE
  8
PT6-Wymiarowanie14
  6
CONTINUOUS
 62
     7
 10
245.8314
 20
182.327499999999990
 11
246.4222
 21
181.042900000000000
  0
LINE
  8
PT6-Wymiarowanie14
  6
CONTINUOUS
 62
     7
 10
249.1623
 20
191.331099999999990
 11
249.7532
 21
190.046400000000010
  0
LINE
  8
PT6-Wymiarowanie14
  6
CONTINUOUS
 62
     7
 10
247.0647
 20
181.338200000000000
 11
245.1889
 21
182.032199999999990
  0
LINE
  8
PT6-Wymiarowanie14
  6
CONTINUOUS
 62
     7
 10
250.3956
 20
190.341800000000010
 11
248.5199
 21
191.035700000000020
  0
TEXT
  8
PT6-Wymiarowanie14
  6
CONTINUOUS
 62
     7
 10
248.730600000000010
 20
195.622600000000010
 40
2.000000000000000
 50
69.700000000000003
  1
1,33
  0
LINE
  8
PT6-Wymiarowanie14
  6
CONTINUOUS
 62
     7
 10
249.4578
 20
190.688699999999980
 11
254.0729
 21
203.163600000000000
  0
LINE
  8
PT6-Wymiarowanie14
  6
CONTINUOUS
 62
     7
 10
249.1108
 20
189.750900000000000
 11
249.4578
 21
190.688699999999980
  0
LINE
  8
PT6-Wymiarowanie14
  6
CONTINUOUS
 62
     7
 10
254.4199
 20
204.101499999999990
 11
254.0729
 21
203.163600000000000
  0
LINE
  8
PT6-Wymiarowanie14
  6
CONTINUOUS
 62
     7
 10
249.1623
 20
191.331099999999990
 11
249.7532
 21
190.046400000000010
  0
LINE
  8
PT6-Wymiarowanie14
  6
CONTINUOUS
 62
     7
 10
253.7775
 20
203.805900000000010
 11
254.3683
 21
202.521300000000000
  0
LINE
  8
PT6-Wymiarowanie14
  6
CONTINUOUS
 62
     7
 10
250.3956
 20
190.341800000000010
 11
248.5199
 21
191.035700000000020
  0
LINE
  8
PT6-Wymiarowanie14
  6
CONTINUOUS
 62
     7
 10
255.0108
 20
202.816599999999990
 11
253.135
 21
203.510600000000010
  0
LINE
  8
PT6-Wymiarowanie14
  6
CONTINUOUS
 62
     7
 10
144.3851
 20
219.666499999999980
 11
144.9439
 21
221.165799999999990
  0
LINE
  8
PT6-Wymiarowanie14
  6
CONTINUOUS
 62
     7
 10
144.0358
 20
218.729500000000000
 11
144.3851
 21
219.666499999999980
  0
LINE
  8
PT6-Wymiarowanie14
  6
CONTINUOUS
 62
     7
 10
145.2932
 20
222.102800000000000
 11
144.9439
 21
221.165799999999990
  0
LINE
  8
PT6-Wymiarowanie14
  6
CONTINUOUS
 62
     7
 10
144.0913
 20
220.309599999999990
 11
144.6789
 21
219.023500000000010
  0
LINE
  8
PT6-Wymiarowanie14
  6
CONTINUOUS
 62
     7
 10
144.6501
 20
221.808799999999990
 11
145.2378
 21
220.522699999999990
  0
LINE
  8
PT6-Wymiarowanie14
  6
CONTINUOUS
 62
     7
 10
143.4481
 20
220.015800000000010
 11
145.3221
 21
219.317299999999990
  0
LINE
  8
PT6-Wymiarowanie14
  6
CONTINUOUS
 62
     7
 10
144.0069
 20
221.514999999999990
 11
145.881
 21
220.816499999999990
  0
TEXT
  8
PT6-Wymiarowanie14
  6
CONTINUOUS
 62
     7
 10
142.435599999999990
 20
219.562199999999990
 40
2.000000000000000
 50
69.599999999999994
  1
16
  0
LINE
  8
PT6-Wymiarowanie14
  6
CONTINUOUS
 62
     7
 10
144.9439
 20
221.165799999999990
 11
147.1793
 21
227.162800000000000
  0
LINE
  8
PT6-Wymiarowanie14
  6
CONTINUOUS
 62
     7
 10
144.5947
 20
220.228700000000000
 11
144.9439
 21
221.165799999999990
  0
LINE
  8
PT6-Wymiarowanie14
  6
CONTINUOUS
 62
     7
 10
147.5285
 20
228.099800000000020
 11
147.1793
 21
227.162800000000000
  0
LINE
  8
PT6-Wymiarowanie14
  6
CONTINUOUS
 62
     7
 10
144.6501
 20
221.808799999999990
 11
145.2378
 21
220.522699999999990
  0
LINE
  8
PT6-Wymiarowanie14
  6
CONTINUOUS
 62
     7
 10
146.8854
 20
227.805800000000000
 11
147.4731
 21
226.519700000000000
  0
LINE
  8
PT6-Wymiarowanie14
  6
CONTINUOUS
 62
     7
 10
144.0069
 20
221.514999999999990
 11
145.881
 21
220.816499999999990
  0
LINE
  8
PT6-Wymiarowanie14
  6
CONTINUOUS
 62
     7
 10
146.2422
 20
227.512000000000000
 11
148.1163
 21
226.813500000000000
  0
TEXT
  8
PT6-Wymiarowanie14
  6
CONTINUOUS
 62
     7
 10
144.267699999999990
 20
224.244100000000000
 40
2.000000000000000
 50
69.599999999999994
  1
64
  0
LINE
  8
PT6-Wymiarowanie14
  6
CONTINUOUS
 62
     7
 10
147.1793
 20
227.162800000000000
 11
147.7381
 21
228.662000000000010
  0
LINE
  8
PT6-Wymiarowanie14
  6
CONTINUOUS
 62
     7
 10
146.83
 20
226.225700000000020
 11
147.1793
 21
227.162800000000000
  0
LINE
  8
PT6-Wymiarowanie14
  6
CONTINUOUS
 62
     7
 10
148.0874
 20
229.598999999999990
 11
147.7381
 21
228.662000000000010
  0
LINE
  8
PT6-Wymiarowanie14
  6
CONTINUOUS
 62
     7
 10
146.8854
 20
227.805800000000000
 11
147.4731
 21
226.519700000000000
  0
LINE
  8
PT6-Wymiarowanie14
  6
CONTINUOUS
 62
     7
 10
147.4443
 20
229.305000000000010
 11
148.0319
 21
228.019000000000010
  0
LINE
  8
PT6-Wymiarowanie14
  6
CONTINUOUS
 62
     7
 10
146.2422
 20
227.512000000000000
 11
148.1163
 21
226.813500000000000
  0
LINE
  8
PT6-Wymiarowanie14
  6
CONTINUOUS
 62
     7
 10
146.8011
 20
229.011300000000010
 11
148.6751
 21
228.312700000000010
  0
TEXT
  8
PT6-Wymiarowanie14
  6
CONTINUOUS
 62
     7
 10
146.167599999999990
 20
228.315300000000010
 40
2.000000000000000
 50
69.599999999999994
  1
16
  0
LINE
  8
PT6-Wymiarowanie14
  6
CONTINUOUS
 62
     7
 10
193.0999
 20
210.048200000000010
 11
194.5987
 21
209.488200000000010
  0
LINE
  8
PT6-Wymiarowanie14
  6
CONTINUOUS
 62
     7
 10
192.1632
 20
210.398200000000000
 11
193.0999
 21
210.048200000000010
  0
LINE
  8
PT6-Wymiarowanie14
  6
CONTINUOUS
 62
     7
 10
195.5355
 20
209.138199999999980
 11
194.5987
 21
209.488200000000010
  0
LINE
  8
PT6-Wymiarowanie14
  6
CONTINUOUS
 62
     7
 10
193.7432
 20
210.341500000000000
 11
192.4566
 21
209.754899999999990
  0
LINE
  8
PT6-Wymiarowanie14
  6
CONTINUOUS
 62
     7
 10
195.242
 20
209.781499999999990
 11
193.9554
 21
209.194899999999990
  0
LINE
  8
PT6-Wymiarowanie14
  6
CONTINUOUS
 62
     7
 10
192.7499
 20
209.111500000000010
 11
193.4499
 21
210.984900000000010
  0
LINE
  8
PT6-Wymiarowanie14
  6
CONTINUOUS
 62
     7
 10
194.2487
 20
208.551400000000000
 11
194.9487
 21
210.424900000000010
  0
TEXT
  8
PT6-Wymiarowanie14
  6
CONTINUOUS
 62
     7
 10
190.377999999999990
 20
212.583200000000010
 40
2.000000000000000
 50
339.500000000000000
  1
16
  0
LINE
  8
PT6-Wymiarowanie14
  6
CONTINUOUS
 62
     7
 10
194.5987
 20
209.488200000000010
 11
198.1584
 21
208.158199999999990
  0
LINE
  8
PT6-Wymiarowanie14
  6
CONTINUOUS
 62
     7
 10
193.662
 20
209.838200000000000
 11
194.5987
 21
209.488200000000010
  0
LINE
  8
PT6-Wymiarowanie14
  6
CONTINUOUS
 62
     7
 10
199.0951
 20
207.808100000000000
 11
198.1584
 21
208.158199999999990
  0
LINE
  8
PT6-Wymiarowanie14
  6
CONTINUOUS
 62
     7
 10
195.242
 20
209.781499999999990
 11
193.9554
 21
209.194899999999990
  0
LINE
  8
PT6-Wymiarowanie14
  6
CONTINUOUS
 62
     7
 10
198.8017
 20
208.451500000000010
 11
197.5151
 21
207.864800000000000
  0
LINE
  8
PT6-Wymiarowanie14
  6
CONTINUOUS
 62
     7
 10
194.2487
 20
208.551400000000000
 11
194.9487
 21
210.424900000000010
  0
LINE
  8
PT6-Wymiarowanie14
  6
CONTINUOUS
 62
     7
 10
197.8084
 20
207.221400000000020
 11
198.5084
 21
209.094900000000000
  0
TEXT
  8
PT6-Wymiarowanie14
  6
CONTINUOUS
 62
     7
 10
195.289300000000000
 20
210.790899999999990
 40
2.000000000000000
 50
339.500000000000000
  1
38
  0
LINE
  8
PT6-Wymiarowanie14
  6
CONTINUOUS
 62
     7
 10
198.1584
 20
208.158199999999990
 11
199.6572
 21
207.598099999999990
  0
LINE
  8
PT6-Wymiarowanie14
  6
CONTINUOUS
 62
     7
 10
197.2216
 20
208.508199999999990
 11
198.1584
 21
208.158199999999990
  0
LINE
  8
PT6-Wymiarowanie14
  6
CONTINUOUS
 62
     7
 10
200.5939
 20
207.248099999999990
 11
199.6572
 21
207.598099999999990
  0
LINE
  8
PT6-Wymiarowanie14
  6
CONTINUOUS
 62
     7
 10
198.8017
 20
208.451500000000010
 11
197.5151
 21
207.864800000000000
  0
LINE
  8
PT6-Wymiarowanie14
  6
CONTINUOUS
 62
     7
 10
200.3004
 20
207.891500000000010
 11
199.0139
 21
207.304800000000000
  0
LINE
  8
PT6-Wymiarowanie14
  6
CONTINUOUS
 62
     7
 10
197.8084
 20
207.221400000000020
 11
198.5084
 21
209.094900000000000
  0
LINE
  8
PT6-Wymiarowanie14
  6
CONTINUOUS
 62
     7
 10
199.3072
 20
206.661400000000010
 11
200.0072
 21
208.534899999999990
  0
TEXT
  8
PT6-Wymiarowanie14
  6
CONTINUOUS
 62
     7
 10
199.816399999999990
 20
208.966700000000000
 40
2.000000000000000
 50
339.500000000000000
  1
16
  0
LINE
  8
PT6-Wymiarowanie14
  6
CONTINUOUS
 62
     7
 10
189.4397
 20
215.966000000000010
 11
190.0009
 21
217.468099999999990
  0
LINE
  8
PT6-Wymiarowanie14
  6
CONTINUOUS
 62
     7
 10
189.0897
 20
215.029300000000010
 11
189.4397
 21
215.966000000000010
  0
LINE
  8
PT6-Wymiarowanie14
  6
CONTINUOUS
 62
     7
 10
190.3509
 20
218.404799999999990
 11
190.0009
 21
217.468099999999990
  0
LINE
  8
PT6-Wymiarowanie14
  6
CONTINUOUS
 62
     7
 10
189.1464
 20
216.609299999999990
 11
189.733
 21
215.322700000000000
  0
LINE
  8
PT6-Wymiarowanie14
  6
CONTINUOUS
 62
     7
 10
189.7076
 20
218.111400000000000
 11
190.2942
 21
216.824800000000010
  0
LINE
  8
PT6-Wymiarowanie14
  6
CONTINUOUS
 62
     7
 10
188.5029
 20
216.316000000000000
 11
190.3764
 21
215.615999999999990
  0
LINE
  8
PT6-Wymiarowanie14
  6
CONTINUOUS
 62
     7
 10
189.0642
 20
217.818100000000020
 11
190.9377
 21
217.118100000000000
  0
TEXT
  8
PT6-Wymiarowanie14
  6
CONTINUOUS
 62
     7
 10
187.438700000000010
 20
215.806199999999990
 40
2.000000000000000
 50
69.500000000000000
  1
16
  0
LINE
  8
PT6-Wymiarowanie14
  6
CONTINUOUS
 62
     7
 10
190.0009
 20
217.468099999999990
 11
193.1525
 21
225.902999999999990
  0
LINE
  8
PT6-Wymiarowanie14
  6
CONTINUOUS
 62
     7
 10
189.6509
 20
216.531299999999990
 11
190.0009
 21
217.468099999999990
  0
LINE
  8
PT6-Wymiarowanie14
  6
CONTINUOUS
 62
     7
 10
193.5025
 20
226.839800000000000
 11
193.1525
 21
225.902999999999990
  0
LINE
  8
PT6-Wymiarowanie14
  6
CONTINUOUS
 62
     7
 10
189.7076
 20
218.111400000000000
 11
190.2942
 21
216.824800000000010
  0
LINE
  8
PT6-Wymiarowanie14
  6
CONTINUOUS
 62
     7
 10
192.8592
 20
226.546300000000000
 11
193.4458
 21
225.259700000000010
  0
LINE
  8
PT6-Wymiarowanie14
  6
CONTINUOUS
 62
     7
 10
189.0642
 20
217.818100000000020
 11
190.9377
 21
217.118100000000000
  0
LINE
  8
PT6-Wymiarowanie14
  6
CONTINUOUS
 62
     7
 10
192.2158
 20
226.252999999999990
 11
194.0893
 21
225.553000000000000
  0
TEXT
  8
PT6-Wymiarowanie14
  6
CONTINUOUS
 62
     7
 10
190.128999999999990
 20
221.627999999999990
 40
2.000000000000000
 50
69.500000000000000
  1
90
  0
LINE
  8
PT6-Wymiarowanie14
  6
CONTINUOUS
 62
     7
 10
152.7328
 20
229.151099999999990
 11
154.2316
 21
228.591000000000010
  0
LINE
  8
PT6-Wymiarowanie14
  6
CONTINUOUS
 62
     7
 10
151.796
 20
229.501100000000010
 11
152.7328
 21
229.151099999999990
  0
LINE
  8
PT6-Wymiarowanie14
  6
CONTINUOUS
 62
     7
 10
155.1683
 20
228.240999999999990
 11
154.2316
 21
228.591000000000010
  0
LINE
  8
PT6-Wymiarowanie14
  6
CONTINUOUS
 62
     7
 10
153.3761
 20
229.444400000000000
 11
152.0895
 21
228.857699999999990
  0
LINE
  8
PT6-Wymiarowanie14
  6
CONTINUOUS
 62
     7
 10
154.8749
 20
228.884400000000000
 11
153.5883
 21
228.297699999999990
  0
LINE
  8
PT6-Wymiarowanie14
  6
CONTINUOUS
 62
     7
 10
153.0828
 20
230.087800000000020
 11
152.3828
 21
228.214300000000010
  0
LINE
  8
PT6-Wymiarowanie14
  6
CONTINUOUS
 62
     7
 10
154.5816
 20
229.527800000000010
 11
153.8816
 21
227.654300000000010
  0
TEXT
  8
PT6-Wymiarowanie14
  6
CONTINUOUS
 62
     7
 10
150.531900000000010
 20
231.679700000000000
 40
2.000000000000000
 50
339.500000000000000
  1
16
  0
LINE
  8
PT6-Wymiarowanie14
  6
CONTINUOUS
 62
     7
 10
154.2316
 20
228.591000000000010
 11
157.7912
 21
227.261000000000000
  0
LINE
  8
PT6-Wymiarowanie14
  6
CONTINUOUS
 62
     7
 10
153.2948
 20
228.941100000000010
 11
154.2316
 21
228.591000000000010
  0
LINE
  8
PT6-Wymiarowanie14
  6
CONTINUOUS
 62
     7
 10
158.7279
 20
226.911000000000000
 11
157.7912
 21
227.261000000000000
  0
LINE
  8
PT6-Wymiarowanie14
  6
CONTINUOUS
 62
     7
 10
154.8749
 20
228.884400000000000
 11
153.5883
 21
228.297699999999990
  0
LINE
  8
PT6-Wymiarowanie14
  6
CONTINUOUS
 62
     7
 10
158.4345
 20
227.554399999999990
 11
157.1479
 21
226.967700000000010
  0
LINE
  8
PT6-Wymiarowanie14
  6
CONTINUOUS
 62
     7
 10
154.5816
 20
229.527800000000010
 11
153.8816
 21
227.654300000000010
  0
LINE
  8
PT6-Wymiarowanie14
  6
CONTINUOUS
 62
     7
 10
158.1412
 20
228.197800000000000
 11
157.4412
 21
226.324299999999990
  0
TEXT
  8
PT6-Wymiarowanie14
  6
CONTINUOUS
 62
     7
 10
155.001100000000010
 20
229.886799999999990
 40
2.000000000000000
 50
339.500000000000000
  1
38
  0
LINE
  8
PT6-Wymiarowanie14
  6
CONTINUOUS
 62
     7
 10
157.7912
 20
227.261000000000000
 11
159.296
 21
226.698800000000010
  0
LINE
  8
PT6-Wymiarowanie14
  6
CONTINUOUS
 62
     7
 10
156.8544
 20
227.611099999999990
 11
157.7912
 21
227.261000000000000
  0
LINE
  8
PT6-Wymiarowanie14
  6
CONTINUOUS
 62
     7
 10
160.2327
 20
226.348799999999980
 11
159.296
 21
226.698800000000010
  0
LINE
  8
PT6-Wymiarowanie14
  6
CONTINUOUS
 62
     7
 10
158.4345
 20
227.554399999999990
 11
157.1479
 21
226.967700000000010
  0
LINE
  8
PT6-Wymiarowanie14
  6
CONTINUOUS
 62
     7
 10
159.9393
 20
226.992099999999990
 11
158.6527
 21
226.405500000000020
  0
LINE
  8
PT6-Wymiarowanie14
  6
CONTINUOUS
 62
     7
 10
158.1412
 20
228.197800000000000
 11
157.4412
 21
226.324299999999990
  0
LINE
  8
PT6-Wymiarowanie14
  6
CONTINUOUS
 62
     7
 10
159.646
 20
227.635500000000010
 11
158.946
 21
225.762000000000000
  0
TEXT
  8
PT6-Wymiarowanie14
  6
CONTINUOUS
 62
     7
 10
159.497300000000000
 20
227.944200000000000
 40
2.000000000000000
 50
339.500000000000000
  1
16
  0
LINE
  8
PT6-Wymiarowanie14
  6
CONTINUOUS
 62
     7
 10
236.2164
 20
197.958300000000010
 11
237.7122
 21
197.399499999999990
  0
LINE
  8
PT6-Wymiarowanie14
  6
CONTINUOUS
 62
     7
 10
235.2796
 20
198.308400000000010
 11
236.2164
 21
197.958300000000010
  0
LINE
  8
PT6-Wymiarowanie14
  6
CONTINUOUS
 62
     7
 10
238.6489
 20
197.049499999999990
 11
237.7122
 21
197.399499999999990
  0
LINE
  8
PT6-Wymiarowanie14
  6
CONTINUOUS
 62
     7
 10
236.8596
 20
198.251700000000000
 11
235.5731
 21
197.665000000000020
  0
LINE
  8
PT6-Wymiarowanie14
  6
CONTINUOUS
 62
     7
 10
238.3554
 20
197.692800000000010
 11
237.0689
 21
197.106100000000000
  0
LINE
  8
PT6-Wymiarowanie14
  6
CONTINUOUS
 62
     7
 10
236.5664
 20
198.895100000000010
 11
235.8664
 21
197.021600000000010
  0
LINE
  8
PT6-Wymiarowanie14
  6
CONTINUOUS
 62
     7
 10
238.0622
 20
198.336200000000020
 11
237.3622
 21
196.462699999999980
  0
TEXT
  8
PT6-Wymiarowanie14
  6
CONTINUOUS
 62
     7
 10
233.776999999999990
 20
200.586799999999980
 40
2.000000000000000
 50
339.500000000000000
  1
16
  0
LINE
  8
PT6-Wymiarowanie14
  6
CONTINUOUS
 62
     7
 10
237.7122
 20
197.399499999999990
 11
241.2495
 21
196.077800000000000
  0
LINE
  8
PT6-Wymiarowanie14
  6
CONTINUOUS
 62
     7
 10
236.7754
 20
197.749500000000010
 11
237.7122
 21
197.399499999999990
  0
LINE
  8
PT6-Wymiarowanie14
  6
CONTINUOUS
 62
     7
 10
242.1863
 20
195.727800000000000
 11
241.2495
 21
196.077800000000000
  0
LINE
  8
PT6-Wymiarowanie14
  6
CONTINUOUS
 62
     7
 10
238.3554
 20
197.692800000000010
 11
237.0689
 21
197.106100000000000
  0
LINE
  8
PT6-Wymiarowanie14
  6
CONTINUOUS
 62
     7
 10
241.8928
 20
196.371100000000010
 11
240.6062
 21
195.784400000000010
  0
LINE
  8
PT6-Wymiarowanie14
  6
CONTINUOUS
 62
     7
 10
238.0622
 20
198.336200000000020
 11
237.3622
 21
196.462699999999980
  0
LINE
  8
PT6-Wymiarowanie14
  6
CONTINUOUS
 62
     7
 10
241.5995
 20
197.014500000000000
 11
240.8995
 21
195.141000000000020
  0
TEXT
  8
PT6-Wymiarowanie14
  6
CONTINUOUS
 62
     7
 10
238.431900000000010
 20
198.436000000000010
 40
2.000000000000000
 50
339.500000000000000
  1
38
  0
LINE
  8
PT6-Wymiarowanie14
  6
CONTINUOUS
 62
     7
 10
241.2108
 20
196.092199999999990
 11
242.7243
 21
195.526700000000010
  0
LINE
  8
PT6-Wymiarowanie14
  6
CONTINUOUS
 62
     7
 10
240.2741
 20
196.442200000000010
 11
241.2108
 21
196.092199999999990
  0
LINE
  8
PT6-Wymiarowanie14
  6
CONTINUOUS
 62
     7
 10
243.661
 20
195.176699999999980
 11
242.7243
 21
195.526700000000010
  0
LINE
  8
PT6-Wymiarowanie14
  6
CONTINUOUS
 62
     7
 10
241.8541
 20
196.385600000000010
 11
240.5675
 21
195.798900000000000
  0
LINE
  8
PT6-Wymiarowanie14
  6
CONTINUOUS
 62
     7
 10
243.3675
 20
195.820100000000000
 11
242.081
 21
195.233400000000020
  0
LINE
  8
PT6-Wymiarowanie14
  6
CONTINUOUS
 62
     7
 10
241.5608
 20
197.029000000000000
 11
240.8608
 21
195.155500000000020
  0
LINE
  8
PT6-Wymiarowanie14
  6
CONTINUOUS
 62
     7
 10
243.0743
 20
196.463500000000010
 11
242.3743
 21
194.590000000000000
  0
TEXT
  8
PT6-Wymiarowanie14
  6
CONTINUOUS
 62
     7
 10
242.990500000000000
 20
196.830800000000010
 40
2.000000000000000
 50
339.500000000000000
  1
16
  0
LINE
  8
PT6-Wymiarowanie14
  6
CONTINUOUS
 62
     7
 10
228.984
 20
188.062900000000010
 11
229.5436
 21
189.560499999999990
  0
LINE
  8
PT6-Wymiarowanie14
  6
CONTINUOUS
 62
     7
 10
228.634
 20
187.126100000000010
 11
228.984
 21
188.062900000000010
  0
LINE
  8
PT6-Wymiarowanie14
  6
CONTINUOUS
 62
     7
 10
229.8937
 20
190.497300000000000
 11
229.5436
 21
189.560499999999990
  0
LINE
  8
PT6-Wymiarowanie14
  6
CONTINUOUS
 62
     7
 10
228.6907
 20
188.706200000000000
 11
229.2774
 21
187.419600000000000
  0
LINE
  8
PT6-Wymiarowanie14
  6
CONTINUOUS
 62
     7
 10
229.2503
 20
190.203800000000000
 11
229.837
 21
188.917300000000010
  0
LINE
  8
PT6-Wymiarowanie14
  6
CONTINUOUS
 62
     7
 10
228.0473
 20
188.412899999999980
 11
229.9208
 21
187.712899999999990
  0
LINE
  8
PT6-Wymiarowanie14
  6
CONTINUOUS
 62
     7
 10
228.6069
 20
189.910599999999990
 11
230.4804
 21
189.210500000000000
  0
TEXT
  8
PT6-Wymiarowanie14
  6
CONTINUOUS
 62
     7
 10
226.573700000000000
 20
186.297900000000000
 40
2.000000000000000
 50
69.500000000000000
  1
16
  0
LINE
  8
PT6-Wymiarowanie14
  6
CONTINUOUS
 62
     7
 10
229.5436
 20
189.560499999999990
 11
231.7847
 21
195.558300000000000
  0
LINE
  8
PT6-Wymiarowanie14
  6
CONTINUOUS
 62
     7
 10
229.1936
 20
188.623800000000020
 11
229.5436
 21
189.560499999999990
  0
LINE
  8
PT6-Wymiarowanie14
  6
CONTINUOUS
 62
     7
 10
232.1347
 20
196.495099999999980
 11
231.7847
 21
195.558300000000000
  0
LINE
  8
PT6-Wymiarowanie14
  6
CONTINUOUS
 62
     7
 10
229.2503
 20
190.203800000000000
 11
229.837
 21
188.917300000000010
  0
LINE
  8
PT6-Wymiarowanie14
  6
CONTINUOUS
 62
     7
 10
231.4914
 20
196.201599999999980
 11
232.078
 21
194.915000000000020
  0
LINE
  8
PT6-Wymiarowanie14
  6
CONTINUOUS
 62
     7
 10
228.6069
 20
189.910599999999990
 11
230.4804
 21
189.210500000000000
  0
LINE
  8
PT6-Wymiarowanie14
  6
CONTINUOUS
 62
     7
 10
230.848
 20
195.908300000000000
 11
232.7215
 21
195.208300000000010
  0
TEXT
  8
PT6-Wymiarowanie14
  6
CONTINUOUS
 62
     7
 10
228.815300000000010
 20
192.109399999999990
 40
2.000000000000000
 50
69.500000000000000
  1
64
  0
LINE
  8
PT4-Rzut7
  6
CONTINUOUS
 62
     7
 10
252.5225
 20
131.229400000000000
 11
252.7102
 21
131.159300000000000
  0
LINE
  8
PT4-Rzut7
  6
CONTINUOUS
 62
     7
 10
251.5857
 20
131.579500000000000
 11
252.5225
 21
131.229400000000000
  0
LINE
  8
PT4-Rzut7
  6
CONTINUOUS
 62
     7
 10
253.6469
 20
130.809200000000000
 11
252.7102
 21
131.159300000000000
  0
LINE
  8
PT4-Rzut7
  6
CONTINUOUS
 62
     7
 10
253.1658
 20
131.522699999999990
 11
251.8792
 21
130.936100000000010
  0
LINE
  8
PT4-Rzut7
  6
CONTINUOUS
 62
     7
 10
253.3535
 20
131.452599999999990
 11
252.0669
 21
130.866000000000010
  0
LINE
  8
PT4-Rzut7
  6
CONTINUOUS
 62
     7
 10
252.1724
 20
130.292700000000000
 11
252.8725
 21
132.166200000000000
  0
LINE
  8
PT4-Rzut7
  6
CONTINUOUS
 62
     7
 10
252.3601
 20
130.222600000000000
 11
253.0602
 21
132.096000000000000
  0
TEXT
  8
PT4-Rzut7
  6
CONTINUOUS
 62
     7
 10
251.458599999999990
 20
133.827900000000000
 40
2.000000000000000
 50
339.500000000000000
  1
2
  0
LINE
  8
PT4-Rzut7
  6
CONTINUOUS
 62
     7
 10
252.7102
 20
131.159300000000000
 11
259.2673
 21
128.708900000000000
  0
LINE
  8
PT4-Rzut7
  6
CONTINUOUS
 62
     7
 10
251.7735
 20
131.509300000000000
 11
252.7102
 21
131.159300000000000
  0
LINE
  8
PT4-Rzut7
  6
CONTINUOUS
 62
     7
 10
260.204
 20
128.358800000000000
 11
259.2673
 21
128.708900000000000
  0
LINE
  8
PT4-Rzut7
  6
CONTINUOUS
 62
     7
 10
253.3535
 20
131.452599999999990
 11
252.0669
 21
130.866000000000010
  0
LINE
  8
PT4-Rzut7
  6
CONTINUOUS
 62
     7
 10
259.9106
 20
129.002199999999990
 11
258.624
 21
128.415600000000010
  0
LINE
  8
PT4-Rzut7
  6
CONTINUOUS
 62
     7
 10
252.3601
 20
130.222600000000000
 11
253.0602
 21
132.096000000000000
  0
LINE
  8
PT4-Rzut7
  6
CONTINUOUS
 62
     7
 10
258.9173
 20
127.772200000000000
 11
259.6174
 21
129.645600000000000
  0
TEXT
  8
PT4-Rzut7
  6
CONTINUOUS
 62
     7
 10
255.026800000000010
 20
132.400600000000000
 40
2.000000000000000
 50
339.500000000000000
  1
70
  0
TEXT
  8
PT4-Rzut7
  6
CONTINUOUS
 62
     7
 10
267.690099999999970
 20
128.216399999999990
 40
2.000000000000000
 50
339.500000000000000
  1
2,18
  0
LINE
  8
PT4-Rzut7
  6
CONTINUOUS
 62
     7
 10
259.2673
 20
128.708900000000000
 11
279.6881
 21
121.077699999999990
  0
LINE
  8
PT4-Rzut7
  6
CONTINUOUS
 62
     7
 10
258.3306
 20
129.059000000000000
 11
259.2673
 21
128.708900000000000
  0
LINE
  8
PT4-Rzut7
  6
CONTINUOUS
 62
     7
 10
280.6248
 20
120.727600000000000
 11
279.6881
 21
121.077699999999990
  0
LINE
  8
PT4-Rzut7
  6
CONTINUOUS
 62
     7
 10
259.9106
 20
129.002199999999990
 11
258.624
 21
128.415600000000010
  0
LINE
  8
PT4-Rzut7
  6
CONTINUOUS
 62
     7
 10
280.3314
 20
121.371000000000010
 11
279.0448
 21
120.784400000000010
  0
LINE
  8
PT4-Rzut7
  6
CONTINUOUS
 62
     7
 10
258.9173
 20
127.772200000000000
 11
259.6174
 21
129.645600000000000
  0
LINE
  8
PT4-Rzut7
  6
CONTINUOUS
 62
     7
 10
279.338
 20
120.140999999999990
 11
280.0381
 21
122.014399999999990
  0
TEXT
  8
PT4-Rzut7
  6
CONTINUOUS
 62
     7
 10
282.274999999999980
 20
122.765999999999990
 40
2.000000000000000
 50
339.500000000000000
  1
70
  0
LINE
  8
PT4-Rzut7
  6
CONTINUOUS
 62
     7
 10
279.6881
 20
121.077699999999990
 11
286.2452
 21
118.627299999999990
  0
LINE
  8
PT4-Rzut7
  6
CONTINUOUS
 62
     7
 10
278.7513
 20
121.427799999999990
 11
279.6881
 21
121.077699999999990
  0
LINE
  8
PT4-Rzut7
  6
CONTINUOUS
 62
     7
 10
287.1819
 20
118.277300000000000
 11
286.2452
 21
118.627299999999990
  0
LINE
  8
PT4-Rzut7
  6
CONTINUOUS
 62
     7
 10
280.3314
 20
121.371000000000010
 11
279.0448
 21
120.784400000000010
  0
LINE
  8
PT4-Rzut7
  6
CONTINUOUS
 62
     7
 10
286.8885
 20
118.920600000000010
 11
285.6019
 21
118.334000000000000
  0
LINE
  8
PT4-Rzut7
  6
CONTINUOUS
 62
     7
 10
279.338
 20
120.140999999999990
 11
280.0381
 21
122.014399999999990
  0
LINE
  8
PT4-Rzut7
  6
CONTINUOUS
 62
     7
 10
285.8951
 20
117.690599999999990
 11
286.5952
 21
119.564100000000000
  0
LINE
  8
PT4-Rzut7
  6
CONTINUOUS
 62
     7
 10
259.1717
 20
153.306199999999990
 11
260.7711
 21
152.700400000000000
  0
LINE
  8
PT4-Rzut7
  6
CONTINUOUS
 62
     7
 10
258.2365
 20
153.660399999999980
 11
259.1717
 21
153.306199999999990
  0
LINE
  8
PT4-Rzut7
  6
CONTINUOUS
 62
     7
 10
261.7063
 20
152.346299999999990
 11
260.7711
 21
152.700400000000000
  0
LINE
  8
PT4-Rzut7
  6
CONTINUOUS
 62
     7
 10
259.8163
 20
153.596600000000000
 11
258.5271
 21
153.015699999999980
  0
LINE
  8
PT4-Rzut7
  6
CONTINUOUS
 62
     7
 10
261.4157
 20
152.990900000000010
 11
260.1265
 21
152.410000000000000
  0
LINE
  8
PT4-Rzut7
  6
CONTINUOUS
 62
     7
 10
258.1717
 20
153.306199999999990
 11
260.1717
 21
153.306199999999990
  0
LINE
  8
PT4-Rzut7
  6
CONTINUOUS
 62
     7
 10
259.7711
 20
152.700400000000000
 11
261.7711
 21
152.700400000000000
  0
TEXT
  8
PT4-Rzut7
  6
CONTINUOUS
 62
     7
 10
257.997799999999980
 20
155.804700000000000
 40
2.000000000000000
 50
339.300000000000010
  1
17
  0
LINE
  8
PT4-Rzut7
  6
CONTINUOUS
 62
     7
 10
260.7711
 20
152.700400000000000
 11
264.5023
 21
151.287300000000020
  0
LINE
  8
PT4-Rzut7
  6
CONTINUOUS
 62
     7
 10
259.8359
 20
153.054599999999990
 11
260.7711
 21
152.700400000000000
  0
LINE
  8
PT4-Rzut7
  6
CONTINUOUS
 62
     7
 10
265.4375
 20
150.933100000000000
 11
264.5023
 21
151.287300000000020
  0
LINE
  8
PT4-Rzut7
  6
CONTINUOUS
 62
     7
 10
261.4157
 20
152.990900000000010
 11
260.1265
 21
152.410000000000000
  0
LINE
  8
PT4-Rzut7
  6
CONTINUOUS
 62
     7
 10
265.1469
 20
151.577800000000000
 11
263.8578
 21
150.996899999999980
  0
LINE
  8
PT4-Rzut7
  6
CONTINUOUS
 62
     7
 10
260.4169
 20
151.765300000000000
 11
261.1253
 21
153.635600000000010
  0
LINE
  8
PT4-Rzut7
  6
CONTINUOUS
 62
     7
 10
264.1482
 20
150.352100000000010
 11
264.8565
 21
152.222500000000000
  0
TEXT
  8
PT4-Rzut7
  6
CONTINUOUS
 62
     7
 10
261.980000000000020
 20
154.301100000000020
 40
2.000000000000000
 50
339.300000000000010
  1
40
  0
TEXT
  8
PT4-Rzut7
  6
CONTINUOUS
 62
     7
 10
275.027199999999990
 20
149.962400000000000
 40
2.000000000000000
 50
339.300000000000010
  1
2,63
  0
LINE
  8
PT4-Rzut7
  6
CONTINUOUS
 62
     7
 10
264.5023
 20
151.287300000000020
 11
289.097
 21
141.972500000000000
  0
LINE
  8
PT4-Rzut7
  6
CONTINUOUS
 62
     7
 10
263.5672
 20
151.641500000000010
 11
264.5023
 21
151.287300000000020
  0
LINE
  8
PT4-Rzut7
  6
CONTINUOUS
 62
     7
 10
290.0322
 20
141.618300000000000
 11
289.097
 21
141.972500000000000
  0
LINE
  8
PT4-Rzut7
  6
CONTINUOUS
 62
     7
 10
265.1469
 20
151.577800000000000
 11
263.8578
 21
150.996899999999980
  0
LINE
  8
PT4-Rzut7
  6
CONTINUOUS
 62
     7
 10
289.7416
 20
142.262900000000000
 11
288.4524
 21
141.681999999999990
  0
LINE
  8
PT4-Rzut7
  6
CONTINUOUS
 62
     7
 10
264.1482
 20
150.352100000000010
 11
264.8565
 21
152.222500000000000
  0
LINE
  8
PT4-Rzut7
  6
CONTINUOUS
 62
     7
 10
288.7428
 20
141.037299999999990
 11
289.4512
 21
142.907700000000010
  0
LINE
  8
PT4-Rzut7
  6
CONTINUOUS
 62
     7
 10
289.097
 20
141.972500000000000
 11
292.8377
 21
140.555800000000000
  0
LINE
  8
PT4-Rzut7
  6
CONTINUOUS
 62
     7
 10
288.1618
 20
142.326700000000020
 11
289.097
 21
141.972500000000000
  0
LINE
  8
PT4-Rzut7
  6
CONTINUOUS
 62
     7
 10
293.7729
 20
140.201600000000010
 11
292.8377
 21
140.555800000000000
  0
LINE
  8
PT4-Rzut7
  6
CONTINUOUS
 62
     7
 10
289.7416
 20
142.262900000000000
 11
288.4524
 21
141.681999999999990
  0
LINE
  8
PT4-Rzut7
  6
CONTINUOUS
 62
     7
 10
293.4823
 20
140.846200000000010
 11
292.1931
 21
140.265300000000000
  0
LINE
  8
PT4-Rzut7
  6
CONTINUOUS
 62
     7
 10
288.7428
 20
141.037299999999990
 11
289.4512
 21
142.907700000000010
  0
LINE
  8
PT4-Rzut7
  6
CONTINUOUS
 62
     7
 10
292.4835
 20
139.620600000000000
 11
293.1919
 21
141.490900000000010
  0
TEXT
  8
PT4-Rzut7
  6
CONTINUOUS
 62
     7
 10
290.436800000000010
 20
143.778200000000000
 40
2.000000000000000
 50
339.300000000000010
  1
40
  0
LINE
  8
PT4-Rzut7
  6
CONTINUOUS
 62
     7
 10
262.7083
 20
157.913700000000010
 11
266.4552
 21
156.513499999999990
  0
LINE
  8
PT4-Rzut7
  6
CONTINUOUS
 62
     7
 10
261.7715
 20
158.263800000000000
 11
262.7083
 21
157.913700000000010
  0
LINE
  8
PT4-Rzut7
  6
CONTINUOUS
 62
     7
 10
267.3919
 20
156.163400000000000
 11
266.4552
 21
156.513499999999990
  0
LINE
  8
PT4-Rzut7
  6
CONTINUOUS
 62
     7
 10
263.3516
 20
158.206999999999990
 11
262.065
 21
157.620400000000020
  0
LINE
  8
PT4-Rzut7
  6
CONTINUOUS
 62
     7
 10
267.0985
 20
156.806800000000010
 11
265.8119
 21
156.220200000000010
  0
LINE
  8
PT4-Rzut7
  6
CONTINUOUS
 62
     7
 10
262.3582
 20
156.977000000000000
 11
263.0583
 21
158.850399999999980
  0
LINE
  8
PT4-Rzut7
  6
CONTINUOUS
 62
     7
 10
266.1051
 20
155.576799999999990
 11
266.8052
 21
157.450200000000000
  0
TEXT
  8
PT4-Rzut7
  6
CONTINUOUS
 62
     7
 10
263.429899999999980
 20
159.769099999999980
 40
2.000000000000000
 50
339.500000000000000
  1
40
  0
LINE
  8
PT4-Rzut7
  6
CONTINUOUS
 62
     7
 10
266.4552
 20
156.513499999999990
 11
269.2654
 21
155.463300000000000
  0
LINE
  8
PT4-Rzut7
  6
CONTINUOUS
 62
     7
 10
265.5185
 20
156.863499999999990
 11
266.4552
 21
156.513499999999990
  0
LINE
  8
PT4-Rzut7
  6
CONTINUOUS
 62
     7
 10
270.2021
 20
155.113299999999980
 11
269.2654
 21
155.463300000000000
  0
LINE
  8
PT4-Rzut7
  6
CONTINUOUS
 62
     7
 10
267.0985
 20
156.806800000000010
 11
265.8119
 21
156.220200000000010
  0
LINE
  8
PT4-Rzut7
  6
CONTINUOUS
 62
     7
 10
269.9087
 20
155.756599999999990
 11
268.6221
 21
155.170000000000020
  0
LINE
  8
PT4-Rzut7
  6
CONTINUOUS
 62
     7
 10
266.1051
 20
155.576799999999990
 11
266.8052
 21
157.450200000000000
  0
LINE
  8
PT4-Rzut7
  6
CONTINUOUS
 62
     7
 10
268.9153
 20
154.526600000000000
 11
269.6155
 21
156.400100000000010
  0
TEXT
  8
PT4-Rzut7
  6
CONTINUOUS
 62
     7
 10
268.129300000000000
 20
157.668200000000010
 40
2.000000000000000
 50
339.500000000000000
  1
30
  0
LINE
  8
PT4-Rzut7
  6
CONTINUOUS
 62
     7
 10
289.6861
 20
147.832100000000000
 11
291.0912
 21
147.307099999999990
  0
LINE
  8
PT4-Rzut7
  6
CONTINUOUS
 62
     7
 10
288.7494
 20
148.182199999999990
 11
289.6861
 21
147.832100000000000
  0
LINE
  8
PT4-Rzut7
  6
CONTINUOUS
 62
     7
 10
292.0279
 20
146.956999999999990
 11
291.0912
 21
147.307099999999990
  0
LINE
  8
PT4-Rzut7
  6
CONTINUOUS
 62
     7
 10
290.3294
 20
148.125400000000010
 11
289.0428
 21
147.538799999999980
  0
LINE
  8
PT4-Rzut7
  6
CONTINUOUS
 62
     7
 10
291.7345
 20
147.600399999999980
 11
290.4479
 21
147.013800000000000
  0
LINE
  8
PT4-Rzut7
  6
CONTINUOUS
 62
     7
 10
289.3361
 20
146.895400000000000
 11
290.0362
 21
148.768900000000000
  0
LINE
  8
PT4-Rzut7
  6
CONTINUOUS
 62
     7
 10
290.7411
 20
146.370299999999990
 11
291.4413
 21
148.243799999999990
  0
TEXT
  8
PT4-Rzut7
  6
CONTINUOUS
 62
     7
 10
287.313800000000010
 20
150.646799999999980
 40
2.000000000000000
 50
339.500000000000000
  1
15
  0
LINE
  8
PT4-Rzut7
  6
CONTINUOUS
 62
     7
 10
291.0912
 20
147.307099999999990
 11
294.8381
 21
145.906800000000000
  0
LINE
  8
PT4-Rzut7
  6
CONTINUOUS
 62
     7
 10
290.1545
 20
147.657100000000010
 11
291.0912
 21
147.307099999999990
  0
LINE
  8
PT4-Rzut7
  6
CONTINUOUS
 62
     7
 10
295.7748
 20
145.556800000000010
 11
294.8381
 21
145.906800000000000
  0
LINE
  8
PT4-Rzut7
  6
CONTINUOUS
 62
     7
 10
291.7345
 20
147.600399999999980
 11
290.4479
 21
147.013800000000000
  0
LINE
  8
PT4-Rzut7
  6
CONTINUOUS
 62
     7
 10
295.4814
 20
146.200100000000020
 11
294.1948
 21
145.613600000000020
  0
LINE
  8
PT4-Rzut7
  6
CONTINUOUS
 62
     7
 10
290.7411
 20
146.370299999999990
 11
291.4413
 21
148.243799999999990
  0
LINE
  8
PT4-Rzut7
  6
CONTINUOUS
 62
     7
 10
294.4881
 20
144.970100000000000
 11
295.1882
 21
146.843599999999980
  0
TEXT
  8
PT4-Rzut7
  6
CONTINUOUS
 62
     7
 10
291.902600000000010
 20
148.601200000000010
 40
2.000000000000000
 50
339.500000000000000
  1
40
  0
LINE
  8
PT4-Rzut7
  6
CONTINUOUS
 62
     7
 10
294.84
 20
145.911800000000000
 11
296.2432
 21
145.381700000000000
  0
LINE
  8
PT4-Rzut7
  6
CONTINUOUS
 62
     7
 10
293.9045
 20
146.265100000000020
 11
294.84
 21
145.911800000000000
  0
LINE
  8
PT4-Rzut7
  6
CONTINUOUS
 62
     7
 10
297.1787
 20
145.028400000000000
 11
296.2432
 21
145.381700000000000
  0
LINE
  8
PT4-Rzut7
  6
CONTINUOUS
 62
     7
 10
295.4843
 20
146.202800000000000
 11
294.1956
 21
145.620800000000000
  0
LINE
  8
PT4-Rzut7
  6
CONTINUOUS
 62
     7
 10
296.8876
 20
145.672800000000000
 11
295.5989
 21
145.090700000000000
  0
LINE
  8
PT4-Rzut7
  6
CONTINUOUS
 62
     7
 10
294.4866
 20
144.976299999999980
 11
295.1933
 21
146.847300000000020
  0
LINE
  8
PT4-Rzut7
  6
CONTINUOUS
 62
     7
 10
295.8899
 20
144.446300000000010
 11
296.5966
 21
146.317200000000010
  0
TEXT
  8
PT4-Rzut7
  6
CONTINUOUS
 62
     7
 10
296.871800000000010
 20
147.002500000000000
 40
2.000000000000000
 50
339.300000000000010
  1
15
  0
TEXT
  8
PT4-Rzut7
  6
CONTINUOUS
 62
     7
 10
267.726000000000000
 20
205.057999999999990
 40
2.000000000000000
 50
69.500000000000000
  1
73
  0
TEXT
  8
PT4-Rzut7
  6
CONTINUOUS
 62
     7
 10
268.238499999999990
 20
208.586600000000000
 40
1.500000000000000
 50
69.500000000000000
  1
5
  0
LINE
  8
PT4-Rzut7
  6
CONTINUOUS
 62
     7
 10
269.0571
 20
201.807999999999990
 11
271.6367
 21
208.710900000000010
  0
LINE
  8
PT4-Rzut7
  6
CONTINUOUS
 62
     7
 10
268.707
 20
200.871199999999990
 11
269.0571
 21
201.807999999999990
  0
LINE
  8
PT4-Rzut7
  6
CONTINUOUS
 62
     7
 10
271.9868
 20
209.647600000000010
 11
271.6367
 21
208.710900000000010
  0
LINE
  8
PT4-Rzut7
  6
CONTINUOUS
 62
     7
 10
268.7638
 20
202.451300000000000
 11
269.3504
 21
201.164699999999980
  0
LINE
  8
PT4-Rzut7
  6
CONTINUOUS
 62
     7
 10
271.3434
 20
209.354199999999990
 11
271.93
 21
208.067600000000000
  0
LINE
  8
PT4-Rzut7
  6
CONTINUOUS
 62
     7
 10
268.1204
 20
202.158000000000020
 11
269.9938
 21
201.457900000000000
  0
LINE
  8
PT4-Rzut7
  6
CONTINUOUS
 62
     7
 10
270.7
 20
209.061000000000010
 11
272.5734
 21
208.360900000000020
  0
LINE
  8
PT4-Rzut7
  6
CONTINUOUS
 62
     7
 10
271.6367
 20
208.710900000000010
 11
273.0319
 21
212.444400000000000
  0
LINE
  8
PT4-Rzut7
  6
CONTINUOUS
 62
     7
 10
271.2867
 20
207.774200000000010
 11
271.6367
 21
208.710900000000010
  0
LINE
  8
PT4-Rzut7
  6
CONTINUOUS
 62
     7
 10
273.382
 20
213.381100000000000
 11
273.0319
 21
212.444400000000000
  0
LINE
  8
PT4-Rzut7
  6
CONTINUOUS
 62
     7
 10
271.3434
 20
209.354199999999990
 11
271.93
 21
208.067600000000000
  0
LINE
  8
PT4-Rzut7
  6
CONTINUOUS
 62
     7
 10
272.7386
 20
213.087699999999980
 11
273.3252
 21
211.801099999999990
  0
LINE
  8
PT4-Rzut7
  6
CONTINUOUS
 62
     7
 10
270.7
 20
209.061000000000010
 11
272.5734
 21
208.360900000000020
  0
LINE
  8
PT4-Rzut7
  6
CONTINUOUS
 62
     7
 10
272.0952
 20
212.794400000000000
 11
273.9686
 21
212.094300000000000
  0
TEXT
  8
PT4-Rzut7
  6
CONTINUOUS
 62
     7
 10
270.054500000000020
 20
210.309699999999990
 40
2.000000000000000
 50
69.500000000000000
  1
40
  0
TEXT
  8
PT4-Rzut7
  6
CONTINUOUS
 62
     7
 10
262.675299999999990
 20
208.656700000000000
 40
2.000000000000000
 50
69.400000000000006
  1
1,28
  0
TEXT
  8
PT4-Rzut7
  6
CONTINUOUS
 62
     7
 10
264.144999999999980
 20
214.702100000000000
 40
1.500000000000000
 50
69.400000000000006
  1
5
  0
LINE
  8
PT4-Rzut7
  6
CONTINUOUS
 62
     7
 10
263.4468
 20
203.935299999999980
 11
267.9725
 21
215.954800000000010
  0
LINE
  8
PT4-Rzut7
  6
CONTINUOUS
 62
     7
 10
263.0945
 20
202.999399999999980
 11
263.4468
 21
203.935299999999980
  0
LINE
  8
PT4-Rzut7
  6
CONTINUOUS
 62
     7
 10
268.3249
 20
216.890600000000010
 11
267.9725
 21
215.954800000000010
  0
LINE
  8
PT4-Rzut7
  6
CONTINUOUS
 62
     7
 10
263.1551
 20
204.579299999999990
 11
263.7385
 21
203.291300000000010
  0
LINE
  8
PT4-Rzut7
  6
CONTINUOUS
 62
     7
 10
267.6808
 20
216.598799999999980
 11
268.2642
 21
215.310700000000000
  0
LINE
  8
PT4-Rzut7
  6
CONTINUOUS
 62
     7
 10
262.511
 20
204.287700000000000
 11
264.3827
 21
203.582900000000000
  0
LINE
  8
PT4-Rzut7
  6
CONTINUOUS
 62
     7
 10
267.0367
 20
216.307099999999990
 11
268.9084
 21
215.602399999999990
  0
LINE
  8
PT4-Rzut7
  6
CONTINUOUS
 62
     7
 10
328.2661
 20
191.810299999999980
 11
326.8709
 21
188.076899999999990
  0
LINE
  8
PT4-Rzut7
  6
CONTINUOUS
 62
     7
 10
328.6162
 20
192.747099999999990
 11
328.2661
 21
191.810299999999980
  0
LINE
  8
PT4-Rzut7
  6
CONTINUOUS
 62
     7
 10
326.5209
 20
187.140100000000020
 11
326.8709
 21
188.076899999999990
  0
LINE
  8
PT4-Rzut7
  6
CONTINUOUS
 62
     7
 10
328.5594
 20
191.167000000000000
 11
327.9728
 21
192.453599999999990
  0
LINE
  8
PT4-Rzut7
  6
CONTINUOUS
 62
     7
 10
327.1642
 20
187.433600000000010
 11
326.5776
 21
188.720200000000010
  0
LINE
  8
PT4-Rzut7
  6
CONTINUOUS
 62
     7
 10
329.2029
 20
191.460300000000020
 11
327.3294
 21
192.160399999999980
  0
LINE
  8
PT4-Rzut7
  6
CONTINUOUS
 62
     7
 10
327.8077
 20
187.726800000000000
 11
325.9342
 21
188.426899999999990
  0
TEXT
  8
PT4-Rzut7
  6
CONTINUOUS
 62
     7
 10
325.357800000000000
 20
187.354500000000000
 40
2.000000000000000
 50
429.500000000000000
  1
40
  0
TEXT
  8
PT4-Rzut7
  6
CONTINUOUS
 62
     7
 10
314.024900000000000
 20
158.233499999999990
 40
2.000000000000000
 50
429.500000000000000
  1
6
  0
LINE
  8
PT4-Rzut7
  6
CONTINUOUS
 62
     7
 10
326.8709
 20
188.076899999999990
 11
305.8711
 21
131.882200000000010
  0
LINE
  8
PT4-Rzut7
  6
CONTINUOUS
 62
     7
 10
327.221
 20
189.013600000000000
 11
326.8709
 21
188.076899999999990
  0
LINE
  8
PT4-Rzut7
  6
CONTINUOUS
 62
     7
 10
305.521
 20
130.945500000000010
 11
305.8711
 21
131.882200000000010
  0
LINE
  8
PT4-Rzut7
  6
CONTINUOUS
 62
     7
 10
327.1642
 20
187.433600000000010
 11
326.5776
 21
188.720200000000010
  0
LINE
  8
PT4-Rzut7
  6
CONTINUOUS
 62
     7
 10
306.1644
 20
131.239000000000000
 11
305.5778
 21
132.525499999999990
  0
LINE
  8
PT4-Rzut7
  6
CONTINUOUS
 62
     7
 10
327.8077
 20
187.726800000000000
 11
325.9342
 21
188.426899999999990
  0
LINE
  8
PT4-Rzut7
  6
CONTINUOUS
 62
     7
 10
306.8078
 20
131.532199999999990
 11
304.9344
 21
132.232300000000010
  0
LINE
  8
PT4-Rzut7
  6
CONTINUOUS
 62
     7
 10
305.8711
 20
131.882200000000010
 11
304.4676
 21
128.126399999999990
  0
LINE
  8
PT4-Rzut7
  6
CONTINUOUS
 62
     7
 10
306.2211
 20
132.818999999999990
 11
305.8711
 21
131.882200000000010
  0
LINE
  8
PT4-Rzut7
  6
CONTINUOUS
 62
     7
 10
304.1175
 20
127.189699999999990
 11
304.4676
 21
128.126399999999990
  0
LINE
  8
PT4-Rzut7
  6
CONTINUOUS
 62
     7
 10
306.1644
 20
131.239000000000000
 11
305.5778
 21
132.525499999999990
  0
LINE
  8
PT4-Rzut7
  6
CONTINUOUS
 62
     7
 10
304.7609
 20
127.483200000000010
 11
304.1743
 21
128.769700000000000
  0
LINE
  8
PT4-Rzut7
  6
CONTINUOUS
 62
     7
 10
306.8078
 20
131.532199999999990
 11
304.9344
 21
132.232300000000010
  0
LINE
  8
PT4-Rzut7
  6
CONTINUOUS
 62
     7
 10
305.4043
 20
127.776400000000000
 11
303.5308
 21
128.476499999999990
  0
TEXT
  8
PT4-Rzut7
  6
CONTINUOUS
 62
     7
 10
302.724499999999980
 20
127.324999999999990
 40
2.000000000000000
 50
429.500000000000000
  1
40
  0
LINE
  8
PT4-Rzut7
  6
CONTINUOUS
 62
     7
 10
303.8945
 20
200.867300000000000
 11
302.487
 21
197.100700000000020
  0
LINE
  8
PT4-Rzut7
  6
CONTINUOUS
 62
     7
 10
304.2446
 20
201.804000000000000
 11
303.8945
 21
200.867300000000000
  0
LINE
  8
PT4-Rzut7
  6
CONTINUOUS
 62
     7
 10
302.1369
 20
196.163999999999990
 11
302.487
 21
197.100700000000020
  0
LINE
  8
PT4-Rzut7
  6
CONTINUOUS
 62
     7
 10
304.1878
 20
200.223999999999990
 11
303.6012
 21
201.510600000000010
  0
LINE
  8
PT4-Rzut7
  6
CONTINUOUS
 62
     7
 10
302.7803
 20
196.457400000000010
 11
302.1937
 21
197.744000000000000
  0
LINE
  8
PT4-Rzut7
  6
CONTINUOUS
 62
     7
 10
304.8313
 20
200.517200000000000
 11
302.9578
 21
201.217299999999990
  0
LINE
  8
PT4-Rzut7
  6
CONTINUOUS
 62
     7
 10
303.4237
 20
196.750699999999990
 11
301.5503
 21
197.450800000000020
  0
TEXT
  8
PT4-Rzut7
  6
CONTINUOUS
 62
     7
 10
301.644299999999990
 20
196.459299999999980
 40
2.000000000000000
 50
429.500000000000000
  1
40
  0
LINE
  8
PT4-Rzut7
  6
CONTINUOUS
 62
     7
 10
302.5165
 20
197.179599999999990
 11
301.9917
 21
195.775399999999990
  0
LINE
  8
PT4-Rzut7
  6
CONTINUOUS
 62
     7
 10
302.8665
 20
198.116300000000000
 11
302.5165
 21
197.179599999999990
  0
LINE
  8
PT4-Rzut7
  6
CONTINUOUS
 62
     7
 10
301.6417
 20
194.838599999999990
 11
301.9917
 21
195.775399999999990
  0
LINE
  8
PT4-Rzut7
  6
CONTINUOUS
 62
     7
 10
302.8098
 20
196.536299999999980
 11
302.2232
 21
197.822900000000000
  0
LINE
  8
PT4-Rzut7
  6
CONTINUOUS
 62
     7
 10
302.285
 20
195.132099999999980
 11
301.6984
 21
196.418700000000000
  0
LINE
  8
PT4-Rzut7
  6
CONTINUOUS
 62
     7
 10
303.4532
 20
196.829500000000000
 11
301.5797
 21
197.529600000000020
  0
LINE
  8
PT4-Rzut7
  6
CONTINUOUS
 62
     7
 10
302.9284
 20
195.425299999999990
 11
301.055
 21
196.125400000000010
  0
TEXT
  8
PT4-Rzut7
  6
CONTINUOUS
 62
     7
 10
299.689599999999980
 20
191.366800000000010
 40
2.000000000000000
 50
429.500000000000000
  1
15
  0
LINE
  8
PT4-Rzut7
  6
CONTINUOUS
 62
     7
 10
303.9027
 20
200.889200000000020
 11
304.4235
 21
202.282700000000010
  0
LINE
  8
PT4-Rzut7
  6
CONTINUOUS
 62
     7
 10
303.5527
 20
199.952400000000010
 11
303.9027
 21
200.889200000000020
  0
LINE
  8
PT4-Rzut7
  6
CONTINUOUS
 62
     7
 10
304.7735
 20
203.219400000000010
 11
304.4235
 21
202.282700000000010
  0
LINE
  8
PT4-Rzut7
  6
CONTINUOUS
 62
     7
 10
303.6094
 20
201.532400000000000
 11
304.196
 21
200.245900000000010
  0
LINE
  8
PT4-Rzut7
  6
CONTINUOUS
 62
     7
 10
304.1302
 20
202.925999999999990
 11
304.7168
 21
201.639399999999990
  0
LINE
  8
PT4-Rzut7
  6
CONTINUOUS
 62
     7
 10
304.8394
 20
200.539100000000020
 11
302.966
 21
201.239199999999980
  0
LINE
  8
PT4-Rzut7
  6
CONTINUOUS
 62
     7
 10
305.3602
 20
201.932599999999980
 11
303.4867
 21
202.632700000000000
  0
TEXT
  8
PT4-Rzut7
  6
CONTINUOUS
 62
     7
 10
303.771700000000010
 20
203.406000000000010
 40
2.000000000000000
 50
69.500000000000000
  1
15
  0
LINE
  8
PT4-Rzut7
  6
CONTINUOUS
 62
     7
 10
279.5852
 20
135.816499999999990
 11
280.1077
 21
137.214800000000000
  0
LINE
  8
PT4-Rzut7
  6
CONTINUOUS
 62
     7
 10
279.2351
 20
134.879700000000010
 11
279.5852
 21
135.816499999999990
  0
LINE
  8
PT4-Rzut7
  6
CONTINUOUS
 62
     7
 10
280.4578
 20
138.151500000000000
 11
280.1077
 21
137.214800000000000
  0
LINE
  8
PT4-Rzut7
  6
CONTINUOUS
 62
     7
 10
279.2919
 20
136.459800000000000
 11
279.8785
 21
135.173200000000010
  0
LINE
  8
PT4-Rzut7
  6
CONTINUOUS
 62
     7
 10
279.8144
 20
137.858100000000010
 11
280.401
 21
136.571499999999990
  0
LINE
  8
PT4-Rzut7
  6
CONTINUOUS
 62
     7
 10
280.5219
 20
135.466399999999990
 11
278.6484
 21
136.166500000000010
  0
LINE
  8
PT4-Rzut7
  6
CONTINUOUS
 62
     7
 10
281.0444
 20
136.864800000000000
 11
279.171
 21
137.564899999999990
  0
TEXT
  8
PT4-Rzut7
  6
CONTINUOUS
 62
     7
 10
277.354699999999980
 20
133.689600000000010
 40
2.000000000000000
 50
69.500000000000000
  1
15
  0
LINE
  8
PT4-Rzut7
  6
CONTINUOUS
 62
     7
 10
280.1077
 20
137.214800000000000
 11
281.5114
 21
140.971100000000010
  0
LINE
  8
PT4-Rzut7
  6
CONTINUOUS
 62
     7
 10
279.7577
 20
136.278099999999990
 11
280.1077
 21
137.214800000000000
  0
LINE
  8
PT4-Rzut7
  6
CONTINUOUS
 62
     7
 10
281.8615
 20
141.907900000000010
 11
281.5114
 21
140.971100000000010
  0
LINE
  8
PT4-Rzut7
  6
CONTINUOUS
 62
     7
 10
279.8144
 20
137.858100000000010
 11
280.401
 21
136.571499999999990
  0
LINE
  8
PT4-Rzut7
  6
CONTINUOUS
 62
     7
 10
281.2182
 20
141.614399999999990
 11
281.8047
 21
140.327800000000000
  0
LINE
  8
PT4-Rzut7
  6
CONTINUOUS
 62
     7
 10
281.0444
 20
136.864800000000000
 11
279.171
 21
137.564899999999990
  0
LINE
  8
PT4-Rzut7
  6
CONTINUOUS
 62
     7
 10
282.4482
 20
140.621100000000010
 11
280.5747
 21
141.321200000000000
  0
TEXT
  8
PT4-Rzut7
  6
CONTINUOUS
 62
     7
 10
279.164100000000020
 20
138.709300000000010
 40
2.000000000000000
 50
69.500000000000000
  1
40
  0
LINE
  8
PT4-Rzut7
  6
CONTINUOUS
 62
     7
 10
281.5114
 20
140.971100000000010
 11
282.0382
 21
142.380600000000020
  0
LINE
  8
PT4-Rzut7
  6
CONTINUOUS
 62
     7
 10
281.1614
 20
140.034400000000010
 11
281.5114
 21
140.971100000000010
  0
LINE
  8
PT4-Rzut7
  6
CONTINUOUS
 62
     7
 10
282.3882
 20
143.317299999999990
 11
282.0382
 21
142.380600000000020
  0
LINE
  8
PT4-Rzut7
  6
CONTINUOUS
 62
     7
 10
281.2182
 20
141.614399999999990
 11
281.8047
 21
140.327800000000000
  0
LINE
  8
PT4-Rzut7
  6
CONTINUOUS
 62
     7
 10
281.7449
 20
143.023900000000000
 11
282.3314
 21
141.737300000000000
  0
LINE
  8
PT4-Rzut7
  6
CONTINUOUS
 62
     7
 10
282.4482
 20
140.621100000000010
 11
280.5747
 21
141.321200000000000
  0
LINE
  8
PT4-Rzut7
  6
CONTINUOUS
 62
     7
 10
282.9749
 20
142.030500000000020
 11
281.1014
 21
142.730599999999980
  0
TEXT
  8
PT4-Rzut7
  6
CONTINUOUS
 62
     7
 10
281.236200000000000
 20
143.232900000000000
 40
2.000000000000000
 50
69.500000000000000
  1
15
  0
TEXT
  8
PT4-Rzut7
  6
CONTINUOUS
 62
     7
 10
332.434000000000030
 20
184.641799999999990
 40
2.000000000000000
 50
429.500000000000000
  1
70
  0
LINE
  8
PT4-Rzut7
  6
CONTINUOUS
 62
     7
 10
336.2787
 20
190.398000000000000
 11
333.8311
 21
183.848400000000000
  0
LINE
  8
PT4-Rzut7
  6
CONTINUOUS
 62
     7
 10
336.6288
 20
191.334800000000000
 11
336.2787
 21
190.398000000000000
  0
LINE
  8
PT4-Rzut7
  6
CONTINUOUS
 62
     7
 10
333.4811
 20
182.911700000000000
 11
333.8311
 21
183.848400000000000
  0
LINE
  8
PT4-Rzut7
  6
CONTINUOUS
 62
     7
 10
336.572
 20
189.754700000000010
 11
335.9854
 21
191.041300000000010
  0
LINE
  8
PT4-Rzut7
  6
CONTINUOUS
 62
     7
 10
334.1244
 20
183.205100000000020
 11
333.5378
 21
184.491699999999980
  0
LINE
  8
PT4-Rzut7
  6
CONTINUOUS
 62
     7
 10
337.2154
 20
190.048000000000000
 11
335.342
 21
190.748099999999990
  0
LINE
  8
PT4-Rzut7
  6
CONTINUOUS
 62
     7
 10
334.7679
 20
183.498400000000000
 11
332.8944
 21
184.198500000000000
  0
TEXT
  8
PT4-Rzut7
  6
CONTINUOUS
 62
     7
 10
320.824099999999990
 20
153.574200000000020
 40
2.000000000000000
 50
429.500000000000000
  1
5,70
  0
LINE
  8
PT4-Rzut7
  6
CONTINUOUS
 62
     7
 10
333.8311
 20
183.848400000000000
 11
313.878
 21
130.454800000000010
  0
LINE
  8
PT4-Rzut7
  6
CONTINUOUS
 62
     7
 10
334.1812
 20
184.785200000000000
 11
333.8311
 21
183.848400000000000
  0
LINE
  8
PT4-Rzut7
  6
CONTINUOUS
 62
     7
 10
313.5279
 20
129.518000000000000
 11
313.878
 21
130.454800000000010
  0
LINE
  8
PT4-Rzut7
  6
CONTINUOUS
 62
     7
 10
334.1244
 20
183.205100000000020
 11
333.5378
 21
184.491699999999980
  0
LINE
  8
PT4-Rzut7
  6
CONTINUOUS
 62
     7
 10
314.1713
 20
129.811500000000000
 11
313.5847
 21
131.098099999999990
  0
LINE
  8
PT4-Rzut7
  6
CONTINUOUS
 62
     7
 10
334.7679
 20
183.498400000000000
 11
332.8944
 21
184.198500000000000
  0
LINE
  8
PT4-Rzut7
  6
CONTINUOUS
 62
     7
 10
314.8147
 20
130.104700000000010
 11
312.9413
 21
130.804800000000000
  0
TEXT
  8
PT4-Rzut7
  6
CONTINUOUS
 62
     7
 10
310.028900000000020
 20
124.686900000000010
 40
2.000000000000000
 50
429.500000000000000
  1
70
  0
LINE
  8
PT4-Rzut7
  6
CONTINUOUS
 62
     7
 10
313.878
 20
130.454800000000010
 11
311.4217
 21
123.881900000000000
  0
LINE
  8
PT4-Rzut7
  6
CONTINUOUS
 62
     7
 10
314.2281
 20
131.391500000000010
 11
313.878
 21
130.454800000000010
  0
LINE
  8
PT4-Rzut7
  6
CONTINUOUS
 62
     7
 10
311.0717
 20
122.945200000000000
 11
311.4217
 21
123.881900000000000
  0
LINE
  8
PT4-Rzut7
  6
CONTINUOUS
 62
     7
 10
314.1713
 20
129.811500000000000
 11
313.5847
 21
131.098099999999990
  0
LINE
  8
PT4-Rzut7
  6
CONTINUOUS
 62
     7
 10
311.715
 20
123.238599999999990
 11
311.1284
 21
124.525200000000010
  0
LINE
  8
PT4-Rzut7
  6
CONTINUOUS
 62
     7
 10
314.8147
 20
130.104700000000010
 11
312.9413
 21
130.804800000000000
  0
LINE
  8
PT4-Rzut7
  6
CONTINUOUS
 62
     7
 10
312.3585
 20
123.531800000000000
 11
310.485
 21
124.231900000000000
  0
LINE
  8
PT4-Rzut7
  6
CONTINUOUS
 62
     7
 10
295.7593
 20
234.970300000000010
 11
295.4726
 21
234.223500000000000
  0
LINE
  8
PT4-Rzut7
  6
CONTINUOUS
 62
     7
 10
293.4194
 20
239.896799999999980
 11
292.1075
 21
236.479299999999990
  0
LINE
  8
PT4-Rzut7
  6
CONTINUOUS
 62
     7
 10
294.1662
 20
239.610199999999990
 11
292.8544
 21
236.192600000000000
  0
LINE
  8
PT4-Rzut7
  6
CONTINUOUS
 62
     7
 10
296.5552
 20
236.485799999999980
 11
297.2937
 21
238.409600000000010
  0
LINE
  8
PT4-Rzut7
  6
CONTINUOUS
 62
     7
 10
296.0027
 20
235.612900000000000
 11
291.8814
 21
224.876700000000000
  0
LINE
  8
PT4-Rzut7
  6
CONTINUOUS
 62
     7
 10
288.9407
 20
226.005600000000020
 11
293.3844
 21
237.581999999999990
  0
LINE
  8
PT4-Rzut7
  6
CONTINUOUS
 62
     7
 10
289.2971
 20
226.918499999999990
 11
293.3897
 21
237.579999999999980
  0
LINE
  8
PT4-Rzut7
  6
CONTINUOUS
 62
     7
 10
288.944
 20
226.004300000000000
 11
287.5105
 21
222.270000000000010
  0
LINE
  8
PT4-Rzut7
  6
CONTINUOUS
 62
     7
 10
295.4791
 20
223.495700000000000
 11
294.0456
 21
219.761400000000010
  0
LINE
  8
PT4-Rzut7
  6
CONTINUOUS
 62
     7
 10
287.1522
 20
221.336400000000000
 11
293.6872
 21
218.827800000000000
  0
LINE
  8
PT4-Rzut7
  6
CONTINUOUS
 62
     7
 10
286.9715
 20
222.476900000000000
 11
294.5846
 21
219.554499999999990
  0
LINE
  8
PT4-Rzut7
  6
CONTINUOUS
 62
     7
 10
288.944
 20
226.004300000000000
 11
295.4791
 21
223.495700000000000
  0
LINE
  8
PT4-Rzut7
  6
CONTINUOUS
 62
     7
 10
295.9144
 20
235.234800000000010
 11
295.9899
 21
235.152300000000000
  0
LINE
  8
PT4-Rzut7
  6
CONTINUOUS
 62
     7
 10
296.5553
 20
236.485700000000010
 11
295.9819
 21
234.991999999999990
  0
LINE
  8
PT4-Rzut7
  6
CONTINUOUS
 62
     7
 10
293.8903
 20
238.472800000000010
 11
293.0374
 21
236.250800000000000
  0
LINE
  8
PT4-Rzut7
  6
CONTINUOUS
 62
     7
 10
295.8381
 20
235.175700000000010
 11
296.6911
 21
237.397699999999990
  0
LINE
  8
PT4-Rzut7
  6
CONTINUOUS
 62
     7
 10
292.9586
 20
236.045400000000000
 11
305.0951
 21
231.386699999999990
  0
LINE
  8
PT4-Rzut7
  6
CONTINUOUS
 62
     7
 10
295.4726
 20
234.223500000000000
 11
304.8084
 21
230.639800000000010
  0
LINE
  8
PT4-Rzut7
  6
CONTINUOUS
 62
     7
 10
295.7951
 20
235.063699999999980
 11
305.1309
 21
231.479999999999990
  0
LINE
  8
PT4-Rzut7
  6
CONTINUOUS
 62
     7
 10
294.2626
 20
235.651999999999990
 11
295.7951
 21
235.063699999999980
  0
LINE
  8
PT4-Rzut7
  6
CONTINUOUS
 62
     7
 10
293.0374
 20
236.250800000000000
 11
295.8381
 21
235.175700000000010
  0
LINE
  8
PT4-Rzut7
  6
CONTINUOUS
 62
     7
 10
295.3283
 20
235.242899999999990
 11
295.2925
 21
235.149499999999990
  0
LINE
  8
PT4-Rzut7
  6
CONTINUOUS
 62
     7
 10
294.3948
 20
235.601300000000010
 11
294.3589
 21
235.507900000000010
  0
LINE
  8
PT4-Rzut7
  6
CONTINUOUS
 62
     7
 10
294.8616
 20
235.422100000000000
 11
294.8257
 21
235.328700000000000
  0
LINE
  8
PT4-Rzut7
  6
CONTINUOUS
 62
     7
 10
293.4612
 20
235.959599999999990
 11
293.4253
 21
235.866300000000000
  0
LINE
  8
PT4-Rzut7
  6
CONTINUOUS
 62
     7
 10
292.9944
 20
236.138800000000000
 11
292.9586
 21
236.045400000000000
  0
LINE
  8
PT4-Rzut7
  6
CONTINUOUS
 62
     7
 10
293.928
 20
235.780399999999990
 11
293.8921
 21
235.687099999999990
  0
LINE
  8
PT4-Rzut7
  6
CONTINUOUS
 62
     7
 10
293.928
 20
235.780399999999990
 11
293.8921
 21
235.687099999999990
  0
LINE
  8
PT4-Rzut7
  6
CONTINUOUS
 62
     7
 10
292.8513
 20
236.193199999999990
 11
294.2626
 21
235.651999999999990
  0
LINE
  8
PT4-Rzut7
  6
CONTINUOUS
 62
     7
 10
298.5959
 20
233.988599999999990
 11
298.56
 21
233.895199999999990
  0
LINE
  8
PT4-Rzut7
  6
CONTINUOUS
 62
     7
 10
299.0627
 20
233.809399999999980
 11
299.0268
 21
233.716099999999980
  0
LINE
  8
PT4-Rzut7
  6
CONTINUOUS
 62
     7
 10
297.6623
 20
234.347000000000010
 11
297.6265
 21
234.253600000000010
  0
LINE
  8
PT4-Rzut7
  6
CONTINUOUS
 62
     7
 10
296.7287
 20
234.705299999999990
 11
296.6929
 21
234.611999999999990
  0
LINE
  8
PT4-Rzut7
  6
CONTINUOUS
 62
     7
 10
297.1955
 20
234.526099999999990
 11
297.1597
 21
234.432799999999990
  0
LINE
  8
PT4-Rzut7
  6
CONTINUOUS
 62
     7
 10
296.2619
 20
234.884500000000000
 11
296.2261
 21
234.791200000000000
  0
LINE
  8
PT4-Rzut7
  6
CONTINUOUS
 62
     7
 10
298.1291
 20
234.167800000000000
 11
298.0932
 21
234.074400000000000
  0
LINE
  8
PT4-Rzut7
  6
CONTINUOUS
 62
     7
 10
295.8786
 20
235.141500000000010
 11
295.9541
 21
235.059000000000000
  0
LINE
  8
PT4-Rzut7
  6
CONTINUOUS
 62
     7
 10
295.9899
 20
235.152300000000000
 11
295.8786
 21
235.141500000000010
  0
LINE
  8
PT4-Rzut7
  6
CONTINUOUS
 62
     7
 10
295.9541
 20
235.059000000000000
 11
295.8428
 21
235.048100000000010
  0
LINE
  8
PT4-Rzut7
  6
CONTINUOUS
 62
     7
 10
295.7951
 20
235.063699999999980
 11
295.7593
 21
234.970300000000010
  0
LINE
  8
PT4-Rzut7
  6
CONTINUOUS
 62
     7
 10
295.8382
 20
235.175700000000010
 11
295.7952
 21
235.063699999999980
  0
LINE
  8
PT4-Rzut7
  6
CONTINUOUS
 62
     7
 10
301.8634
 20
232.734299999999990
 11
301.8276
 21
232.640999999999990
  0
LINE
  8
PT4-Rzut7
  6
CONTINUOUS
 62
     7
 10
299.9962
 20
233.450999999999990
 11
299.9604
 21
233.357699999999990
  0
LINE
  8
PT4-Rzut7
  6
CONTINUOUS
 62
     7
 10
300.463
 20
233.271900000000020
 11
300.4272
 21
233.178499999999990
  0
LINE
  8
PT4-Rzut7
  6
CONTINUOUS
 62
     7
 10
300.9298
 20
233.092700000000010
 11
300.894
 21
232.999300000000010
  0
LINE
  8
PT4-Rzut7
  6
CONTINUOUS
 62
     7
 10
301.3966
 20
232.913500000000000
 11
301.3608
 21
232.820100000000000
  0
LINE
  8
PT4-Rzut7
  6
CONTINUOUS
 62
     7
 10
302.3302
 20
232.555100000000010
 11
302.2944
 21
232.461799999999980
  0
LINE
  8
PT4-Rzut7
  6
CONTINUOUS
 62
     7
 10
299.5295
 20
233.630200000000000
 11
299.4936
 21
233.536900000000000
  0
LINE
  8
PT4-Rzut7
  6
CONTINUOUS
 62
     7
 10
305.1309
 20
231.479999999999990
 11
305.0951
 21
231.386699999999990
  0
LINE
  8
PT4-Rzut7
  6
CONTINUOUS
 62
     7
 10
304.6641
 20
231.659200000000000
 11
304.6283
 21
231.565800000000000
  0
LINE
  8
PT4-Rzut7
  6
CONTINUOUS
 62
     7
 10
304.1974
 20
231.838400000000010
 11
304.1615
 21
231.745000000000000
  0
LINE
  8
PT4-Rzut7
  6
CONTINUOUS
 62
     7
 10
303.7306
 20
232.017600000000020
 11
303.6947
 21
231.924199999999980
  0
LINE
  8
PT4-Rzut7
  6
CONTINUOUS
 62
     7
 10
303.2638
 20
232.196800000000000
 11
303.2279
 21
232.103399999999990
  0
LINE
  8
PT4-Rzut7
  6
CONTINUOUS
 62
     7
 10
302.797
 20
232.375900000000000
 11
302.7611
 21
232.282600000000000
  0
LINE
  8
PT4-Rzut7
  6
CONTINUOUS
 62
     7
 10
297.107
 20
238.481300000000000
 11
296.7341
 21
237.509700000000010
  0
LINE
  8
PT4-Rzut7
  6
CONTINUOUS
 62
     7
 10
294.3063
 20
239.556400000000000
 11
293.9333
 21
238.584800000000000
  0
LINE
  8
PT4-Rzut7
  6
CONTINUOUS
 62
     7
 10
296.3403
 20
235.925600000000000
 11
305.4893
 21
232.413600000000000
  0
LINE
  8
PT4-Rzut7
  6
CONTINUOUS
 62
     7
 10
296.5195
 20
236.392400000000010
 11
305.6685
 21
232.880400000000010
  0
LINE
  8
PT4-Rzut7
  6
CONTINUOUS
 62
     7
 10
296.5553
 20
236.485700000000010
 11
305.7043
 21
232.973700000000010
  0
LINE
  8
PT4-Rzut7
  6
CONTINUOUS
 62
     7
 10
299.0588
 20
234.078700000000000
 11
299.4714
 21
234.455899999999990
  0
LINE
  8
PT4-Rzut7
  6
CONTINUOUS
 62
     7
 10
296.4199
 20
236.272600000000010
 11
296.3087
 21
236.261799999999990
  0
LINE
  8
PT4-Rzut7
  6
CONTINUOUS
 62
     7
 10
296.2728
 20
236.168399999999990
 11
296.3483
 21
236.085900000000010
  0
LINE
  8
PT4-Rzut7
  6
CONTINUOUS
 62
     7
 10
296.3483
 20
236.085900000000010
 11
296.237
 21
236.075099999999990
  0
LINE
  8
PT4-Rzut7
  6
CONTINUOUS
 62
     7
 10
296.237
 20
236.075099999999990
 11
296.3124
 21
235.992500000000010
  0
LINE
  8
PT4-Rzut7
  6
CONTINUOUS
 62
     7
 10
296.3087
 20
236.261799999999990
 11
296.3841
 21
236.179300000000010
  0
LINE
  8
PT4-Rzut7
  6
CONTINUOUS
 62
     7
 10
296.3841
 20
236.179300000000010
 11
296.2728
 21
236.168399999999990
  0
LINE
  8
PT4-Rzut7
  6
CONTINUOUS
 62
     7
 10
296.2011
 20
235.981699999999990
 11
296.2766
 21
235.899200000000010
  0
LINE
  8
PT4-Rzut7
  6
CONTINUOUS
 62
     7
 10
296.3124
 20
235.992500000000010
 11
296.2011
 21
235.981699999999990
  0
LINE
  8
PT4-Rzut7
  6
CONTINUOUS
 62
     7
 10
296.4916
 20
236.459299999999980
 11
296.3803
 21
236.448500000000000
  0
LINE
  8
PT4-Rzut7
  6
CONTINUOUS
 62
     7
 10
296.42
 20
236.537700000000000
 11
296.4916
 21
236.459299999999980
  0
LINE
  8
PT4-Rzut7
  6
CONTINUOUS
 62
     7
 10
296.4558
 20
236.365999999999990
 11
296.3445
 21
236.355099999999990
  0
LINE
  8
PT4-Rzut7
  6
CONTINUOUS
 62
     7
 10
296.3803
 20
236.448500000000000
 11
296.4558
 21
236.365999999999990
  0
LINE
  8
PT4-Rzut7
  6
CONTINUOUS
 62
     7
 10
296.3445
 20
236.355099999999990
 11
296.4199
 21
236.272600000000010
  0
LINE
  8
PT4-Rzut7
  6
CONTINUOUS
 62
     7
 10
296.5553
 20
236.485700000000010
 11
296.3686
 21
236.557400000000000
  0
LINE
  8
PT4-Rzut7
  6
CONTINUOUS
 62
     7
 10
299.0046
 20
234.634999999999990
 11
299.0588
 21
234.078700000000000
  0
LINE
  8
PT4-Rzut7
  6
CONTINUOUS
 62
     7
 10
298.5378
 20
234.814200000000000
 11
298.592
 21
234.257900000000010
  0
LINE
  8
PT4-Rzut7
  6
CONTINUOUS
 62
     7
 10
298.592
 20
234.257900000000010
 11
299.0046
 21
234.634999999999990
  0
LINE
  8
PT4-Rzut7
  6
CONTINUOUS
 62
     7
 10
298.071
 20
234.993400000000010
 11
298.1253
 21
234.437000000000010
  0
LINE
  8
PT4-Rzut7
  6
CONTINUOUS
 62
     7
 10
298.1253
 20
234.437000000000010
 11
298.5378
 21
234.814200000000000
  0
LINE
  8
PT4-Rzut7
  6
CONTINUOUS
 62
     7
 10
297.6585
 20
234.616199999999990
 11
298.071
 21
234.993400000000010
  0
LINE
  8
PT4-Rzut7
  6
CONTINUOUS
 62
     7
 10
297.1375
 20
235.351800000000000
 11
297.1917
 21
234.795400000000000
  0
LINE
  8
PT4-Rzut7
  6
CONTINUOUS
 62
     7
 10
297.6043
 20
235.172599999999990
 11
297.6585
 21
234.616199999999990
  0
LINE
  8
PT4-Rzut7
  6
CONTINUOUS
 62
     7
 10
297.1917
 20
234.795400000000000
 11
297.6043
 21
235.172599999999990
  0
LINE
  8
PT4-Rzut7
  6
CONTINUOUS
 62
     7
 10
296.2581
 20
235.153799999999990
 11
296.6707
 21
235.531000000000010
  0
LINE
  8
PT4-Rzut7
  6
CONTINUOUS
 62
     7
 10
296.6707
 20
235.531000000000010
 11
296.7249
 21
234.974600000000010
  0
LINE
  8
PT4-Rzut7
  6
CONTINUOUS
 62
     7
 10
296.7249
 20
234.974600000000010
 11
297.1375
 21
235.351800000000000
  0
LINE
  8
PT4-Rzut7
  6
CONTINUOUS
 62
     7
 10
296.2049
 20
235.712500000000010
 11
296.0936
 21
235.701599999999980
  0
LINE
  8
PT4-Rzut7
  6
CONTINUOUS
 62
     7
 10
296.0936
 20
235.701599999999980
 11
296.1691
 21
235.619100000000000
  0
LINE
  8
PT4-Rzut7
  6
CONTINUOUS
 62
     7
 10
296.1691
 20
235.619100000000000
 11
296.0578
 21
235.608299999999990
  0
LINE
  8
PT4-Rzut7
  6
CONTINUOUS
 62
     7
 10
296.1295
 20
235.795000000000020
 11
296.2049
 21
235.712500000000010
  0
LINE
  8
PT4-Rzut7
  6
CONTINUOUS
 62
     7
 10
296.2407
 20
235.805800000000000
 11
296.1295
 21
235.795000000000020
  0
LINE
  8
PT4-Rzut7
  6
CONTINUOUS
 62
     7
 10
296.1653
 20
235.888300000000020
 11
296.2407
 21
235.805800000000000
  0
LINE
  8
PT4-Rzut7
  6
CONTINUOUS
 62
     7
 10
296.0257
 20
235.245700000000000
 11
295.9144
 21
235.234800000000010
  0
LINE
  8
PT4-Rzut7
  6
CONTINUOUS
 62
     7
 10
296.022
 20
235.514900000000010
 11
296.0974
 21
235.432400000000000
  0
LINE
  8
PT4-Rzut7
  6
CONTINUOUS
 62
     7
 10
296.1332
 20
235.525700000000000
 11
296.022
 21
235.514900000000010
  0
LINE
  8
PT4-Rzut7
  6
CONTINUOUS
 62
     7
 10
295.9861
 20
235.421500000000010
 11
296.0616
 21
235.339000000000000
  0
LINE
  8
PT4-Rzut7
  6
CONTINUOUS
 62
     7
 10
296.0616
 20
235.339000000000000
 11
295.9503
 21
235.328200000000010
  0
LINE
  8
PT4-Rzut7
  6
CONTINUOUS
 62
     7
 10
295.9503
 20
235.328200000000010
 11
296.0257
 21
235.245700000000000
  0
LINE
  8
PT4-Rzut7
  6
CONTINUOUS
 62
     7
 10
296.0974
 20
235.432400000000000
 11
295.9861
 21
235.421500000000010
  0
LINE
  8
PT4-Rzut7
  6
CONTINUOUS
 62
     7
 10
296.0578
 20
235.608299999999990
 11
296.1332
 21
235.525700000000000
  0
LINE
  8
PT4-Rzut7
  6
CONTINUOUS
 62
     7
 10
296.2148
 20
235.598600000000000
 11
296.2581
 21
235.153799999999990
  0
LINE
  8
PT4-Rzut7
  6
CONTINUOUS
 62
     7
 10
296.2766
 20
235.899200000000010
 11
296.1653
 21
235.888300000000020
  0
LINE
  8
PT4-Rzut7
  6
CONTINUOUS
 62
     7
 10
293.9333
 20
238.584800000000000
 11
296.7341
 21
237.509700000000010
  0
LINE
  8
PT4-Rzut7
  6
CONTINUOUS
 62
     7
 10
293.8903
 20
238.472800000000010
 11
296.6911
 21
237.397699999999990
  0
LINE
  8
PT4-Rzut7
  6
CONTINUOUS
 62
     7
 10
302.7389
 20
233.201599999999980
 11
302.7932
 21
232.645199999999990
  0
LINE
  8
PT4-Rzut7
  6
CONTINUOUS
 62
     7
 10
300.4592
 20
233.541100000000000
 11
300.8718
 21
233.918299999999990
  0
LINE
  8
PT4-Rzut7
  6
CONTINUOUS
 62
     7
 10
299.9924
 20
233.720300000000010
 11
300.405
 21
234.097500000000000
  0
LINE
  8
PT4-Rzut7
  6
CONTINUOUS
 62
     7
 10
300.405
 20
234.097500000000000
 11
300.4592
 21
233.541100000000000
  0
LINE
  8
PT4-Rzut7
  6
CONTINUOUS
 62
     7
 10
299.9382
 20
234.276700000000010
 11
299.9924
 21
233.720300000000010
  0
LINE
  8
PT4-Rzut7
  6
CONTINUOUS
 62
     7
 10
302.3264
 20
232.824400000000000
 11
302.7389
 21
233.201599999999980
  0
LINE
  8
PT4-Rzut7
  6
CONTINUOUS
 62
     7
 10
301.8596
 20
233.003600000000010
 11
302.2722
 21
233.380799999999990
  0
LINE
  8
PT4-Rzut7
  6
CONTINUOUS
 62
     7
 10
300.8718
 20
233.918299999999990
 11
300.926
 21
233.361899999999990
  0
LINE
  8
PT4-Rzut7
  6
CONTINUOUS
 62
     7
 10
300.926
 20
233.361899999999990
 11
301.3386
 21
233.739100000000010
  0
LINE
  8
PT4-Rzut7
  6
CONTINUOUS
 62
     7
 10
301.8054
 20
233.559900000000000
 11
301.8596
 21
233.003600000000010
  0
LINE
  8
PT4-Rzut7
  6
CONTINUOUS
 62
     7
 10
301.3928
 20
233.182700000000010
 11
301.8054
 21
233.559900000000000
  0
LINE
  8
PT4-Rzut7
  6
CONTINUOUS
 62
     7
 10
301.3386
 20
233.739100000000010
 11
301.3928
 21
233.182700000000010
  0
LINE
  8
PT4-Rzut7
  6
CONTINUOUS
 62
     7
 10
302.2722
 20
233.380799999999990
 11
302.3264
 21
232.824400000000000
  0
LINE
  8
PT4-Rzut7
  6
CONTINUOUS
 62
     7
 10
299.4714
 20
234.455899999999990
 11
299.5256
 21
233.899499999999990
  0
LINE
  8
PT4-Rzut7
  6
CONTINUOUS
 62
     7
 10
299.5256
 20
233.899499999999990
 11
299.9382
 21
234.276700000000010
  0
LINE
  8
PT4-Rzut7
  6
CONTINUOUS
 62
     7
 10
305.0729
 20
232.305700000000000
 11
305.1271
 21
231.749300000000010
  0
LINE
  8
PT4-Rzut7
  6
CONTINUOUS
 62
     7
 10
304.1935
 20
232.107599999999990
 11
304.6061
 21
232.484800000000010
  0
LINE
  8
PT4-Rzut7
  6
CONTINUOUS
 62
     7
 10
304.6061
 20
232.484800000000010
 11
304.6603
 21
231.928499999999990
  0
LINE
  8
PT4-Rzut7
  6
CONTINUOUS
 62
     7
 10
304.6603
 20
231.928499999999990
 11
305.0729
 21
232.305700000000000
  0
LINE
  8
PT4-Rzut7
  6
CONTINUOUS
 62
     7
 10
305.1271
 20
231.749300000000010
 11
305.2922
 21
231.900300000000020
  0
LINE
  8
PT4-Rzut7
  6
CONTINUOUS
 62
     7
 10
303.7267
 20
232.286800000000000
 11
304.1393
 21
232.663999999999990
  0
LINE
  8
PT4-Rzut7
  6
CONTINUOUS
 62
     7
 10
303.6725
 20
232.843200000000000
 11
303.7267
 21
232.286800000000000
  0
LINE
  8
PT4-Rzut7
  6
CONTINUOUS
 62
     7
 10
304.1393
 20
232.663999999999990
 11
304.1935
 21
232.107599999999990
  0
LINE
  8
PT4-Rzut7
  6
CONTINUOUS
 62
     7
 10
303.2057
 20
233.022400000000000
 11
303.26
 21
232.466000000000010
  0
LINE
  8
PT4-Rzut7
  6
CONTINUOUS
 62
     7
 10
302.7932
 20
232.645199999999990
 11
303.2057
 21
233.022400000000000
  0
LINE
  8
PT4-Rzut7
  6
CONTINUOUS
 62
     7
 10
303.26
 20
232.466000000000010
 11
303.6725
 21
232.843200000000000
  0
LINE
  8
PT4-Rzut7
  6
VERDECKT
 62
     7
 10
305.8681
 20
233.444099999999990
 11
303.7159
 21
227.744699999999990
  0
LINE
  8
PT4-Rzut7
  6
CONTINUOUS
 62
     7
 10
286.9715
 20
222.476900000000000
 11
287.1522
 21
221.336400000000000
  0
LINE
  8
PT4-Rzut7
  6
CONTINUOUS
 62
     7
 10
293.6872
 20
218.827800000000000
 11
294.5846
 21
219.554499999999990
  0
LINE
  8
PT4-Rzut7
  6
VERDECKT
 62
     7
 10
286.5844
 20
242.548200000000010
 11
298.6445
 21
237.925800000000010
  0
LINE
  8
PT4-Rzut7
  6
CONTINUOUS
 62
     7
 10
288.9459
 20
226.003600000000010
 11
293.3538
 21
237.486600000000010
  0
LINE
  8
PT4-Rzut7
  6
CONTINUOUS
 62
     7
 10
292.9586
 20
236.045400000000000
 11
295.7593
 21
234.970300000000010
  0
LINE
  8
PT4-Rzut7
  6
CONTINUOUS
 62
     7
 10
293.4886
 20
237.434900000000000
 11
292.9511
 21
236.034500000000010
  0
LINE
  8
PT4-Rzut7
  6
CONTINUOUS
 62
     7
 10
295.7518
 20
234.959400000000020
 11
296.2894
 21
236.359800000000010
  0
LINE
  8
PT4-Rzut7
  6
CONTINUOUS
 62
     7
 10
292.9081
 20
235.922500000000010
 11
295.7088
 21
234.847399999999990
  0
LINE
  8
PT4-Rzut7
  6
CONTINUOUS
 62
     7
 10
292.9081
 20
235.922500000000010
 11
292.3705
 21
234.522099999999990
  0
LINE
  8
PT4-Rzut7
  6
CONTINUOUS
 62
     7
 10
295.1713
 20
233.447000000000000
 11
295.7088
 21
234.847399999999990
  0
LINE
  8
PT4-Rzut7
  6
CONTINUOUS
 62
     7
 10
292.3705
 20
234.522099999999990
 11
295.1713
 21
233.447000000000000
  0
LINE
  8
PT4-Rzut7
  6
CONTINUOUS
 62
     7
 10
292.3275
 20
234.410100000000000
 11
291.79
 21
233.009700000000010
  0
LINE
  8
PT4-Rzut7
  6
CONTINUOUS
 62
     7
 10
292.3275
 20
234.410100000000000
 11
295.1282
 21
233.335000000000010
  0
LINE
  8
PT4-Rzut7
  6
CONTINUOUS
 62
     7
 10
291.79
 20
233.009700000000010
 11
294.5907
 21
231.934599999999990
  0
LINE
  8
PT4-Rzut7
  6
CONTINUOUS
 62
     7
 10
294.5907
 20
231.934599999999990
 11
295.1282
 21
233.335000000000010
  0
LINE
  8
PT4-Rzut7
  6
CONTINUOUS
 62
     7
 10
291.7469
 20
232.897699999999990
 11
291.2094
 21
231.497300000000000
  0
LINE
  8
PT4-Rzut7
  6
CONTINUOUS
 62
     7
 10
291.7469
 20
232.897699999999990
 11
294.5477
 21
231.822599999999990
  0
LINE
  8
PT4-Rzut7
  6
CONTINUOUS
 62
     7
 10
291.2094
 20
231.497300000000000
 11
294.0101
 21
230.422200000000000
  0
LINE
  8
PT4-Rzut7
  6
CONTINUOUS
 62
     7
 10
294.0101
 20
230.422200000000000
 11
294.5477
 21
231.822599999999990
  0
LINE
  8
PT4-Rzut7
  6
CONTINUOUS
 62
     7
 10
291.1664
 20
231.385300000000000
 11
290.6288
 21
229.984900000000010
  0
LINE
  8
PT4-Rzut7
  6
CONTINUOUS
 62
     7
 10
291.1664
 20
231.385300000000000
 11
293.9671
 21
230.310200000000010
  0
LINE
  8
PT4-Rzut7
  6
CONTINUOUS
 62
     7
 10
290.6288
 20
229.984900000000010
 11
293.4296
 21
228.909799999999990
  0
LINE
  8
PT4-Rzut7
  6
CONTINUOUS
 62
     7
 10
293.4296
 20
228.909799999999990
 11
293.9671
 21
230.310200000000010
  0
LINE
  8
PT4-Rzut7
  6
CONTINUOUS
 62
     7
 10
290.5858
 20
229.872900000000020
 11
290.0483
 21
228.472500000000000
  0
LINE
  8
PT4-Rzut7
  6
CONTINUOUS
 62
     7
 10
290.5858
 20
229.872900000000020
 11
293.3866
 21
228.797800000000000
  0
LINE
  8
PT4-Rzut7
  6
CONTINUOUS
 62
     7
 10
290.0483
 20
228.472500000000000
 11
292.849
 21
227.397400000000000
  0
LINE
  8
PT4-Rzut7
  6
CONTINUOUS
 62
     7
 10
292.849
 20
227.397400000000000
 11
293.3866
 21
228.797800000000000
  0
LINE
  8
PT4-Rzut7
  6
CONTINUOUS
 62
     7
 10
290.0053
 20
228.360500000000000
 11
289.4677
 21
226.960100000000010
  0
LINE
  8
PT4-Rzut7
  6
CONTINUOUS
 62
     7
 10
290.0053
 20
228.360500000000000
 11
292.806
 21
227.285400000000010
  0
LINE
  8
PT4-Rzut7
  6
CONTINUOUS
 62
     7
 10
289.4677
 20
226.960100000000010
 11
292.2685
 21
225.884999999999990
  0
LINE
  8
PT4-Rzut7
  6
CONTINUOUS
 62
     7
 10
292.2685
 20
225.884999999999990
 11
292.806
 21
227.285400000000010
  0
LINE
  8
PT4-Rzut7
  6
CONTINUOUS
 62
     7
 10
289.4247
 20
226.848099999999990
 11
289.0807
 21
225.951899999999990
  0
LINE
  8
PT4-Rzut7
  6
CONTINUOUS
 62
     7
 10
289.4247
 20
226.848099999999990
 11
292.2255
 21
225.773000000000000
  0
LINE
  8
PT4-Rzut7
  6
CONTINUOUS
 62
     7
 10
291.8814
 20
224.876700000000000
 11
292.2255
 21
225.773000000000000
  0
LINE
  8
PT4-Rzut7
  6
CONTINUOUS
 62
     7
 10
289.0807
 20
225.523400000000010
 11
287.934
 21
222.535900000000000
  0
LINE
  8
PT4-Rzut7
  6
CONTINUOUS
 62
     7
 10
289.2099
 20
225.580899999999990
 11
294.9981
 21
223.359000000000010
  0
LINE
  8
PT4-Rzut7
  6
CONTINUOUS
 62
     7
 10
295.0557
 20
223.229800000000010
 11
293.9089
 21
220.242400000000000
  0
LINE
  8
PT4-Rzut7
  6
CONTINUOUS
 62
     7
 10
287.9915
 20
222.406700000000000
 11
293.7797
 21
220.184800000000000
  0
LINE
  8
PT4-Rzut7
  6
CONTINUOUS
 62
     7
 10
289.0835
 20
225.445100000000000
 11
289.348
 21
225.076200000000000
  0
LINE
  8
PT4-Rzut7
  6
CONTINUOUS
 62
     7
 10
289.2741
 20
225.487799999999990
 11
289.2361
 21
225.036800000000000
  0
CIRCLE
  8
PT4-Rzut7
  6
CONTINUOUS
 62
     7
 10
289.174100000000010
 20
225.487500000000010
 40
0.100000000000000
  0
CIRCLE
  8
PT4-Rzut7
  6
CONTINUOUS
 62
     7
 10
288.027300000000030
 20
222.500100000000000
 40
0.100000000000000
  0
CIRCLE
  8
PT4-Rzut7
  6
CONTINUOUS
 62
     7
 10
294.962300000000030
 20
223.265700000000010
 40
0.100000000000000
  0
CIRCLE
  8
PT4-Rzut7
  6
CONTINUOUS
 62
     7
 10
293.815499999999990
 20
220.278200000000000
 40
0.100000000000000
  0
ARC
  8
PT4-Rzut7
  6
CONTINUOUS
 62
     7
 10
304.426899999999990
 20
232.018100000000000
 40
0.250000000000000
 50
159.000000000000000
 51
249.000000000000000
  0
ARC
  8
PT4-Rzut7
  6
CONTINUOUS
 62
     7
 10
304.426899999999990
 20
232.018100000000000
 40
0.250000000000000
 50
249.000000000000000
 51
339.000000000000000
  0
ARC
  8
PT4-Rzut7
  6
CONTINUOUS
 62
     7
 10
304.893700000000020
 20
231.838900000000000
 40
0.250000000000000
 50
159.000000000000000
 51
339.000000000000000
  0
ARC
  8
PT4-Rzut7
  6
CONTINUOUS
 62
     7
 10
305.360500000000000
 20
231.659699999999990
 40
0.250000000000000
 50
159.000000000000000
 51
212.148400000000010
  0
ARC
  8
PT4-Rzut7
  6
CONTINUOUS
 62
     7
 10
303.960100000000010
 20
232.197200000000010
 40
0.250000000000000
 50
159.000000000000000
 51
339.000000000000000
  0
ARC
  8
PT4-Rzut7
  6
CONTINUOUS
 62
     7
 10
300.692600000000030
 20
233.451500000000010
 40
0.250000000000000
 50
159.000000000000000
 51
339.000000000000000
  0
ARC
  8
PT4-Rzut7
  6
CONTINUOUS
 62
     7
 10
300.225799999999990
 20
233.630699999999990
 40
0.250000000000000
 50
159.000000000000000
 51
249.000000000000000
  0
ARC
  8
PT4-Rzut7
  6
CONTINUOUS
 62
     7
 10
300.225799999999990
 20
233.630699999999990
 40
0.250000000000000
 50
249.000000000000000
 51
339.000000000000000
  0
ARC
  8
PT4-Rzut7
  6
CONTINUOUS
 62
     7
 10
303.026599999999970
 20
232.555600000000000
 40
0.250000000000000
 50
249.000000000000000
 51
339.000000000000000
  0
ARC
  8
PT4-Rzut7
  6
CONTINUOUS
 62
     7
 10
302.559800000000000
 20
232.734800000000010
 40
0.250000000000000
 50
159.000000000000000
 51
339.000000000000000
  0
ARC
  8
PT4-Rzut7
  6
CONTINUOUS
 62
     7
 10
303.026599999999970
 20
232.555600000000000
 40
0.250000000000000
 50
159.000000000000000
 51
249.000000000000000
  0
ARC
  8
PT4-Rzut7
  6
CONTINUOUS
 62
     7
 10
301.626199999999980
 20
233.093200000000000
 40
0.250000000000000
 50
249.000000000000000
 51
339.000000000000000
  0
ARC
  8
PT4-Rzut7
  6
CONTINUOUS
 62
     7
 10
301.626199999999980
 20
233.093200000000000
 40
0.250000000000000
 50
159.000000000000000
 51
249.000000000000000
  0
ARC
  8
PT4-Rzut7
  6
CONTINUOUS
 62
     7
 10
301.159400000000010
 20
233.272300000000000
 40
0.250000000000000
 50
159.000000000000000
 51
339.000000000000000
  0
ARC
  8
PT4-Rzut7
  6
CONTINUOUS
 62
     7
 10
302.093000000000020
 20
232.913999999999990
 40
0.250000000000000
 50
159.000000000000000
 51
339.000000000000000
  0
ARC
  8
PT4-Rzut7
  6
CONTINUOUS
 62
     7
 10
303.493299999999980
 20
232.376399999999990
 40
0.250000000000000
 50
159.000000000000000
 51
339.000000000000000
  0
ARC
  8
PT4-Rzut7
  6
CONTINUOUS
 62
     7
 10
299.292199999999980
 20
233.989100000000010
 40
0.250000000000000
 50
159.000000000000000
 51
339.000000000000000
  0
ARC
  8
PT4-Rzut7
  6
CONTINUOUS
 62
     7
 10
298.825400000000000
 20
234.168299999999990
 40
0.250000000000000
 50
249.000000000000000
 51
339.000000000000000
  0
ARC
  8
PT4-Rzut7
  6
CONTINUOUS
 62
     7
 10
297.891900000000020
 20
234.526600000000000
 40
0.250000000000000
 50
159.000000000000000
 51
339.000000000000000
  0
ARC
  8
PT4-Rzut7
  6
CONTINUOUS
 62
     7
 10
298.358700000000000
 20
234.347399999999990
 40
0.250000000000000
 50
159.000000000000000
 51
339.000000000000000
  0
ARC
  8
PT4-Rzut7
  6
CONTINUOUS
 62
     7
 10
298.825400000000000
 20
234.168299999999990
 40
0.250000000000000
 50
159.000000000000000
 51
249.000000000000000
  0
ARC
  8
PT4-Rzut7
  6
CONTINUOUS
 62
     7
 10
297.425099999999990
 20
234.705800000000010
 40
0.250000000000000
 50
249.000000000000000
 51
339.000000000000000
  0
ARC
  8
PT4-Rzut7
  6
CONTINUOUS
 62
     7
 10
297.425099999999990
 20
234.705800000000010
 40
0.250000000000000
 50
159.000000000000000
 51
249.000000000000000
  0
ARC
  8
PT4-Rzut7
  6
CONTINUOUS
 62
     7
 10
296.491499999999970
 20
235.064200000000000
 40
0.250000000000000
 50
159.000000000000000
 51
339.000000000000000
  0
ARC
  8
PT4-Rzut7
  6
CONTINUOUS
 62
     7
 10
296.958300000000010
 20
234.884999999999990
 40
0.250000000000000
 50
159.000000000000000
 51
339.000000000000000
  0
ARC
  8
PT4-Rzut7
  6
CONTINUOUS
 62
     7
 10
295.896500000000000
 20
235.188199999999990
 40
0.050000000000000
 50
69.000000000000000
 51
159.000000000000000
  0
ARC
  8
PT4-Rzut7
  6
CONTINUOUS
 62
     7
 10
296.007799999999970
 20
235.199000000000010
 40
0.050000000000000
 50
249.000000000000000
 51
69.000000000000000
  0
ARC
  8
PT4-Rzut7
  6
CONTINUOUS
 62
     7
 10
296.024700000000000
 20
235.243400000000010
 40
0.250000000000000
 50
260.566800000000000
 51
339.000000000000000
  0
ARC
  8
PT4-Rzut7
  6
CONTINUOUS
 62
     7
 10
299.759000000000010
 20
233.809900000000000
 40
0.250000000000000
 50
159.000000000000000
 51
339.000000000000000
  0
ARC
  8
PT4-Rzut7
  6
CONTINUOUS
 62
     7
 10
295.896500000000000
 20
235.188199999999990
 40
0.050000000000000
 50
159.000000000000000
 51
249.000000000000000
  0
ARC
  8
PT4-Rzut7
  6
CONTINUOUS
 62
     7
 10
295.860700000000010
 20
235.094799999999990
 40
0.050000000000000
 50
69.000000000000000
 51
249.000000000000000
  0
ARC
  8
PT4-Rzut7
  6
CONTINUOUS
 62
     7
 10
295.971999999999980
 20
235.105600000000010
 40
0.050000000000000
 50
249.000000000000000
 51
69.000000000000000
  0
ARC
  8
PT4-Rzut7
  6
CONTINUOUS
 62
     7
 10
295.936100000000010
 20
235.012300000000010
 40
0.050000000000000
 50
-21.000000000000000
 51
69.000000000000000
  0
ARC
  8
PT4-Rzut7
  6
CONTINUOUS
 62
     7
 10
299.238000000000000
 20
234.545500000000000
 40
0.250000000000000
 50
-21.000000000000000
 51
159.000000000000000
  0
ARC
  8
PT4-Rzut7
  6
CONTINUOUS
 62
     7
 10
296.401999999999990
 20
236.225900000000000
 40
0.050000000000000
 50
249.000000000000000
 51
69.000000000000000
  0
ARC
  8
PT4-Rzut7
  6
CONTINUOUS
 62
     7
 10
296.326599999999980
 20
236.308500000000010
 40
0.050000000000000
 50
159.000000000000000
 51
249.000000000000000
  0
ARC
  8
PT4-Rzut7
  6
CONTINUOUS
 62
     7
 10
296.366199999999990
 20
236.132600000000000
 40
0.050000000000000
 50
249.000000000000000
 51
69.000000000000000
  0
ARC
  8
PT4-Rzut7
  6
CONTINUOUS
 62
     7
 10
296.330300000000020
 20
236.039199999999990
 40
0.050000000000000
 50
249.000000000000000
 51
69.000000000000000
  0
ARC
  8
PT4-Rzut7
  6
CONTINUOUS
 62
     7
 10
296.254900000000020
 20
236.121700000000000
 40
0.050000000000000
 50
69.000000000000000
 51
249.000000000000000
  0
ARC
  8
PT4-Rzut7
  6
CONTINUOUS
 62
     7
 10
296.219100000000030
 20
236.028400000000000
 40
0.050000000000000
 50
69.000000000000000
 51
159.000000000000000
  0
ARC
  8
PT4-Rzut7
  6
CONTINUOUS
 62
     7
 10
296.290700000000020
 20
236.215100000000010
 40
0.050000000000000
 50
69.000000000000000
 51
249.000000000000000
  0
ARC
  8
PT4-Rzut7
  6
CONTINUOUS
 62
     7
 10
296.219100000000030
 20
236.028400000000000
 40
0.050000000000000
 50
159.000000000000000
 51
249.000000000000000
  0
ARC
  8
PT4-Rzut7
  6
CONTINUOUS
 62
     7
 10
296.294500000000030
 20
235.945899999999990
 40
0.050000000000000
 50
249.000000000000000
 51
69.000000000000000
  0
ARC
  8
PT4-Rzut7
  6
CONTINUOUS
 62
     7
 10
296.398199999999970
 20
236.495200000000010
 40
0.050000000000000
 50
87.288300000000007
 51
249.000000000000000
  0
ARC
  8
PT4-Rzut7
  6
CONTINUOUS
 62
     7
 10
296.362399999999980
 20
236.401800000000010
 40
0.050000000000000
 50
69.000000000000000
 51
249.000000000000000
  0
ARC
  8
PT4-Rzut7
  6
CONTINUOUS
 62
     7
 10
296.509500000000000
 20
236.506000000000000
 40
0.050000000000000
 50
249.000000000000000
 51
336.104699999999980
  0
ARC
  8
PT4-Rzut7
  6
CONTINUOUS
 62
     7
 10
296.437799999999980
 20
236.319300000000000
 40
0.050000000000000
 50
249.000000000000000
 51
69.000000000000000
  0
ARC
  8
PT4-Rzut7
  6
CONTINUOUS
 62
     7
 10
296.473700000000010
 20
236.412700000000000
 40
0.050000000000000
 50
249.000000000000000
 51
69.000000000000000
  0
ARC
  8
PT4-Rzut7
  6
CONTINUOUS
 62
     7
 10
296.326599999999980
 20
236.308500000000010
 40
0.050000000000000
 50
69.000000000000000
 51
159.000000000000000
  0
ARC
  8
PT4-Rzut7
  6
CONTINUOUS
 62
     7
 10
296.111600000000010
 20
235.748300000000000
 40
0.050000000000000
 50
159.000000000000000
 51
249.000000000000000
  0
ARC
  8
PT4-Rzut7
  6
CONTINUOUS
 62
     7
 10
296.075699999999980
 20
235.654900000000000
 40
0.050000000000000
 50
69.000000000000000
 51
249.000000000000000
  0
ARC
  8
PT4-Rzut7
  6
CONTINUOUS
 62
     7
 10
296.111600000000010
 20
235.748300000000000
 40
0.050000000000000
 50
69.000000000000000
 51
159.000000000000000
  0
ARC
  8
PT4-Rzut7
  6
CONTINUOUS
 62
     7
 10
296.147400000000000
 20
235.841700000000000
 40
0.050000000000000
 50
69.000000000000000
 51
249.000000000000000
  0
ARC
  8
PT4-Rzut7
  6
CONTINUOUS
 62
     7
 10
295.932399999999970
 20
235.281499999999990
 40
0.050000000000000
 50
69.000000000000000
 51
249.000000000000000
  0
ARC
  8
PT4-Rzut7
  6
CONTINUOUS
 62
     7
 10
296.004000000000020
 20
235.468200000000000
 40
0.050000000000000
 50
69.000000000000000
 51
159.000000000000000
  0
ARC
  8
PT4-Rzut7
  6
CONTINUOUS
 62
     7
 10
296.004000000000020
 20
235.468200000000000
 40
0.050000000000000
 50
159.000000000000000
 51
249.000000000000000
  0
ARC
  8
PT4-Rzut7
  6
CONTINUOUS
 62
     7
 10
295.968200000000020
 20
235.374900000000000
 40
0.050000000000000
 50
69.000000000000000
 51
249.000000000000000
  0
ARC
  8
PT4-Rzut7
  6
CONTINUOUS
 62
     7
 10
296.039899999999990
 20
235.561600000000000
 40
0.050000000000000
 50
69.000000000000000
 51
249.000000000000000
  0
ARC
  8
PT4-Rzut7
  6
CONTINUOUS
 62
     7
 10
296.187000000000010
 20
235.665799999999990
 40
0.050000000000000
 50
249.000000000000000
 51
69.000000000000000
  0
ARC
  8
PT4-Rzut7
  6
CONTINUOUS
 62
     7
 10
296.222800000000010
 20
235.759099999999990
 40
0.050000000000000
 50
249.000000000000000
 51
69.000000000000000
  0
ARC
  8
PT4-Rzut7
  6
CONTINUOUS
 62
     7
 10
296.079500000000000
 20
235.385699999999990
 40
0.050000000000000
 50
249.000000000000000
 51
69.000000000000000
  0
ARC
  8
PT4-Rzut7
  6
CONTINUOUS
 62
     7
 10
296.043600000000030
 20
235.292399999999990
 40
0.050000000000000
 50
249.000000000000000
 51
339.000000000000000
  0
ARC
  8
PT4-Rzut7
  6
CONTINUOUS
 62
     7
 10
296.115299999999990
 20
235.479100000000020
 40
0.050000000000000
 50
249.000000000000000
 51
69.000000000000000
  0
ARC
  8
PT4-Rzut7
  6
CONTINUOUS
 62
     7
 10
296.151200000000020
 20
235.572400000000020
 40
0.050000000000000
 50
249.000000000000000
 51
69.000000000000000
  0
ARC
  8
PT4-Rzut7
  6
CONTINUOUS
 62
     7
 10
296.437299999999990
 20
235.620600000000000
 40
0.250000000000000
 50
-21.000000000000000
 51
122.081400000000000
  0
ARC
  8
PT4-Rzut7
  6
CONTINUOUS
 62
     7
 10
296.183200000000000
 20
235.935000000000000
 40
0.050000000000000
 50
69.000000000000000
 51
249.000000000000000
  0
ARC
  8
PT4-Rzut7
  6
CONTINUOUS
 62
     7
 10
296.258699999999980
 20
235.852499999999990
 40
0.050000000000000
 50
249.000000000000000
 51
69.000000000000000
  0
ARC
  8
PT4-Rzut7
  6
CONTINUOUS
 62
     7
 10
298.771200000000020
 20
234.724600000000010
 40
0.250000000000000
 50
-21.000000000000000
 51
159.000000000000000
  0
ARC
  8
PT4-Rzut7
  6
CONTINUOUS
 62
     7
 10
298.304399999999990
 20
234.903799999999990
 40
0.250000000000000
 50
-21.000000000000000
 51
159.000000000000000
  0
ARC
  8
PT4-Rzut7
  6
CONTINUOUS
 62
     7
 10
297.837699999999980
 20
235.083000000000000
 40
0.250000000000000
 50
-21.000000000000000
 51
159.000000000000000
  0
ARC
  8
PT4-Rzut7
  6
CONTINUOUS
 62
     7
 10
297.370900000000010
 20
235.262200000000010
 40
0.250000000000000
 50
-21.000000000000000
 51
159.000000000000000
  0
ARC
  8
PT4-Rzut7
  6
CONTINUOUS
 62
     7
 10
296.904100000000030
 20
235.441399999999990
 40
0.250000000000000
 50
-21.000000000000000
 51
159.000000000000000
  0
ARC
  8
PT4-Rzut7
  6
CONTINUOUS
 62
     7
 10
302.972300000000020
 20
233.111999999999990
 40
0.250000000000000
 50
-21.000000000000000
 51
159.000000000000000
  0
ARC
  8
PT4-Rzut7
  6
CONTINUOUS
 62
     7
 10
299.704799999999980
 20
234.366300000000000
 40
0.250000000000000
 50
-21.000000000000000
 51
159.000000000000000
  0
ARC
  8
PT4-Rzut7
  6
CONTINUOUS
 62
     7
 10
300.638399999999990
 20
234.007900000000010
 40
0.250000000000000
 50
-21.000000000000000
 51
159.000000000000000
  0
ARC
  8
PT4-Rzut7
  6
CONTINUOUS
 62
     7
 10
300.171600000000010
 20
234.187099999999990
 40
0.250000000000000
 50
-21.000000000000000
 51
159.000000000000000
  0
ARC
  8
PT4-Rzut7
  6
CONTINUOUS
 62
     7
 10
302.038799999999980
 20
233.470399999999980
 40
0.250000000000000
 50
-21.000000000000000
 51
159.000000000000000
  0
ARC
  8
PT4-Rzut7
  6
CONTINUOUS
 62
     7
 10
301.105200000000020
 20
233.828700000000000
 40
0.250000000000000
 50
-21.000000000000000
 51
159.000000000000000
  0
ARC
  8
PT4-Rzut7
  6
CONTINUOUS
 62
     7
 10
301.572000000000000
 20
233.649499999999990
 40
0.250000000000000
 50
-21.000000000000000
 51
159.000000000000000
  0
ARC
  8
PT4-Rzut7
  6
CONTINUOUS
 62
     7
 10
302.505600000000020
 20
233.291200000000000
 40
0.250000000000000
 50
-21.000000000000000
 51
159.000000000000000
  0
ARC
  8
PT4-Rzut7
  6
CONTINUOUS
 62
     7
 10
303.439100000000000
 20
232.932799999999990
 40
0.250000000000000
 50
-21.000000000000000
 51
159.000000000000000
  0
ARC
  8
PT4-Rzut7
  6
CONTINUOUS
 62
     7
 10
304.372700000000010
 20
232.574400000000000
 40
0.250000000000000
 50
-21.000000000000000
 51
159.000000000000000
  0
ARC
  8
PT4-Rzut7
  6
CONTINUOUS
 62
     7
 10
304.839499999999990
 20
232.395199999999990
 40
0.250000000000000
 50
-21.000000000000000
 51
159.000000000000000
  0
ARC
  8
PT4-Rzut7
  6
CONTINUOUS
 62
     7
 10
305.306300000000020
 20
232.216099999999980
 40
0.250000000000000
 50
45.405900000000003
 51
159.000000000000000
  0
ARC
  8
PT4-Rzut7
  6
CONTINUOUS
 62
     7
 10
303.905899999999970
 20
232.753600000000010
 40
0.250000000000000
 50
-21.000000000000000
 51
159.000000000000000
  0
ARC
  8
PT4-Rzut7
  6
CONTINUOUS
 62
     7
 10
294.962300000000030
 20
223.265700000000010
 40
0.100000000000000
 50
-21.000000000000000
 51
69.000000000000000
  0
ARC
  8
PT4-Rzut7
  6
CONTINUOUS
 62
     7
 10
289.174100000000010
 20
225.487500000000010
 40
0.100000000000000
 50
69.000000000000000
 51
159.000000000000000
  0
ARC
  8
PT4-Rzut7
  6
CONTINUOUS
 62
     7
 10
288.027300000000030
 20
222.500100000000000
 40
0.100000000000000
 50
159.000000000000000
 51
249.000000000000000
  0
ARC
  8
PT4-Rzut7
  6
CONTINUOUS
 62
     7
 10
293.815499999999990
 20
220.278200000000000
 40
0.100000000000000
 50
249.000000000000000
 51
339.000000000000000
  0
LINE
  8
PT4-Rzut7
  6
CONTINUOUS
 62
     7
 10
288.7573
 20
226.075999999999990
 11
287.3238
 21
222.341700000000000
  0
LINE
  8
PT4-Rzut7
  6
CONTINUOUS
 62
     7
 10
282.0355
 20
228.656200000000010
 11
280.602
 21
224.921899999999990
  0
LINE
  8
PT4-Rzut7
  6
CONTINUOUS
 62
     7
 10
280.602
 20
224.921899999999990
 11
287.3238
 21
222.341700000000000
  0
LINE
  8
PT4-Rzut7
  6
CONTINUOUS
 62
     7
 10
292.8375
 20
227.375100000000000
 11
296.5679
 21
225.931299999999990
  0
LINE
  8
PT4-Rzut7
  6
CONTINUOUS
 62
     7
 10
291.9049
 20
227.735999999999990
 11
292.8375
 21
227.375100000000000
  0
LINE
  8
PT4-Rzut7
  6
CONTINUOUS
 62
     7
 10
297.5005
 20
225.570400000000010
 11
296.5679
 21
225.931299999999990
  0
LINE
  8
PT4-Rzut7
  6
CONTINUOUS
 62
     7
 10
293.4842
 20
227.660900000000000
 11
292.1908
 21
227.089300000000010
  0
LINE
  8
PT4-Rzut7
  6
CONTINUOUS
 62
     7
 10
297.2146
 20
226.217100000000020
 11
295.9212
 21
225.645600000000000
  0
LINE
  8
PT4-Rzut7
  6
CONTINUOUS
 62
     7
 10
292.4766
 20
226.442500000000000
 11
293.1984
 21
228.307700000000010
  0
LINE
  8
PT4-Rzut7
  6
CONTINUOUS
 62
     7
 10
296.207
 20
224.998800000000020
 11
296.9288
 21
226.863900000000000
  0
TEXT
  8
PT4-Rzut7
  6
CONTINUOUS
 62
     7
 10
294.111400000000000
 20
228.886200000000000
 40
2.000000000000000
 50
338.800000000000010
  1
40
  0
LINE
  8
PT4-Rzut7
  6
CONTINUOUS
 62
     7
 10
282.0355
 20
228.656200000000010
 11
288.7573
 21
226.075999999999990
  0
LINE
  8
PT4-Rzut7
  6
CONTINUOUS
 62
     7
 10
287.3569
 20
226.613499999999990
 11
292.5901
 21
240.246299999999990
  0
LINE
  8
PT4-Rzut7
  6
CONTINUOUS
 62
     7
 10
283.6226
 20
228.047000000000000
 11
288.855
 21
241.677899999999990
  0
POLYLINE
  8
PT4-Rzut7
  6
CONTINUOUS
 62
     7
 66
     1
 70
     1
  0
VERTEX
  8
PT4-Rzut7
 10
288.855
 20
241.677899999999990
  0
VERTEX
  8
PT4-Rzut7
 10
283.6226
 20
228.047000000000000
  0
VERTEX
  8
PT4-Rzut7
 10
282.0355
 20
228.656200000000010
  0
VERTEX
  8
PT4-Rzut7
 10
280.602
 20
224.921899999999990
  0
VERTEX
  8
PT4-Rzut7
 10
287.3238
 20
222.341700000000000
  0
VERTEX
  8
PT4-Rzut7
 10
288.7573
 20
226.075999999999990
  0
VERTEX
  8
PT4-Rzut7
 10
287.3569
 20
226.613499999999990
  0
VERTEX
  8
PT4-Rzut7
 10
292.5901
 20
240.246299999999990
  0
SEQEND
  8
PT4-Rzut7
  0
LINE
  8
PT4-Rzut7
  6
CONTINUOUS
 62
     7
 10
303.8629
 20
215.992899999999990
 11
305.2964
 21
219.727200000000010
  0
LINE
  8
PT4-Rzut7
  6
CONTINUOUS
 62
     7
 10
303.5046
 20
215.059300000000010
 11
303.8629
 21
215.992899999999990
  0
LINE
  8
PT4-Rzut7
  6
CONTINUOUS
 62
     7
 10
305.6548
 20
220.660799999999990
 11
305.2964
 21
219.727200000000010
  0
LINE
  8
PT4-Rzut7
  6
CONTINUOUS
 62
     7
 10
303.5754
 20
216.638800000000000
 11
304.1505
 21
215.347000000000010
  0
LINE
  8
PT4-Rzut7
  6
CONTINUOUS
 62
     7
 10
305.0088
 20
220.373099999999990
 11
305.584
 21
219.081300000000000
  0
LINE
  8
PT4-Rzut7
  6
CONTINUOUS
 62
     7
 10
304.7965
 20
215.634500000000000
 11
302.9294
 21
216.351300000000010
  0
LINE
  8
PT4-Rzut7
  6
CONTINUOUS
 62
     7
 10
306.23
 20
219.368900000000000
 11
304.3628
 21
220.085600000000000
  0
TEXT
  8
PT4-Rzut7
  6
CONTINUOUS
 62
     7
 10
302.829799999999980
 20
217.378899999999990
 40
2.000000000000000
 50
69.000000000000000
  1
40
  0
LINE
  8
PT4-Rzut7
  6
CONTINUOUS
 62
     7
 10
305.2964
 20
219.727200000000010
 11
308.1633
 21
227.195899999999990
  0
LINE
  8
PT4-Rzut7
  6
CONTINUOUS
 62
     7
 10
304.938
 20
218.793600000000000
 11
305.2964
 21
219.727200000000010
  0
LINE
  8
PT4-Rzut7
  6
CONTINUOUS
 62
     7
 10
308.5217
 20
228.129400000000000
 11
308.1633
 21
227.195899999999990
  0
LINE
  8
PT4-Rzut7
  6
CONTINUOUS
 62
     7
 10
305.0088
 20
220.373099999999990
 11
305.584
 21
219.081300000000000
  0
LINE
  8
PT4-Rzut7
  6
CONTINUOUS
 62
     7
 10
307.8758
 20
227.841700000000000
 11
308.4509
 21
226.550000000000010
  0
LINE
  8
PT4-Rzut7
  6
CONTINUOUS
 62
     7
 10
306.23
 20
219.368900000000000
 11
304.3628
 21
220.085600000000000
  0
LINE
  8
PT4-Rzut7
  6
CONTINUOUS
 62
     7
 10
309.0969
 20
226.837500000000010
 11
307.2298
 21
227.554200000000010
  0
TEXT
  8
PT4-Rzut7
  6
CONTINUOUS
 62
     7
 10
304.680200000000010
 20
223.353099999999980
 40
2.000000000000000
 50
69.000000000000000
  1
80
  0
LINE
  8
PT4-Rzut7
  6
CONTINUOUS
 62
     7
 10
308.1633
 20
227.195899999999990
 11
309.7806
 21
231.408999999999990
  0
LINE
  8
PT4-Rzut7
  6
CONTINUOUS
 62
     7
 10
307.805
 20
226.262300000000010
 11
308.1633
 21
227.195899999999990
  0
LINE
  8
PT4-Rzut7
  6
CONTINUOUS
 62
     7
 10
310.139
 20
232.342600000000000
 11
309.7806
 21
231.408999999999990
  0
LINE
  8
PT4-Rzut7
  6
CONTINUOUS
 62
     7
 10
307.8758
 20
227.841700000000000
 11
308.4509
 21
226.550000000000010
  0
LINE
  8
PT4-Rzut7
  6
CONTINUOUS
 62
     7
 10
309.4931
 20
232.054900000000000
 11
310.0682
 21
230.763100000000010
  0
LINE
  8
PT4-Rzut7
  6
CONTINUOUS
 62
     7
 10
309.0969
 20
226.837500000000010
 11
307.2298
 21
227.554200000000010
  0
LINE
  8
PT4-Rzut7
  6
CONTINUOUS
 62
     7
 10
310.7142
 20
231.050600000000000
 11
308.847
 21
231.767400000000010
  0
TEXT
  8
PT4-Rzut7
  6
CONTINUOUS
 62
     7
 10
307.138800000000000
 20
228.869399999999980
 40
2.000000000000000
 50
69.000000000000000
  1
45
  0
LINE
  8
PT4-Rzut7
  6
CONTINUOUS
 62
     7
 10
290.0726
 20
244.849799999999990
 11
293.8069
 21
243.416300000000010
  0
LINE
  8
PT4-Rzut7
  6
CONTINUOUS
 62
     7
 10
289.139
 20
245.208100000000000
 11
290.0726
 21
244.849799999999990
  0
LINE
  8
PT4-Rzut7
  6
CONTINUOUS
 62
     7
 10
294.7405
 20
243.057899999999990
 11
293.8069
 21
243.416300000000010
  0
LINE
  8
PT4-Rzut7
  6
CONTINUOUS
 62
     7
 10
290.7184
 20
245.137300000000010
 11
289.4267
 21
244.562199999999990
  0
LINE
  8
PT4-Rzut7
  6
CONTINUOUS
 62
     7
 10
294.4528
 20
243.703800000000000
 11
293.161
 21
243.128700000000010
  0
LINE
  8
PT4-Rzut7
  6
CONTINUOUS
 62
     7
 10
290.4309
 20
245.783300000000000
 11
289.7142
 21
243.916200000000000
  0
LINE
  8
PT4-Rzut7
  6
CONTINUOUS
 62
     7
 10
294.1653
 20
244.349899999999990
 11
293.4485
 21
242.482699999999990
  0
TEXT
  8
PT4-Rzut7
  6
CONTINUOUS
 62
     7
 10
290.478999999999980
 20
246.403099999999990
 40
2.000000000000000
 50
339.000000000000000
  1
40
  0
LINE
  8
PT4-Rzut7
  6
CONTINUOUS
 62
     7
 10
293.8069
 20
243.416300000000010
 11
295.3987
 21
242.805200000000010
  0
LINE
  8
PT4-Rzut7
  6
CONTINUOUS
 62
     7
 10
292.8733
 20
243.774700000000000
 11
293.8069
 21
243.416300000000010
  0
LINE
  8
PT4-Rzut7
  6
CONTINUOUS
 62
     7
 10
296.3323
 20
242.446900000000000
 11
295.3987
 21
242.805200000000010
  0
LINE
  8
PT4-Rzut7
  6
CONTINUOUS
 62
     7
 10
294.4528
 20
243.703800000000000
 11
293.161
 21
243.128700000000010
  0
LINE
  8
PT4-Rzut7
  6
CONTINUOUS
 62
     7
 10
296.0446
 20
243.092800000000010
 11
294.7529
 21
242.517699999999990
  0
LINE
  8
PT4-Rzut7
  6
CONTINUOUS
 62
     7
 10
294.1653
 20
244.349899999999990
 11
293.4485
 21
242.482699999999990
  0
LINE
  8
PT4-Rzut7
  6
CONTINUOUS
 62
     7
 10
295.7571
 20
243.738800000000000
 11
295.0404
 21
241.871700000000000
  0
TEXT
  8
PT4-Rzut7
  6
CONTINUOUS
 62
     7
 10
294.459600000000020
 20
246.403099999999990
 40
2.000000000000000
 50
339.000000000000000
  1
17
  0
LINE
  8
PT4-Rzut7
  6
CONTINUOUS
 62
     7
 10
295.4267
 20
242.794400000000000
 11
298.2146
 21
241.700099999999990
  0
LINE
  8
PT4-Rzut7
  6
CONTINUOUS
 62
     7
 10
294.4958
 20
243.159699999999990
 11
295.4267
 21
242.794400000000000
  0
LINE
  8
PT4-Rzut7
  6
CONTINUOUS
 62
     7
 10
299.1454
 20
241.334800000000000
 11
298.2146
 21
241.700099999999990
  0
LINE
  8
PT4-Rzut7
  6
CONTINUOUS
 62
     7
 10
296.0747
 20
243.077100000000000
 11
294.7787
 21
242.511699999999990
  0
LINE
  8
PT4-Rzut7
  6
CONTINUOUS
 62
     7
 10
298.8626
 20
241.982900000000000
 11
297.5666
 21
241.417399999999990
  0
LINE
  8
PT4-Rzut7
  6
CONTINUOUS
 62
     7
 10
295.7921
 20
243.725200000000000
 11
295.0613
 21
241.863499999999990
  0
LINE
  8
PT4-Rzut7
  6
CONTINUOUS
 62
     7
 10
298.5799
 20
242.631000000000000
 11
297.8492
 21
240.769299999999990
  0
TEXT
  8
PT4-Rzut7
  6
CONTINUOUS
 62
     7
 10
297.031999999999980
 20
243.868100000000000
 40
2.000000000000000
 50
338.600000000000020
  1
30
  0
LINE
  8
PT4-Rzut7
  6
CONTINUOUS
 62
     7
 10
285.8904
 20
218.607300000000010
 11
286.0771
 21
218.535699999999990
  0
LINE
  8
PT4-Rzut7
  6
CONTINUOUS
 62
     7
 10
284.9568
 20
218.965700000000000
 11
285.8904
 21
218.607300000000010
  0
LINE
  8
PT4-Rzut7
  6
CONTINUOUS
 62
     7
 10
287.0106
 20
218.177300000000000
 11
286.0771
 21
218.535699999999990
  0
LINE
  8
PT4-Rzut7
  6
CONTINUOUS
 62
     7
 10
286.5362
 20
218.894900000000010
 11
285.2445
 21
218.319799999999990
  0
LINE
  8
PT4-Rzut7
  6
CONTINUOUS
 62
     7
 10
286.7229
 20
218.823199999999990
 11
285.4312
 21
218.248099999999990
  0
LINE
  8
PT4-Rzut7
  6
CONTINUOUS
 62
     7
 10
285.532
 20
217.673800000000000
 11
286.2487
 21
219.540899999999990
  0
LINE
  8
PT4-Rzut7
  6
CONTINUOUS
 62
     7
 10
285.7187
 20
217.602100000000010
 11
286.4354
 21
219.469300000000000
  0
TEXT
  8
PT4-Rzut7
  6
CONTINUOUS
 62
     7
 10
284.446500000000010
 20
221.206099999999990
 40
2.000000000000000
 50
339.000000000000000
  1
2
  0
LINE
  8
PT4-Rzut7
  6
CONTINUOUS
 62
     7
 10
286.0771
 20
218.535699999999990
 11
292.6121
 21
216.027099999999990
  0
LINE
  8
PT4-Rzut7
  6
CONTINUOUS
 62
     7
 10
285.1435
 20
218.894000000000010
 11
286.0771
 21
218.535699999999990
  0
LINE
  8
PT4-Rzut7
  6
CONTINUOUS
 62
     7
 10
293.5457
 20
215.668700000000000
 11
292.6121
 21
216.027099999999990
  0
LINE
  8
PT4-Rzut7
  6
CONTINUOUS
 62
     7
 10
286.7229
 20
218.823199999999990
 11
285.4312
 21
218.248099999999990
  0
LINE
  8
PT4-Rzut7
  6
CONTINUOUS
 62
     7
 10
293.258
 20
216.314700000000020
 11
291.9663
 21
215.739499999999990
  0
LINE
  8
PT4-Rzut7
  6
CONTINUOUS
 62
     7
 10
285.7187
 20
217.602100000000010
 11
286.4354
 21
219.469300000000000
  0
LINE
  8
PT4-Rzut7
  6
CONTINUOUS
 62
     7
 10
292.2538
 20
215.093500000000010
 11
292.9705
 21
216.960700000000000
  0
TEXT
  8
PT4-Rzut7
  6
CONTINUOUS
 62
     7
 10
288.468200000000020
 20
219.646600000000010
 40
2.000000000000000
 50
339.000000000000000
  1
70
  0
TEXT
  8
PT4-Rzut7
  6
CONTINUOUS
 62
     7
 10
278.558499999999980
 20
233.343600000000010
 40
2.000000000000000
 50
69.000000000000000
  1
1,08
  0
LINE
  8
PT4-Rzut7
  6
CONTINUOUS
 62
     7
 10
279.6672
 20
229.565400000000010
 11
283.5421
 21
239.660100000000000
  0
LINE
  8
PT4-Rzut7
  6
CONTINUOUS
 62
     7
 10
279.3088
 20
228.631800000000000
 11
279.6672
 21
229.565400000000010
  0
LINE
  8
PT4-Rzut7
  6
CONTINUOUS
 62
     7
 10
283.9005
 20
240.593600000000010
 11
283.5421
 21
239.660100000000000
  0
LINE
  8
PT4-Rzut7
  6
CONTINUOUS
 62
     7
 10
279.3796
 20
230.211199999999990
 11
279.9547
 21
228.919500000000000
  0
LINE
  8
PT4-Rzut7
  6
CONTINUOUS
 62
     7
 10
283.2546
 20
240.305900000000010
 11
283.8297
 21
239.014199999999990
  0
LINE
  8
PT4-Rzut7
  6
CONTINUOUS
 62
     7
 10
278.7336
 20
229.923700000000000
 11
280.6007
 21
229.206999999999990
  0
LINE
  8
PT4-Rzut7
  6
CONTINUOUS
 62
     7
 10
282.6086
 20
240.018399999999990
 11
284.4757
 21
239.301700000000010
  0
LINE
  8
PT4-Rzut7
  6
CONTINUOUS
 62
     7
 10
324.1482
 20
220.828900000000000
 11
324.292
 21
220.505900000000000
  0
LINE
  8
PT4-Rzut7
  6
CONTINUOUS
 62
     7
 10
324.615
 20
220.649700000000000
 11
323.646
 21
220.218300000000000
  0
LINE
  8
PT4-Rzut7
  6
CONTINUOUS
 62
     7
 10
324.9026
 20
220.003700000000010
 11
325.0066
 21
219.770000000000010
  0
LINE
  8
PT4-Rzut7
  6
CONTINUOUS
 62
     7
 10
325.1363
 20
220.107800000000000
 11
324.5796
 21
219.859900000000010
  0
LINE
  8
PT4-Rzut7
  6
CONTINUOUS
 62
     7
 10
325.0818
 20
220.470500000000020
 11
324.1128
 21
220.039099999999990
  0
LINE
  8
PT4-Rzut7
  6
CONTINUOUS
 62
     7
 10
323.6814
 20
221.008100000000010
 11
323.969
 21
220.362100000000000
  0
LINE
  8
PT4-Rzut7
  6
CONTINUOUS
 62
     7
 10
323.2146
 20
221.187299999999990
 11
323.646
 21
220.218300000000000
  0
LINE
  8
PT4-Rzut7
  6
CONTINUOUS
 62
     7
 10
322.8916
 20
221.043499999999990
 11
323.1792
 21
220.397500000000010
  0
LINE
  8
PT4-Rzut7
  6
CONTINUOUS
 62
     7
 10
325.1409
 20
227.459299999999980
 11
323.8291
 21
224.041799999999990
  0
LINE
  8
PT4-Rzut7
  6
CONTINUOUS
 62
     7
 10
324.3941
 20
227.746000000000010
 11
323.0822
 21
224.328499999999990
  0
LINE
  8
PT4-Rzut7
  6
CONTINUOUS
 62
     7
 10
320.5281
 20
227.022699999999990
 11
321.2666
 21
228.946599999999990
  0
LINE
  8
PT4-Rzut7
  6
CONTINUOUS
 62
     7
 10
322.2197
 20
220.198100000000010
 11
321.6148
 21
220.296400000000010
  0
LINE
  8
PT4-Rzut7
  6
CONTINUOUS
 62
     7
 10
320.3618
 20
226.031399999999990
 11
316.2405
 21
215.295199999999990
  0
LINE
  8
PT4-Rzut7
  6
CONTINUOUS
 62
     7
 10
319.5325
 20
215.081300000000000
 11
323.6251
 21
225.742700000000010
  0
LINE
  8
PT4-Rzut7
  6
CONTINUOUS
 62
     7
 10
320.2794
 20
214.794600000000000
 11
324.3719
 21
225.456099999999990
  0
LINE
  8
PT4-Rzut7
  6
CONTINUOUS
 62
     7
 10
321.3752
 20
213.324199999999990
 11
319.9418
 21
209.589900000000000
  0
LINE
  8
PT4-Rzut7
  6
CONTINUOUS
 62
     7
 10
314.8402
 20
215.832799999999990
 11
313.4067
 21
212.098400000000000
  0
LINE
  8
PT4-Rzut7
  6
CONTINUOUS
 62
     7
 10
319.5834
 20
208.656299999999990
 11
313.0483
 21
211.164899999999990
  0
LINE
  8
PT4-Rzut7
  6
CONTINUOUS
 62
     7
 10
320.4808
 20
209.383000000000010
 11
312.8677
 21
212.305299999999990
  0
LINE
  8
PT4-Rzut7
  6
CONTINUOUS
 62
     7
 10
321.3752
 20
213.324199999999990
 11
314.8402
 21
215.832799999999990
  0
LINE
  8
PT4-Rzut7
  6
CONTINUOUS
 62
     7
 10
321.055
 20
217.163999999999990
 11
320.4501
 21
217.262300000000010
  0
LINE
  8
PT4-Rzut7
  6
CONTINUOUS
 62
     7
 10
319.9125
 20
215.861899999999990
 11
320.4279
 21
215.530200000000010
  0
LINE
  8
PT4-Rzut7
  6
CONTINUOUS
 62
     7
 10
319.8229
 20
215.628500000000000
 11
320.3383
 21
215.296799999999990
  0
LINE
  8
PT4-Rzut7
  6
CONTINUOUS
 62
     7
 10
320.4279
 20
215.530200000000010
 11
319.8229
 21
215.628500000000000
  0
LINE
  8
PT4-Rzut7
  6
CONTINUOUS
 62
     7
 10
320.3383
 20
215.296799999999990
 11
319.7333
 21
215.395100000000010
  0
LINE
  8
PT4-Rzut7
  6
CONTINUOUS
 62
     7
 10
320.2487
 20
215.063400000000000
 11
319.6438
 21
215.161700000000000
  0
LINE
  8
PT4-Rzut7
  6
CONTINUOUS
 62
     7
 10
319.2926
 20
214.246800000000010
 11
319.7928
 21
213.931600000000000
  0
LINE
  8
PT4-Rzut7
  6
CONTINUOUS
 62
     7
 10
319.7333
 20
215.395100000000010
 11
320.2487
 21
215.063400000000000
  0
LINE
  8
PT4-Rzut7
  6
CONTINUOUS
 62
     7
 10
320.3605
 20
217.028899999999990
 11
320.8758
 21
216.697200000000010
  0
LINE
  8
PT4-Rzut7
  6
CONTINUOUS
 62
     7
 10
320.8758
 20
216.697200000000010
 11
320.2709
 21
216.795500000000000
  0
LINE
  8
PT4-Rzut7
  6
CONTINUOUS
 62
     7
 10
320.2709
 20
216.795500000000000
 11
320.7862
 21
216.463799999999990
  0
LINE
  8
PT4-Rzut7
  6
CONTINUOUS
 62
     7
 10
320.7862
 20
216.463799999999990
 11
320.1813
 21
216.562099999999990
  0
LINE
  8
PT4-Rzut7
  6
CONTINUOUS
 62
     7
 10
320.1813
 20
216.562099999999990
 11
320.6967
 21
216.230400000000000
  0
LINE
  8
PT4-Rzut7
  6
CONTINUOUS
 62
     7
 10
320.2709
 20
216.795500000000000
 11
320.7862
 21
216.463799999999990
  0
LINE
  8
PT4-Rzut7
  6
CONTINUOUS
 62
     7
 10
320.1813
 20
216.562099999999990
 11
320.6967
 21
216.230400000000000
  0
LINE
  8
PT4-Rzut7
  6
CONTINUOUS
 62
     7
 10
320.2709
 20
216.795500000000000
 11
320.7862
 21
216.463799999999990
  0
LINE
  8
PT4-Rzut7
  6
CONTINUOUS
 62
     7
 10
320.4501
 20
217.262300000000010
 11
320.9654
 21
216.930600000000000
  0
LINE
  8
PT4-Rzut7
  6
CONTINUOUS
 62
     7
 10
320.9654
 20
216.930600000000000
 11
320.3605
 21
217.028899999999990
  0
LINE
  8
PT4-Rzut7
  6
CONTINUOUS
 62
     7
 10
320.5175
 20
215.763600000000000
 11
319.9125
 21
215.861899999999990
  0
LINE
  8
PT4-Rzut7
  6
CONTINUOUS
 62
     7
 10
320.0917
 20
216.328700000000000
 11
320.6071
 21
215.997000000000010
  0
LINE
  8
PT4-Rzut7
  6
CONTINUOUS
 62
     7
 10
320.0021
 20
216.095300000000010
 11
320.5175
 21
215.763600000000000
  0
LINE
  8
PT4-Rzut7
  6
CONTINUOUS
 62
     7
 10
320.6071
 20
215.997000000000010
 11
320.0021
 21
216.095300000000010
  0
LINE
  8
PT4-Rzut7
  6
CONTINUOUS
 62
     7
 10
320.6967
 20
216.230400000000000
 11
320.0917
 21
216.328700000000000
  0
LINE
  8
PT4-Rzut7
  6
CONTINUOUS
 62
     7
 10
321.0772
 20
218.896099999999990
 11
321.5926
 21
218.564300000000000
  0
LINE
  8
PT4-Rzut7
  6
CONTINUOUS
 62
     7
 10
321.0772
 20
218.896099999999990
 11
321.5926
 21
218.564300000000000
  0
LINE
  8
PT4-Rzut7
  6
CONTINUOUS
 62
     7
 10
320.8084
 20
218.195899999999990
 11
321.3238
 21
217.864199999999980
  0
LINE
  8
PT4-Rzut7
  6
CONTINUOUS
 62
     7
 10
320.898
 20
218.429300000000010
 11
321.4134
 21
218.097600000000000
  0
LINE
  8
PT4-Rzut7
  6
CONTINUOUS
 62
     7
 10
321.4134
 20
218.097600000000000
 11
320.8084
 21
218.195899999999990
  0
LINE
  8
PT4-Rzut7
  6
CONTINUOUS
 62
     7
 10
320.9876
 20
218.662700000000000
 11
321.503
 21
218.330899999999990
  0
LINE
  8
PT4-Rzut7
  6
CONTINUOUS
 62
     7
 10
321.503
 20
218.330899999999990
 11
320.898
 21
218.429300000000010
  0
LINE
  8
PT4-Rzut7
  6
CONTINUOUS
 62
     7
 10
321.5926
 20
218.564300000000000
 11
320.9876
 21
218.662700000000000
  0
LINE
  8
PT4-Rzut7
  6
CONTINUOUS
 62
     7
 10
320.7189
 20
217.962500000000010
 11
321.2342
 21
217.630799999999990
  0
LINE
  8
PT4-Rzut7
  6
CONTINUOUS
 62
     7
 10
320.6293
 20
217.729100000000020
 11
321.1446
 21
217.397400000000000
  0
LINE
  8
PT4-Rzut7
  6
CONTINUOUS
 62
     7
 10
321.1446
 20
217.397400000000000
 11
320.5397
 21
217.495700000000000
  0
LINE
  8
PT4-Rzut7
  6
CONTINUOUS
 62
     7
 10
320.5397
 20
217.495700000000000
 11
321.055
 21
217.163999999999990
  0
LINE
  8
PT4-Rzut7
  6
CONTINUOUS
 62
     7
 10
320.7189
 20
217.962500000000010
 11
321.2342
 21
217.630799999999990
  0
LINE
  8
PT4-Rzut7
  6
CONTINUOUS
 62
     7
 10
320.6293
 20
217.729100000000020
 11
321.1446
 21
217.397400000000000
  0
LINE
  8
PT4-Rzut7
  6
CONTINUOUS
 62
     7
 10
321.2342
 20
217.630799999999990
 11
320.6293
 21
217.729100000000020
  0
LINE
  8
PT4-Rzut7
  6
CONTINUOUS
 62
     7
 10
321.3238
 20
217.864199999999980
 11
320.7189
 21
217.962500000000010
  0
LINE
  8
PT4-Rzut7
  6
CONTINUOUS
 62
     7
 10
321.4356
 20
219.829600000000000
 11
321.9509
 21
219.497900000000020
  0
LINE
  8
PT4-Rzut7
  6
CONTINUOUS
 62
     7
 10
321.9509
 20
219.497900000000020
 11
321.346
 21
219.596200000000010
  0
LINE
  8
PT4-Rzut7
  6
CONTINUOUS
 62
     7
 10
322.1301
 20
219.964699999999990
 11
321.5252
 21
220.062999999999990
  0
LINE
  8
PT4-Rzut7
  6
CONTINUOUS
 62
     7
 10
321.5252
 20
220.062999999999990
 11
322.0405
 21
219.731300000000000
  0
LINE
  8
PT4-Rzut7
  6
CONTINUOUS
 62
     7
 10
322.0405
 20
219.731300000000000
 11
321.4356
 21
219.829600000000000
  0
LINE
  8
PT4-Rzut7
  6
CONTINUOUS
 62
     7
 10
321.6148
 20
220.296400000000010
 11
322.1301
 21
219.964699999999990
  0
LINE
  8
PT4-Rzut7
  6
CONTINUOUS
 62
     7
 10
321.7718
 20
219.031100000000010
 11
321.1668
 21
219.129500000000010
  0
LINE
  8
PT4-Rzut7
  6
CONTINUOUS
 62
     7
 10
321.6822
 20
218.797699999999990
 11
321.0772
 21
218.896099999999990
  0
LINE
  8
PT4-Rzut7
  6
CONTINUOUS
 62
     7
 10
321.1668
 20
219.129500000000010
 11
321.6822
 21
218.797699999999990
  0
LINE
  8
PT4-Rzut7
  6
CONTINUOUS
 62
     7
 10
321.8614
 20
219.264500000000000
 11
321.2564
 21
219.362900000000000
  0
LINE
  8
PT4-Rzut7
  6
CONTINUOUS
 62
     7
 10
321.2564
 20
219.362900000000000
 11
321.7718
 21
219.031100000000010
  0
LINE
  8
PT4-Rzut7
  6
CONTINUOUS
 62
     7
 10
321.346
 20
219.596200000000010
 11
321.8614
 21
219.264500000000000
  0
LINE
  8
PT4-Rzut7
  6
CONTINUOUS
 62
     7
 10
320.1672
 20
225.664300000000000
 11
320.056
 21
225.653500000000010
  0
LINE
  8
PT4-Rzut7
  6
CONTINUOUS
 62
     7
 10
320.528
 20
227.022699999999990
 11
319.9546
 21
225.529000000000000
  0
LINE
  8
PT4-Rzut7
  6
CONTINUOUS
 62
     7
 10
323.8381
 20
226.716200000000010
 11
322.9852
 21
224.494200000000010
  0
LINE
  8
PT4-Rzut7
  6
CONTINUOUS
 62
     7
 10
320.1844
 20
225.569300000000000
 11
321.0373
 21
227.791300000000010
  0
LINE
  8
PT4-Rzut7
  6
CONTINUOUS
 62
     7
 10
323.757
 20
224.412199999999980
 11
323.3119
 21
224.368799999999990
  0
LINE
  8
PT4-Rzut7
  6
CONTINUOUS
 62
     7
 10
325.2507
 20
220.405700000000000
 11
322.6224
 21
221.414600000000010
  0
LINE
  8
PT4-Rzut7
  6
CONTINUOUS
 62
     7
 10
325.4298
 20
220.872500000000000
 11
324.9819
 21
219.705500000000000
  0
LINE
  8
PT4-Rzut7
  6
CONTINUOUS
 62
     7
 10
322.8691
 20
223.563999999999990
 11
323.3844
 21
223.232200000000010
  0
LINE
  8
PT4-Rzut7
  6
CONTINUOUS
 62
     7
 10
322.2419
 20
221.930200000000010
 11
322.7573
 21
221.598500000000000
  0
LINE
  8
PT4-Rzut7
  6
CONTINUOUS
 62
     7
 10
322.2419
 20
221.930200000000010
 11
322.7573
 21
221.598500000000000
  0
LINE
  8
PT4-Rzut7
  6
CONTINUOUS
 62
     7
 10
322.5781
 20
221.131700000000000
 11
321.9731
 21
221.229999999999990
  0
LINE
  8
PT4-Rzut7
  6
CONTINUOUS
 62
     7
 10
321.9731
 20
221.229999999999990
 11
322.4885
 21
220.898300000000010
  0
LINE
  8
PT4-Rzut7
  6
CONTINUOUS
 62
     7
 10
322.0627
 20
221.463400000000010
 11
322.5781
 21
221.131700000000000
  0
LINE
  8
PT4-Rzut7
  6
CONTINUOUS
 62
     7
 10
322.6677
 20
221.365099999999980
 11
322.0627
 21
221.463400000000010
  0
LINE
  8
PT4-Rzut7
  6
CONTINUOUS
 62
     7
 10
322.1523
 20
221.696800000000000
 11
322.6677
 21
221.365099999999980
  0
LINE
  8
PT4-Rzut7
  6
CONTINUOUS
 62
     7
 10
322.7573
 20
221.598500000000000
 11
322.1523
 21
221.696800000000000
  0
LINE
  8
PT4-Rzut7
  6
CONTINUOUS
 62
     7
 10
322.3989
 20
220.664899999999990
 11
321.794
 21
220.763199999999980
  0
LINE
  8
PT4-Rzut7
  6
CONTINUOUS
 62
     7
 10
321.794
 20
220.763199999999980
 11
322.3093
 21
220.431500000000000
  0
LINE
  8
PT4-Rzut7
  6
CONTINUOUS
 62
     7
 10
321.8836
 20
220.996600000000000
 11
322.3989
 21
220.664899999999990
  0
LINE
  8
PT4-Rzut7
  6
CONTINUOUS
 62
     7
 10
322.3093
 20
220.431500000000000
 11
321.7044
 21
220.529799999999990
  0
LINE
  8
PT4-Rzut7
  6
CONTINUOUS
 62
     7
 10
321.7044
 20
220.529799999999990
 11
322.2197
 21
220.198100000000010
  0
LINE
  8
PT4-Rzut7
  6
CONTINUOUS
 62
     7
 10
322.4885
 20
220.898300000000010
 11
321.8836
 21
220.996600000000000
  0
LINE
  8
PT4-Rzut7
  6
CONTINUOUS
 62
     7
 10
322.7795
 20
223.330600000000000
 11
323.2948
 21
222.998899999999990
  0
LINE
  8
PT4-Rzut7
  6
CONTINUOUS
 62
     7
 10
323.2948
 20
222.998899999999990
 11
322.6899
 21
223.097199999999990
  0
LINE
  8
PT4-Rzut7
  6
CONTINUOUS
 62
     7
 10
323.1156
 20
222.532100000000010
 11
322.5107
 21
222.630400000000010
  0
LINE
  8
PT4-Rzut7
  6
CONTINUOUS
 62
     7
 10
322.6003
 20
222.863800000000000
 11
323.1156
 21
222.532100000000010
  0
LINE
  8
PT4-Rzut7
  6
CONTINUOUS
 62
     7
 10
323.2052
 20
222.765500000000000
 11
322.6003
 21
222.863800000000000
  0
LINE
  8
PT4-Rzut7
  6
CONTINUOUS
 62
     7
 10
322.6899
 20
223.097199999999990
 11
323.2052
 21
222.765500000000000
  0
LINE
  8
PT4-Rzut7
  6
CONTINUOUS
 62
     7
 10
323.3844
 20
223.232200000000010
 11
322.7795
 21
223.330600000000000
  0
LINE
  8
PT4-Rzut7
  6
CONTINUOUS
 62
     7
 10
322.8469
 20
221.831899999999990
 11
322.2419
 21
221.930200000000010
  0
LINE
  8
PT4-Rzut7
  6
CONTINUOUS
 62
     7
 10
322.3315
 20
222.163600000000000
 11
322.8469
 21
221.831899999999990
  0
LINE
  8
PT4-Rzut7
  6
CONTINUOUS
 62
     7
 10
322.9365
 20
222.065300000000010
 11
322.3315
 21
222.163600000000000
  0
LINE
  8
PT4-Rzut7
  6
CONTINUOUS
 62
     7
 10
322.4211
 20
222.396999999999990
 11
322.9365
 21
222.065300000000010
  0
LINE
  8
PT4-Rzut7
  6
CONTINUOUS
 62
     7
 10
323.026
 20
222.298700000000000
 11
322.4211
 21
222.396999999999990
  0
LINE
  8
PT4-Rzut7
  6
CONTINUOUS
 62
     7
 10
322.5107
 20
222.630400000000010
 11
323.026
 21
222.298700000000000
  0
LINE
  8
PT4-Rzut7
  6
CONTINUOUS
 62
     7
 10
322.9063
 20
224.288800000000010
 11
310.7698
 21
228.947599999999990
  0
LINE
  8
PT4-Rzut7
  6
CONTINUOUS
 62
     7
 10
319.8189
 20
224.617099999999990
 11
310.4831
 21
228.200800000000020
  0
LINE
  8
PT4-Rzut7
  6
CONTINUOUS
 62
     7
 10
320.1414
 20
225.457300000000000
 11
310.8056
 21
229.041000000000000
  0
LINE
  8
PT4-Rzut7
  6
CONTINUOUS
 62
     7
 10
323.1378
 20
224.264099999999980
 11
323.6532
 21
223.932400000000000
  0
LINE
  8
PT4-Rzut7
  6
CONTINUOUS
 62
     7
 10
323.5636
 20
223.699000000000010
 11
322.9587
 21
223.797400000000010
  0
LINE
  8
PT4-Rzut7
  6
CONTINUOUS
 62
     7
 10
323.0482
 20
224.030800000000000
 11
323.5636
 21
223.699000000000010
  0
LINE
  8
PT4-Rzut7
  6
CONTINUOUS
 62
     7
 10
323.474
 20
223.465599999999990
 11
322.8691
 21
223.563999999999990
  0
LINE
  8
PT4-Rzut7
  6
CONTINUOUS
 62
     7
 10
322.9587
 20
223.797400000000010
 11
323.474
 21
223.465599999999990
  0
LINE
  8
PT4-Rzut7
  6
CONTINUOUS
 62
     7
 10
323.6532
 20
223.932400000000000
 11
323.0482
 21
224.030800000000000
  0
LINE
  8
PT4-Rzut7
  6
CONTINUOUS
 62
     7
 10
321.6739
 20
224.869000000000000
 11
320.1414
 21
225.457300000000000
  0
LINE
  8
PT4-Rzut7
  6
CONTINUOUS
 62
     7
 10
322.9852
 20
224.494200000000010
 11
320.1844
 21
225.569300000000000
  0
LINE
  8
PT4-Rzut7
  6
CONTINUOUS
 62
     7
 10
320.6082
 20
225.278099999999990
 11
320.5724
 21
225.184800000000000
  0
LINE
  8
PT4-Rzut7
  6
CONTINUOUS
 62
     7
 10
321.5418
 20
224.919800000000010
 11
321.5059
 21
224.826400000000010
  0
LINE
  8
PT4-Rzut7
  6
CONTINUOUS
 62
     7
 10
321.075
 20
225.098900000000010
 11
321.0392
 21
225.005600000000020
  0
LINE
  8
PT4-Rzut7
  6
CONTINUOUS
 62
     7
 10
322.4754
 20
224.561399999999990
 11
322.4395
 21
224.468000000000020
  0
LINE
  8
PT4-Rzut7
  6
CONTINUOUS
 62
     7
 10
322.9421
 20
224.382200000000010
 11
322.9063
 21
224.288800000000010
  0
LINE
  8
PT4-Rzut7
  6
CONTINUOUS
 62
     7
 10
322.0086
 20
224.740600000000000
 11
321.9727
 21
224.647200000000000
  0
LINE
  8
PT4-Rzut7
  6
CONTINUOUS
 62
     7
 10
322.0086
 20
224.740600000000000
 11
321.9727
 21
224.647200000000000
  0
LINE
  8
PT4-Rzut7
  6
CONTINUOUS
 62
     7
 10
323.1325
 20
224.250200000000010
 11
323.6478
 21
223.918499999999990
  0
LINE
  8
PT4-Rzut7
  6
CONTINUOUS
 62
     7
 10
323.9224
 20
224.005900000000000
 11
321.6739
 21
224.869000000000000
  0
LINE
  8
PT4-Rzut7
  6
CONTINUOUS
 62
     7
 10
317.3407
 20
226.532400000000000
 11
317.3048
 21
226.439100000000000
  0
LINE
  8
PT4-Rzut7
  6
CONTINUOUS
 62
     7
 10
316.8739
 20
226.711600000000000
 11
316.838
 21
226.618200000000000
  0
LINE
  8
PT4-Rzut7
  6
CONTINUOUS
 62
     7
 10
318.2742
 20
226.174000000000010
 11
318.2384
 21
226.080700000000010
  0
LINE
  8
PT4-Rzut7
  6
CONTINUOUS
 62
     7
 10
319.2078
 20
225.815699999999990
 11
319.172
 21
225.722299999999990
  0
LINE
  8
PT4-Rzut7
  6
CONTINUOUS
 62
     7
 10
318.741
 20
225.994900000000000
 11
318.7052
 21
225.901500000000000
  0
LINE
  8
PT4-Rzut7
  6
CONTINUOUS
 62
     7
 10
319.6746
 20
225.636500000000010
 11
319.6388
 21
225.543100000000010
  0
LINE
  8
PT4-Rzut7
  6
CONTINUOUS
 62
     7
 10
317.8075
 20
226.353200000000020
 11
317.7716
 21
226.259900000000020
  0
LINE
  8
PT4-Rzut7
  6
CONTINUOUS
 62
     7
 10
320.1314
 20
225.571000000000000
 11
320.0201
 21
225.560100000000010
  0
LINE
  8
PT4-Rzut7
  6
CONTINUOUS
 62
     7
 10
320.056
 20
225.653500000000010
 11
320.1314
 21
225.571000000000000
  0
LINE
  8
PT4-Rzut7
  6
CONTINUOUS
 62
     7
 10
320.0201
 20
225.560100000000010
 11
320.0956
 21
225.477600000000000
  0
LINE
  8
PT4-Rzut7
  6
CONTINUOUS
 62
     7
 10
320.1414
 20
225.457300000000000
 11
320.1056
 21
225.364000000000000
  0
LINE
  8
PT4-Rzut7
  6
CONTINUOUS
 62
     7
 10
320.1844
 20
225.569400000000000
 11
320.1413
 21
225.457300000000000
  0
LINE
  8
PT4-Rzut7
  6
CONTINUOUS
 62
     7
 10
314.0731
 20
227.786700000000000
 11
314.0373
 21
227.693299999999990
  0
LINE
  8
PT4-Rzut7
  6
CONTINUOUS
 62
     7
 10
315.9403
 20
227.069999999999990
 11
315.9045
 21
226.976599999999990
  0
LINE
  8
PT4-Rzut7
  6
CONTINUOUS
 62
     7
 10
315.4735
 20
227.249100000000000
 11
315.4377
 21
227.155800000000000
  0
LINE
  8
PT4-Rzut7
  6
CONTINUOUS
 62
     7
 10
315.0067
 20
227.428300000000010
 11
314.9709
 21
227.335000000000010
  0
LINE
  8
PT4-Rzut7
  6
CONTINUOUS
 62
     7
 10
314.5399
 20
227.607500000000020
 11
314.5041
 21
227.514200000000020
  0
LINE
  8
PT4-Rzut7
  6
CONTINUOUS
 62
     7
 10
313.6063
 20
227.965900000000000
 11
313.5705
 21
227.872500000000000
  0
LINE
  8
PT4-Rzut7
  6
CONTINUOUS
 62
     7
 10
316.4071
 20
226.890800000000010
 11
316.3712
 21
226.797400000000010
  0
LINE
  8
PT4-Rzut7
  6
CONTINUOUS
 62
     7
 10
310.8056
 20
229.041000000000000
 11
310.7698
 21
228.947599999999990
  0
LINE
  8
PT4-Rzut7
  6
CONTINUOUS
 62
     7
 10
311.2724
 20
228.861800000000020
 11
311.2366
 21
228.768399999999990
  0
LINE
  8
PT4-Rzut7
  6
CONTINUOUS
 62
     7
 10
311.7392
 20
228.682600000000010
 11
311.7033
 21
228.589300000000010
  0
LINE
  8
PT4-Rzut7
  6
CONTINUOUS
 62
     7
 10
312.206
 20
228.503400000000000
 11
312.1701
 21
228.410100000000000
  0
LINE
  8
PT4-Rzut7
  6
CONTINUOUS
 62
     7
 10
312.6728
 20
228.324299999999990
 11
312.6369
 21
228.230899999999990
  0
LINE
  8
PT4-Rzut7
  6
CONTINUOUS
 62
     7
 10
313.1396
 20
228.145100000000010
 11
313.1037
 21
228.051699999999980
  0
LINE
  8
PT4-Rzut7
  6
CONTINUOUS
 62
     7
 10
324.9038
 20
227.399599999999990
 11
324.4587
 21
227.356300000000000
  0
LINE
  8
PT4-Rzut7
  6
CONTINUOUS
 62
     7
 10
321.4533
 20
228.874900000000000
 11
321.0803
 21
227.903300000000000
  0
LINE
  8
PT4-Rzut7
  6
CONTINUOUS
 62
     7
 10
324.254
 20
227.799800000000000
 11
323.8811
 21
226.828200000000010
  0
LINE
  8
PT4-Rzut7
  6
CONTINUOUS
 62
     7
 10
320.313
 20
226.462600000000010
 11
311.164
 21
229.974600000000010
  0
LINE
  8
PT4-Rzut7
  6
CONTINUOUS
 62
     7
 10
320.4922
 20
226.929399999999990
 11
311.3432
 21
230.441399999999990
  0
LINE
  8
PT4-Rzut7
  6
CONTINUOUS
 62
     7
 10
320.528
 20
227.022699999999990
 11
311.379
 21
230.534699999999990
  0
LINE
  8
PT4-Rzut7
  6
CONTINUOUS
 62
     7
 10
317.0569
 20
226.909100000000000
 11
317.0027
 21
227.465499999999990
  0
LINE
  8
PT4-Rzut7
  6
CONTINUOUS
 62
     7
 10
324.3304
 20
225.905900000000000
 11
323.8853
 21
225.862500000000010
  0
LINE
  8
PT4-Rzut7
  6
CONTINUOUS
 62
     7
 10
323.8853
 20
225.862500000000010
 11
324.1871
 21
225.532500000000000
  0
LINE
  8
PT4-Rzut7
  6
CONTINUOUS
 62
     7
 10
324.1871
 20
225.532500000000000
 11
323.7419
 21
225.489100000000010
  0
LINE
  8
PT4-Rzut7
  6
CONTINUOUS
 62
     7
 10
324.0437
 20
225.158999999999990
 11
323.5986
 21
225.115700000000000
  0
LINE
  8
PT4-Rzut7
  6
CONTINUOUS
 62
     7
 10
323.7419
 20
225.489100000000010
 11
324.0437
 21
225.158999999999990
  0
LINE
  8
PT4-Rzut7
  6
CONTINUOUS
 62
     7
 10
323.4553
 20
224.742200000000000
 11
323.757
 21
224.412199999999980
  0
LINE
  8
PT4-Rzut7
  6
CONTINUOUS
 62
     7
 10
323.9004
 20
224.785599999999990
 11
323.4553
 21
224.742200000000000
  0
LINE
  8
PT4-Rzut7
  6
CONTINUOUS
 62
     7
 10
323.5986
 20
225.115700000000000
 11
323.9004
 21
224.785599999999990
  0
LINE
  8
PT4-Rzut7
  6
CONTINUOUS
 62
     7
 10
320.486
 20
226.773799999999990
 11
320.5615
 21
226.691300000000010
  0
LINE
  8
PT4-Rzut7
  6
CONTINUOUS
 62
     7
 10
320.5256
 20
226.597900000000010
 11
320.4143
 21
226.587099999999990
  0
LINE
  8
PT4-Rzut7
  6
CONTINUOUS
 62
     7
 10
320.4143
 20
226.587099999999990
 11
320.4898
 21
226.504500000000010
  0
LINE
  8
PT4-Rzut7
  6
CONTINUOUS
 62
     7
 10
320.4898
 20
226.504500000000010
 11
320.3785
 21
226.493699999999990
  0
LINE
  8
PT4-Rzut7
  6
CONTINUOUS
 62
     7
 10
320.5615
 20
226.691300000000010
 11
320.4502
 21
226.680399999999990
  0
LINE
  8
PT4-Rzut7
  6
CONTINUOUS
 62
     7
 10
320.4502
 20
226.680399999999990
 11
320.5256
 21
226.597900000000010
  0
LINE
  8
PT4-Rzut7
  6
CONTINUOUS
 62
     7
 10
320.4539
 20
226.411200000000010
 11
320.3427
 21
226.400300000000020
  0
LINE
  8
PT4-Rzut7
  6
CONTINUOUS
 62
     7
 10
320.3785
 20
226.493699999999990
 11
320.4539
 21
226.411200000000010
  0
LINE
  8
PT4-Rzut7
  6
CONTINUOUS
 62
     7
 10
320.5577
 20
226.960500000000000
 11
320.6331
 21
226.877999999999990
  0
LINE
  8
PT4-Rzut7
  6
CONTINUOUS
 62
     7
 10
320.6633
 20
226.970800000000000
 11
320.5577
 21
226.960500000000000
  0
LINE
  8
PT4-Rzut7
  6
CONTINUOUS
 62
     7
 10
320.5218
 20
226.867099999999990
 11
320.5973
 21
226.784600000000010
  0
LINE
  8
PT4-Rzut7
  6
CONTINUOUS
 62
     7
 10
320.6331
 20
226.877999999999990
 11
320.5218
 21
226.867099999999990
  0
LINE
  8
PT4-Rzut7
  6
CONTINUOUS
 62
     7
 10
320.5973
 20
226.784600000000010
 11
320.486
 21
226.773799999999990
  0
LINE
  8
PT4-Rzut7
  6
CONTINUOUS
 62
     7
 10
320.528
 20
227.022699999999990
 11
320.7147
 21
226.951100000000000
  0
LINE
  8
PT4-Rzut7
  6
CONTINUOUS
 62
     7
 10
317.4695
 20
227.286299999999980
 11
317.0569
 21
226.909100000000000
  0
LINE
  8
PT4-Rzut7
  6
CONTINUOUS
 62
     7
 10
317.9363
 20
227.107100000000000
 11
317.5237
 21
226.729899999999990
  0
LINE
  8
PT4-Rzut7
  6
CONTINUOUS
 62
     7
 10
317.5237
 20
226.729899999999990
 11
317.4695
 21
227.286299999999980
  0
LINE
  8
PT4-Rzut7
  6
CONTINUOUS
 62
     7
 10
318.403
 20
226.928000000000000
 11
317.9905
 21
226.550800000000010
  0
LINE
  8
PT4-Rzut7
  6
CONTINUOUS
 62
     7
 10
317.9905
 20
226.550800000000010
 11
317.9363
 21
227.107100000000000
  0
LINE
  8
PT4-Rzut7
  6
CONTINUOUS
 62
     7
 10
318.4573
 20
226.371600000000000
 11
318.403
 21
226.928000000000000
  0
LINE
  8
PT4-Rzut7
  6
CONTINUOUS
 62
     7
 10
319.3366
 20
226.569600000000010
 11
318.924
 21
226.192399999999990
  0
LINE
  8
PT4-Rzut7
  6
CONTINUOUS
 62
     7
 10
318.8698
 20
226.748800000000020
 11
318.4573
 21
226.371600000000000
  0
LINE
  8
PT4-Rzut7
  6
CONTINUOUS
 62
     7
 10
318.924
 20
226.192399999999990
 11
318.8698
 21
226.748800000000020
  0
LINE
  8
PT4-Rzut7
  6
CONTINUOUS
 62
     7
 10
319.8576
 20
225.834000000000000
 11
319.8034
 21
226.390400000000000
  0
LINE
  8
PT4-Rzut7
  6
CONTINUOUS
 62
     7
 10
319.8034
 20
226.390400000000000
 11
319.3908
 21
226.013199999999980
  0
LINE
  8
PT4-Rzut7
  6
CONTINUOUS
 62
     7
 10
319.3908
 20
226.013199999999980
 11
319.3366
 21
226.569600000000010
  0
LINE
  8
PT4-Rzut7
  6
CONTINUOUS
 62
     7
 10
320.271
 20
226.213599999999990
 11
320.3464
 21
226.131100000000000
  0
LINE
  8
PT4-Rzut7
  6
CONTINUOUS
 62
     7
 10
320.3464
 20
226.131100000000000
 11
320.2352
 21
226.120299999999990
  0
LINE
  8
PT4-Rzut7
  6
CONTINUOUS
 62
     7
 10
320.2352
 20
226.120299999999990
 11
320.3106
 21
226.037800000000000
  0
LINE
  8
PT4-Rzut7
  6
CONTINUOUS
 62
     7
 10
320.3823
 20
226.224500000000010
 11
320.271
 21
226.213599999999990
  0
LINE
  8
PT4-Rzut7
  6
CONTINUOUS
 62
     7
 10
320.3068
 20
226.307000000000020
 11
320.3823
 21
226.224500000000010
  0
LINE
  8
PT4-Rzut7
  6
CONTINUOUS
 62
     7
 10
320.4181
 20
226.317800000000010
 11
320.3068
 21
226.307000000000020
  0
LINE
  8
PT4-Rzut7
  6
CONTINUOUS
 62
     7
 10
320.0918
 20
225.746800000000010
 11
320.1672
 21
225.664300000000000
  0
LINE
  8
PT4-Rzut7
  6
CONTINUOUS
 62
     7
 10
320.2748
 20
225.944400000000000
 11
320.1635
 21
225.933600000000010
  0
LINE
  8
PT4-Rzut7
  6
CONTINUOUS
 62
     7
 10
320.1993
 20
226.026900000000010
 11
320.2748
 21
225.944400000000000
  0
LINE
  8
PT4-Rzut7
  6
CONTINUOUS
 62
     7
 10
320.2389
 20
225.851000000000000
 11
320.1276
 21
225.840200000000010
  0
LINE
  8
PT4-Rzut7
  6
CONTINUOUS
 62
     7
 10
320.1276
 20
225.840200000000010
 11
320.2031
 21
225.757700000000000
  0
LINE
  8
PT4-Rzut7
  6
CONTINUOUS
 62
     7
 10
320.2031
 20
225.757700000000000
 11
320.0918
 21
225.746800000000010
  0
LINE
  8
PT4-Rzut7
  6
CONTINUOUS
 62
     7
 10
320.1635
 20
225.933600000000010
 11
320.2389
 21
225.851000000000000
  0
LINE
  8
PT4-Rzut7
  6
CONTINUOUS
 62
     7
 10
320.3106
 20
226.037800000000000
 11
320.1993
 21
226.026900000000010
  0
LINE
  8
PT4-Rzut7
  6
CONTINUOUS
 62
     7
 10
320.1875
 20
226.135600000000010
 11
319.8576
 21
225.834000000000000
  0
LINE
  8
PT4-Rzut7
  6
CONTINUOUS
 62
     7
 10
320.3427
 20
226.400300000000020
 11
320.4181
 21
226.317800000000010
  0
LINE
  8
PT4-Rzut7
  6
CONTINUOUS
 62
     7
 10
323.8811
 20
226.828200000000010
 11
321.0803
 21
227.903300000000000
  0
LINE
  8
PT4-Rzut7
  6
CONTINUOUS
 62
     7
 10
323.8381
 20
226.716200000000010
 11
321.0373
 21
227.791300000000010
  0
LINE
  8
PT4-Rzut7
  6
CONTINUOUS
 62
     7
 10
324.4587
 20
227.356300000000000
 11
324.7604
 21
227.026200000000020
  0
LINE
  8
PT4-Rzut7
  6
CONTINUOUS
 62
     7
 10
324.7604
 20
227.026200000000020
 11
324.3153
 21
226.982800000000000
  0
LINE
  8
PT4-Rzut7
  6
CONTINUOUS
 62
     7
 10
324.4737
 20
226.279300000000010
 11
324.0286
 21
226.235999999999990
  0
LINE
  8
PT4-Rzut7
  6
CONTINUOUS
 62
     7
 10
324.172
 20
226.609399999999990
 11
324.4737
 21
226.279300000000010
  0
LINE
  8
PT4-Rzut7
  6
CONTINUOUS
 62
     7
 10
324.6171
 20
226.652800000000010
 11
324.172
 21
226.609399999999990
  0
LINE
  8
PT4-Rzut7
  6
CONTINUOUS
 62
     7
 10
324.3153
 20
226.982800000000000
 11
324.6171
 21
226.652800000000010
  0
LINE
  8
PT4-Rzut7
  6
CONTINUOUS
 62
     7
 10
324.0286
 20
226.235999999999990
 11
324.3304
 21
225.905900000000000
  0
LINE
  8
PT4-Rzut7
  6
CONTINUOUS
 62
     7
 10
313.7351
 20
228.719799999999990
 11
313.3226
 21
228.342600000000000
  0
LINE
  8
PT4-Rzut7
  6
CONTINUOUS
 62
     7
 10
315.6565
 20
227.446699999999990
 11
315.6023
 21
228.003100000000020
  0
LINE
  8
PT4-Rzut7
  6
CONTINUOUS
 62
     7
 10
316.1233
 20
227.267499999999980
 11
316.0691
 21
227.823900000000010
  0
LINE
  8
PT4-Rzut7
  6
CONTINUOUS
 62
     7
 10
316.0691
 20
227.823900000000010
 11
315.6565
 21
227.446699999999990
  0
LINE
  8
PT4-Rzut7
  6
CONTINUOUS
 62
     7
 10
316.5359
 20
227.644700000000000
 11
316.1233
 21
227.267499999999980
  0
LINE
  8
PT4-Rzut7
  6
CONTINUOUS
 62
     7
 10
313.7894
 20
228.163400000000000
 11
313.7351
 21
228.719799999999990
  0
LINE
  8
PT4-Rzut7
  6
CONTINUOUS
 62
     7
 10
314.2561
 20
227.984199999999990
 11
314.2019
 21
228.540599999999980
  0
LINE
  8
PT4-Rzut7
  6
CONTINUOUS
 62
     7
 10
315.6023
 20
228.003100000000020
 11
315.1897
 21
227.625900000000000
  0
LINE
  8
PT4-Rzut7
  6
CONTINUOUS
 62
     7
 10
315.1897
 20
227.625900000000000
 11
315.1355
 21
228.182300000000000
  0
LINE
  8
PT4-Rzut7
  6
CONTINUOUS
 62
     7
 10
314.6687
 20
228.361400000000000
 11
314.2561
 21
227.984199999999990
  0
LINE
  8
PT4-Rzut7
  6
CONTINUOUS
 62
     7
 10
314.7229
 20
227.805100000000010
 11
314.6687
 21
228.361400000000000
  0
LINE
  8
PT4-Rzut7
  6
CONTINUOUS
 62
     7
 10
315.1355
 20
228.182300000000000
 11
314.7229
 21
227.805100000000010
  0
LINE
  8
PT4-Rzut7
  6
CONTINUOUS
 62
     7
 10
314.2019
 20
228.540599999999980
 11
313.7894
 21
228.163400000000000
  0
LINE
  8
PT4-Rzut7
  6
CONTINUOUS
 62
     7
 10
317.0027
 20
227.465499999999990
 11
316.5901
 21
227.088300000000000
  0
LINE
  8
PT4-Rzut7
  6
CONTINUOUS
 62
     7
 10
316.5901
 20
227.088300000000000
 11
316.5359
 21
227.644700000000000
  0
LINE
  8
PT4-Rzut7
  6
CONTINUOUS
 62
     7
 10
311.4012
 20
229.615700000000000
 11
310.9886
 21
229.238499999999990
  0
LINE
  8
PT4-Rzut7
  6
CONTINUOUS
 62
     7
 10
311.9222
 20
228.880200000000000
 11
311.868
 21
229.436500000000000
  0
LINE
  8
PT4-Rzut7
  6
CONTINUOUS
 62
     7
 10
311.868
 20
229.436500000000000
 11
311.4554
 21
229.059300000000010
  0
LINE
  8
PT4-Rzut7
  6
CONTINUOUS
 62
     7
 10
311.4554
 20
229.059300000000010
 11
311.4012
 21
229.615700000000000
  0
LINE
  8
PT4-Rzut7
  6
CONTINUOUS
 62
     7
 10
310.9886
 20
229.238499999999990
 11
310.9669
 21
229.461199999999990
  0
LINE
  8
PT4-Rzut7
  6
CONTINUOUS
 62
     7
 10
312.389
 20
228.700999999999990
 11
312.3348
 21
229.257399999999990
  0
LINE
  8
PT4-Rzut7
  6
CONTINUOUS
 62
     7
 10
312.8016
 20
229.078200000000010
 11
312.389
 21
228.700999999999990
  0
LINE
  8
PT4-Rzut7
  6
CONTINUOUS
 62
     7
 10
312.3348
 20
229.257399999999990
 11
311.9222
 21
228.880200000000000
  0
LINE
  8
PT4-Rzut7
  6
CONTINUOUS
 62
     7
 10
313.2684
 20
228.899000000000000
 11
312.8558
 21
228.521799999999980
  0
LINE
  8
PT4-Rzut7
  6
CONTINUOUS
 62
     7
 10
313.3226
 20
228.342600000000000
 11
313.2684
 21
228.899000000000000
  0
LINE
  8
PT4-Rzut7
  6
CONTINUOUS
 62
     7
 10
312.8558
 20
228.521799999999980
 11
312.8016
 21
229.078200000000010
  0
LINE
  8
PT4-Rzut7
  6
CONTINUOUS
 62
     7
 10
324.6914
 20
227.631900000000000
 11
324.9038
 21
227.399599999999990
  0
LINE
  8
PT4-Rzut7
  6
CONTINUOUS
 62
     7
 10
311.5092
 20
230.865500000000000
 11
309.5031
 21
225.292399999999990
  0
LINE
  8
PT4-Rzut7
  6
CONTINUOUS
 62
     7
 10
320.4808
 20
209.383000000000010
 11
319.5834
 21
208.656299999999990
  0
LINE
  8
PT4-Rzut7
  6
CONTINUOUS
 62
     7
 10
313.0483
 20
211.164899999999990
 11
312.8677
 21
212.305299999999990
  0
LINE
  8
PT4-Rzut7
  6
CONTINUOUS
 62
     7
 10
325.6495
 20
227.264099999999980
 11
320.6366
 21
229.188400000000000
  0
LINE
  8
PT4-Rzut7
  6
CONTINUOUS
 62
     7
 10
320.0215
 20
213.843799999999990
 11
323.9224
 21
224.005900000000000
  0
LINE
  8
PT4-Rzut7
  6
CONTINUOUS
 62
     7
 10
319.9282
 20
213.879700000000010
 11
324.3361
 21
225.362699999999990
  0
LINE
  8
PT4-Rzut7
  6
CONTINUOUS
 62
     7
 10
320.5949
 20
215.337500000000010
 11
320.5016
 21
215.373400000000000
  0
LINE
  8
PT4-Rzut7
  6
CONTINUOUS
 62
     7
 10
320.0645
 20
213.955800000000010
 11
319.9712
 21
213.991700000000010
  0
LINE
  8
PT4-Rzut7
  6
CONTINUOUS
 62
     7
 10
320.9533
 20
216.271099999999990
 11
320.8599
 21
216.307000000000020
  0
LINE
  8
PT4-Rzut7
  6
CONTINUOUS
 62
     7
 10
321.1325
 20
216.737900000000000
 11
321.0391
 21
216.773799999999990
  0
LINE
  8
PT4-Rzut7
  6
CONTINUOUS
 62
     7
 10
320.7741
 20
215.804300000000010
 11
320.6808
 21
215.840200000000010
  0
LINE
  8
PT4-Rzut7
  6
CONTINUOUS
 62
     7
 10
321.67
 20
218.138300000000020
 11
321.5767
 21
218.174100000000010
  0
LINE
  8
PT4-Rzut7
  6
CONTINUOUS
 62
     7
 10
321.3117
 20
217.204700000000000
 11
321.2183
 21
217.240500000000000
  0
LINE
  8
PT4-Rzut7
  6
CONTINUOUS
 62
     7
 10
321.4909
 20
217.671500000000010
 11
321.3975
 21
217.707300000000000
  0
LINE
  8
PT4-Rzut7
  6
CONTINUOUS
 62
     7
 10
322.3868
 20
220.005400000000010
 11
322.2934
 21
220.041300000000010
  0
LINE
  8
PT4-Rzut7
  6
CONTINUOUS
 62
     7
 10
322.2076
 20
219.538700000000010
 11
322.1142
 21
219.574500000000000
  0
LINE
  8
PT4-Rzut7
  6
CONTINUOUS
 62
     7
 10
321.8492
 20
218.605099999999990
 11
321.7559
 21
218.640899999999990
  0
LINE
  8
PT4-Rzut7
  6
CONTINUOUS
 62
     7
 10
322.0284
 20
219.071900000000000
 11
321.935
 21
219.107699999999990
  0
LINE
  8
PT4-Rzut7
  6
CONTINUOUS
 62
     7
 10
322.9243
 20
221.405800000000000
 11
322.831
 21
221.441700000000000
  0
LINE
  8
PT4-Rzut7
  6
CONTINUOUS
 62
     7
 10
322.7451
 20
220.938999999999990
 11
322.6518
 21
220.974899999999990
  0
LINE
  8
PT4-Rzut7
  6
CONTINUOUS
 62
     7
 10
322.566
 20
220.472199999999990
 11
322.4726
 21
220.508100000000010
  0
LINE
  8
PT4-Rzut7
  6
CONTINUOUS
 62
     7
 10
323.4619
 20
222.806199999999990
 11
323.3685
 21
222.841999999999980
  0
LINE
  8
PT4-Rzut7
  6
CONTINUOUS
 62
     7
 10
323.2827
 20
222.339400000000010
 11
323.1893
 21
222.375200000000010
  0
LINE
  8
PT4-Rzut7
  6
CONTINUOUS
 62
     7
 10
323.1035
 20
221.872600000000010
 11
323.0101
 21
221.908400000000000
  0
LINE
  8
PT4-Rzut7
  6
CONTINUOUS
 62
     7
 10
323.8202
 20
223.739800000000000
 11
323.7269
 21
223.775600000000000
  0
LINE
  8
PT4-Rzut7
  6
CONTINUOUS
 62
     7
 10
323.6411
 20
223.273000000000000
 11
323.5477
 21
223.308799999999990
  0
LINE
  8
PT4-Rzut7
  6
CONTINUOUS
 62
     7
 10
323.8291
 20
224.041799999999990
 11
323.7932
 21
223.948399999999990
  0
LINE
  8
PT4-Rzut7
  6
CONTINUOUS
 62
     7
 10
319.6272
 20
215.176999999999990
 11
320.1425
 21
214.845300000000010
  0
LINE
  8
PT4-Rzut7
  6
CONTINUOUS
 62
     7
 10
319.5376
 20
214.943600000000000
 11
320.0529
 21
214.611899999999990
  0
LINE
  8
PT4-Rzut7
  6
CONTINUOUS
 62
     7
 10
320.1591
 20
214.829999999999980
 11
319.5542
 21
214.928300000000010
  0
LINE
  8
PT4-Rzut7
  6
CONTINUOUS
 62
     7
 10
319.448
 20
214.710199999999990
 11
319.9633
 21
214.378500000000000
  0
LINE
  8
PT4-Rzut7
  6
CONTINUOUS
 62
     7
 10
320.0695
 20
214.596600000000000
 11
319.4646
 21
214.694999999999990
  0
LINE
  8
PT4-Rzut7
  6
CONTINUOUS
 62
     7
 10
319.3584
 20
214.476800000000000
 11
319.8738
 21
214.145100000000010
  0
LINE
  8
PT4-Rzut7
  6
CONTINUOUS
 62
     7
 10
319.9799
 20
214.363200000000010
 11
319.375
 21
214.461600000000000
  0
LINE
  8
PT4-Rzut7
  6
CONTINUOUS
 62
     7
 10
319.2688
 20
214.243400000000010
 11
319.7842
 21
213.911700000000000
  0
LINE
  8
PT4-Rzut7
  6
CONTINUOUS
 62
     7
 10
319.8903
 20
214.129799999999990
 11
319.2854
 21
214.228200000000020
  0
LINE
  8
PT4-Rzut7
  6
CONTINUOUS
 62
     7
 10
322.8687
 20
224.190699999999990
 11
320.0679
 21
225.265800000000010
  0
LINE
  8
PT4-Rzut7
  6
CONTINUOUS
 62
     7
 10
322.8687
 20
224.190699999999990
 11
322.3311
 21
222.790400000000010
  0
LINE
  8
PT4-Rzut7
  6
CONTINUOUS
 62
     7
 10
319.5304
 20
223.865500000000000
 11
320.0679
 21
225.265800000000010
  0
LINE
  8
PT4-Rzut7
  6
CONTINUOUS
 62
     7
 10
322.3311
 20
222.790400000000010
 11
319.5304
 21
223.865500000000000
  0
LINE
  8
PT4-Rzut7
  6
CONTINUOUS
 62
     7
 10
322.2881
 20
222.678300000000010
 11
321.7505
 21
221.277999999999990
  0
LINE
  8
PT4-Rzut7
  6
CONTINUOUS
 62
     7
 10
322.2881
 20
222.678300000000010
 11
319.4874
 21
223.753400000000000
  0
LINE
  8
PT4-Rzut7
  6
CONTINUOUS
 62
     7
 10
321.7505
 20
221.277999999999990
 11
318.9498
 21
222.353099999999980
  0
LINE
  8
PT4-Rzut7
  6
CONTINUOUS
 62
     7
 10
318.9498
 20
222.353099999999980
 11
319.4874
 21
223.753400000000000
  0
LINE
  8
PT4-Rzut7
  6
CONTINUOUS
 62
     7
 10
321.7075
 20
221.165899999999990
 11
321.17
 21
219.765600000000010
  0
LINE
  8
PT4-Rzut7
  6
CONTINUOUS
 62
     7
 10
321.7075
 20
221.165899999999990
 11
318.9068
 21
222.240999999999990
  0
LINE
  8
PT4-Rzut7
  6
CONTINUOUS
 62
     7
 10
321.17
 20
219.765600000000010
 11
318.3692
 21
220.840700000000000
  0
LINE
  8
PT4-Rzut7
  6
CONTINUOUS
 62
     7
 10
318.3692
 20
220.840700000000000
 11
318.9068
 21
222.240999999999990
  0
LINE
  8
PT4-Rzut7
  6
CONTINUOUS
 62
     7
 10
321.127
 20
219.653500000000010
 11
320.5894
 21
218.253199999999990
  0
LINE
  8
PT4-Rzut7
  6
CONTINUOUS
 62
     7
 10
321.127
 20
219.653500000000010
 11
318.3262
 21
220.728600000000000
  0
LINE
  8
PT4-Rzut7
  6
CONTINUOUS
 62
     7
 10
320.5894
 20
218.253199999999990
 11
317.7887
 21
219.328300000000010
  0
LINE
  8
PT4-Rzut7
  6
CONTINUOUS
 62
     7
 10
317.7887
 20
219.328300000000010
 11
318.3262
 21
220.728600000000000
  0
LINE
  8
PT4-Rzut7
  6
CONTINUOUS
 62
     7
 10
320.5464
 20
218.141099999999990
 11
320.0089
 21
216.740800000000010
  0
LINE
  8
PT4-Rzut7
  6
CONTINUOUS
 62
     7
 10
320.5464
 20
218.141099999999990
 11
317.7457
 21
219.216200000000010
  0
LINE
  8
PT4-Rzut7
  6
CONTINUOUS
 62
     7
 10
320.0089
 20
216.740800000000010
 11
317.2081
 21
217.815900000000000
  0
LINE
  8
PT4-Rzut7
  6
CONTINUOUS
 62
     7
 10
317.2081
 20
217.815900000000000
 11
317.7457
 21
219.216200000000010
  0
LINE
  8
PT4-Rzut7
  6
CONTINUOUS
 62
     7
 10
319.9659
 20
216.628700000000010
 11
319.4283
 21
215.228399999999990
  0
LINE
  8
PT4-Rzut7
  6
CONTINUOUS
 62
     7
 10
319.9659
 20
216.628700000000010
 11
317.1651
 21
217.703800000000000
  0
LINE
  8
PT4-Rzut7
  6
CONTINUOUS
 62
     7
 10
319.4283
 20
215.228399999999990
 11
316.6276
 21
216.303499999999990
  0
LINE
  8
PT4-Rzut7
  6
CONTINUOUS
 62
     7
 10
316.6276
 20
216.303499999999990
 11
317.1651
 21
217.703800000000000
  0
LINE
  8
PT4-Rzut7
  6
CONTINUOUS
 62
     7
 10
319.3853
 20
215.116300000000000
 11
319.0413
 21
214.220100000000000
  0
LINE
  8
PT4-Rzut7
  6
CONTINUOUS
 62
     7
 10
319.3853
 20
215.116300000000000
 11
316.5846
 21
216.191399999999990
  0
LINE
  8
PT4-Rzut7
  6
CONTINUOUS
 62
     7
 10
316.2405
 20
215.295199999999990
 11
316.5846
 21
216.191399999999990
  0
LINE
  8
PT4-Rzut7
  6
CONTINUOUS
 62
     7
 10
320.9518
 20
213.058300000000000
 11
319.805
 21
210.070799999999990
  0
LINE
  8
PT4-Rzut7
  6
CONTINUOUS
 62
     7
 10
320.8943
 20
213.187500000000000
 11
315.1061
 21
215.409300000000000
  0
LINE
  8
PT4-Rzut7
  6
CONTINUOUS
 62
     7
 10
314.9769
 20
215.351800000000000
 11
313.8301
 21
212.364399999999990
  0
LINE
  8
PT4-Rzut7
  6
CONTINUOUS
 62
     7
 10
319.6758
 20
210.013300000000020
 11
313.8876
 21
212.235199999999990
  0
LINE
  8
PT4-Rzut7
  6
CONTINUOUS
 62
     7
 10
320.8974
 20
213.002000000000010
 11
320.454
 21
212.904799999999990
  0
LINE
  8
PT4-Rzut7
  6
CONTINUOUS
 62
     7
 10
320.7843
 20
213.161200000000010
 11
320.5108
 21
212.800600000000000
  0
CIRCLE
  8
PT4-Rzut7
  6
CONTINUOUS
 62
     7
 10
320.858499999999990
 20
213.094100000000000
 40
0.100000000000000
  0
CIRCLE
  8
PT4-Rzut7
  6
CONTINUOUS
 62
     7
 10
319.711700000000010
 20
210.106600000000010
 40
0.100000000000000
  0
CIRCLE
  8
PT4-Rzut7
  6
CONTINUOUS
 62
     7
 10
315.070299999999970
 20
215.316000000000000
 40
0.100000000000000
  0
CIRCLE
  8
PT4-Rzut7
  6
CONTINUOUS
 62
     7
 10
313.923499999999990
 20
212.328499999999990
 40
0.100000000000000
  0
ARC
  8
PT4-Rzut7
  6
CONTINUOUS
 62
     7
 10
321.704500000000000
 20
220.390700000000010
 40
0.125000000000000
 50
69.000000000000000
 51
249.000000000000000
  0
ARC
  8
PT4-Rzut7
  6
CONTINUOUS
 62
     7
 10
322.174899999999980
 20
220.081400000000000
 40
0.125000000000000
 50
249.000000000000000
 51
69.000000000000000
  0
ARC
  8
PT4-Rzut7
  6
CONTINUOUS
 62
     7
 10
320.539800000000010
 20
217.356600000000010
 40
0.125000000000000
 50
69.000000000000000
 51
249.000000000000000
  0
ARC
  8
PT4-Rzut7
  6
CONTINUOUS
 62
     7
 10
321.010200000000000
 20
217.047300000000010
 40
0.125000000000000
 50
249.000000000000000
 51
69.000000000000000
  0
ARC
  8
PT4-Rzut7
  6
CONTINUOUS
 62
     7
 10
319.912699999999970
 20
215.722800000000010
 40
0.125000000000000
 50
69.000000000000000
 51
249.000000000000000
  0
ARC
  8
PT4-Rzut7
  6
CONTINUOUS
 62
     7
 10
320.383100000000010
 20
215.413500000000000
 40
0.125000000000000
 50
339.000000000000000
 51
69.000000000000000
  0
ARC
  8
PT4-Rzut7
  6
CONTINUOUS
 62
     7
 10
320.472699999999970
 20
215.646900000000020
 40
0.125000000000000
 50
249.000000000000000
 51
339.000000000000000
  0
ARC
  8
PT4-Rzut7
  6
CONTINUOUS
 62
     7
 10
319.823100000000010
 20
215.489399999999990
 40
0.125000000000000
 50
69.000000000000000
 51
249.000000000000000
  0
ARC
  8
PT4-Rzut7
  6
CONTINUOUS
 62
     7
 10
319.269099999999980
 20
214.162600000000000
 40
0.087400000000000
 50
74.413499999999999
 51
177.644299999999930
  0
ARC
  8
PT4-Rzut7
  6
CONTINUOUS
 62
     7
 10
319.733499999999990
 20
215.256000000000000
 40
0.125000000000000
 50
69.000000000000000
 51
249.000000000000000
  0
ARC
  8
PT4-Rzut7
  6
CONTINUOUS
 62
     7
 10
320.383100000000010
 20
215.413500000000000
 40
0.125000000000000
 50
249.000000000000000
 51
339.000000000000000
  0
ARC
  8
PT4-Rzut7
  6
CONTINUOUS
 62
     7
 10
320.203899999999980
 20
214.946699999999990
 40
0.125000000000000
 50
272.073899999999980
 51
69.000000000000000
  0
ARC
  8
PT4-Rzut7
  6
CONTINUOUS
 62
     7
 10
320.293499999999990
 20
215.180100000000010
 40
0.125000000000000
 50
249.000000000000000
 51
69.000000000000000
  0
ARC
  8
PT4-Rzut7
  6
CONTINUOUS
 62
     7
 10
320.360700000000010
 20
216.889800000000010
 40
0.125000000000000
 50
69.000000000000000
 51
249.000000000000000
  0
ARC
  8
PT4-Rzut7
  6
CONTINUOUS
 62
     7
 10
320.271099999999990
 20
216.656399999999990
 40
0.125000000000000
 50
69.000000000000000
 51
249.000000000000000
  0
ARC
  8
PT4-Rzut7
  6
CONTINUOUS
 62
     7
 10
320.450200000000000
 20
217.123200000000000
 40
0.125000000000000
 50
69.000000000000000
 51
249.000000000000000
  0
ARC
  8
PT4-Rzut7
  6
CONTINUOUS
 62
     7
 10
320.091900000000010
 20
216.189599999999980
 40
0.125000000000000
 50
69.000000000000000
 51
249.000000000000000
  0
ARC
  8
PT4-Rzut7
  6
CONTINUOUS
 62
     7
 10
320.002299999999990
 20
215.956200000000000
 40
0.125000000000000
 50
69.000000000000000
 51
249.000000000000000
  0
ARC
  8
PT4-Rzut7
  6
CONTINUOUS
 62
     7
 10
320.181500000000030
 20
216.423000000000000
 40
0.125000000000000
 50
69.000000000000000
 51
249.000000000000000
  0
ARC
  8
PT4-Rzut7
  6
CONTINUOUS
 62
     7
 10
320.472699999999970
 20
215.646900000000020
 40
0.125000000000000
 50
339.000000000000000
 51
69.000000000000000
  0
ARC
  8
PT4-Rzut7
  6
CONTINUOUS
 62
     7
 10
320.920599999999980
 20
216.813899999999990
 40
0.125000000000000
 50
249.000000000000000
 51
339.000000000000000
  0
ARC
  8
PT4-Rzut7
  6
CONTINUOUS
 62
     7
 10
320.831000000000020
 20
216.580500000000000
 40
0.125000000000000
 50
339.000000000000000
 51
69.000000000000000
  0
ARC
  8
PT4-Rzut7
  6
CONTINUOUS
 62
     7
 10
320.831000000000020
 20
216.580500000000000
 40
0.125000000000000
 50
249.000000000000000
 51
339.000000000000000
  0
ARC
  8
PT4-Rzut7
  6
CONTINUOUS
 62
     7
 10
320.920599999999980
 20
216.813899999999990
 40
0.125000000000000
 50
339.000000000000000
 51
69.000000000000000
  0
ARC
  8
PT4-Rzut7
  6
CONTINUOUS
 62
     7
 10
320.831000000000020
 20
216.580500000000000
 40
0.125000000000000
 50
249.000000000000000
 51
339.000000000000000
  0
ARC
  8
PT4-Rzut7
  6
CONTINUOUS
 62
     7
 10
320.741499999999970
 20
216.347100000000010
 40
0.125000000000000
 50
339.000000000000000
 51
69.000000000000000
  0
ARC
  8
PT4-Rzut7
  6
CONTINUOUS
 62
     7
 10
320.741499999999970
 20
216.347100000000010
 40
0.125000000000000
 50
249.000000000000000
 51
339.000000000000000
  0
ARC
  8
PT4-Rzut7
  6
CONTINUOUS
 62
     7
 10
320.651900000000010
 20
216.113699999999990
 40
0.125000000000000
 50
249.000000000000000
 51
69.000000000000000
  0
ARC
  8
PT4-Rzut7
  6
CONTINUOUS
 62
     7
 10
320.562299999999990
 20
215.880300000000010
 40
0.125000000000000
 50
249.000000000000000
 51
69.000000000000000
  0
ARC
  8
PT4-Rzut7
  6
CONTINUOUS
 62
     7
 10
320.741499999999970
 20
216.347100000000010
 40
0.125000000000000
 50
249.000000000000000
 51
339.000000000000000
  0
ARC
  8
PT4-Rzut7
  6
CONTINUOUS
 62
     7
 10
320.831000000000020
 20
216.580500000000000
 40
0.125000000000000
 50
249.000000000000000
 51
339.000000000000000
  0
ARC
  8
PT4-Rzut7
  6
CONTINUOUS
 62
     7
 10
321.077400000000010
 20
218.757000000000010
 40
0.125000000000000
 50
69.000000000000000
 51
249.000000000000000
  0
ARC
  8
PT4-Rzut7
  6
CONTINUOUS
 62
     7
 10
321.637400000000010
 20
218.680999999999980
 40
0.125000000000000
 50
249.000000000000000
 51
339.000000000000000
  0
ARC
  8
PT4-Rzut7
  6
CONTINUOUS
 62
     7
 10
321.637400000000010
 20
218.680999999999980
 40
0.125000000000000
 50
249.000000000000000
 51
339.000000000000000
  0
ARC
  8
PT4-Rzut7
  6
CONTINUOUS
 62
     7
 10
320.898199999999970
 20
218.290200000000000
 40
0.125000000000000
 50
69.000000000000000
 51
249.000000000000000
  0
ARC
  8
PT4-Rzut7
  6
CONTINUOUS
 62
     7
 10
320.987799999999990
 20
218.523599999999990
 40
0.125000000000000
 50
69.000000000000000
 51
249.000000000000000
  0
ARC
  8
PT4-Rzut7
  6
CONTINUOUS
 62
     7
 10
321.368600000000010
 20
217.980899999999990
 40
0.125000000000000
 50
249.000000000000000
 51
339.000000000000000
  0
ARC
  8
PT4-Rzut7
  6
CONTINUOUS
 62
     7
 10
321.368600000000010
 20
217.980899999999990
 40
0.125000000000000
 50
339.000000000000000
 51
69.000000000000000
  0
ARC
  8
PT4-Rzut7
  6
CONTINUOUS
 62
     7
 10
321.458199999999980
 20
218.214300000000010
 40
0.125000000000000
 50
249.000000000000000
 51
69.000000000000000
  0
ARC
  8
PT4-Rzut7
  6
CONTINUOUS
 62
     7
 10
321.547800000000000
 20
218.447599999999990
 40
0.125000000000000
 50
249.000000000000000
 51
69.000000000000000
  0
ARC
  8
PT4-Rzut7
  6
CONTINUOUS
 62
     7
 10
320.629399999999980
 20
217.590000000000000
 40
0.125000000000000
 50
69.000000000000000
 51
249.000000000000000
  0
ARC
  8
PT4-Rzut7
  6
CONTINUOUS
 62
     7
 10
320.718999999999990
 20
217.823399999999990
 40
0.125000000000000
 50
69.000000000000000
 51
249.000000000000000
  0
ARC
  8
PT4-Rzut7
  6
CONTINUOUS
 62
     7
 10
321.279000000000000
 20
217.747500000000000
 40
0.125000000000000
 50
249.000000000000000
 51
339.000000000000000
  0
ARC
  8
PT4-Rzut7
  6
CONTINUOUS
 62
     7
 10
321.189399999999980
 20
217.514099999999980
 40
0.125000000000000
 50
249.000000000000000
 51
339.000000000000000
  0
ARC
  8
PT4-Rzut7
  6
CONTINUOUS
 62
     7
 10
321.099800000000020
 20
217.280700000000000
 40
0.125000000000000
 50
249.000000000000000
 51
69.000000000000000
  0
ARC
  8
PT4-Rzut7
  6
CONTINUOUS
 62
     7
 10
321.189399999999980
 20
217.514099999999980
 40
0.125000000000000
 50
249.000000000000000
 51
339.000000000000000
  0
ARC
  8
PT4-Rzut7
  6
CONTINUOUS
 62
     7
 10
321.189399999999980
 20
217.514099999999980
 40
0.125000000000000
 50
339.000000000000000
 51
69.000000000000000
  0
ARC
  8
PT4-Rzut7
  6
CONTINUOUS
 62
     7
 10
321.279000000000000
 20
217.747500000000000
 40
0.125000000000000
 50
249.000000000000000
 51
339.000000000000000
  0
ARC
  8
PT4-Rzut7
  6
CONTINUOUS
 62
     7
 10
321.279000000000000
 20
217.747500000000000
 40
0.125000000000000
 50
339.000000000000000
 51
69.000000000000000
  0
ARC
  8
PT4-Rzut7
  6
CONTINUOUS
 62
     7
 10
320.808600000000010
 20
218.056800000000010
 40
0.125000000000000
 50
69.000000000000000
 51
249.000000000000000
  0
ARC
  8
PT4-Rzut7
  6
CONTINUOUS
 62
     7
 10
321.435799999999970
 20
219.690600000000020
 40
0.125000000000000
 50
69.000000000000000
 51
249.000000000000000
  0
ARC
  8
PT4-Rzut7
  6
CONTINUOUS
 62
     7
 10
321.614899999999980
 20
220.157299999999990
 40
0.125000000000000
 50
69.000000000000000
 51
249.000000000000000
  0
ARC
  8
PT4-Rzut7
  6
CONTINUOUS
 62
     7
 10
321.525399999999990
 20
219.924000000000010
 40
0.125000000000000
 50
69.000000000000000
 51
249.000000000000000
  0
ARC
  8
PT4-Rzut7
  6
CONTINUOUS
 62
     7
 10
321.256599999999990
 20
219.223799999999980
 40
0.125000000000000
 50
69.000000000000000
 51
249.000000000000000
  0
ARC
  8
PT4-Rzut7
  6
CONTINUOUS
 62
     7
 10
321.166999999999970
 20
218.990399999999990
 40
0.125000000000000
 50
69.000000000000000
 51
249.000000000000000
  0
ARC
  8
PT4-Rzut7
  6
CONTINUOUS
 62
     7
 10
321.346200000000010
 20
219.457200000000000
 40
0.125000000000000
 50
69.000000000000000
 51
249.000000000000000
  0
ARC
  8
PT4-Rzut7
  6
CONTINUOUS
 62
     7
 10
322.085300000000020
 20
219.848000000000010
 40
0.125000000000000
 50
339.000000000000000
 51
69.000000000000000
  0
ARC
  8
PT4-Rzut7
  6
CONTINUOUS
 62
     7
 10
321.995700000000000
 20
219.614600000000000
 40
0.125000000000000
 50
249.000000000000000
 51
339.000000000000000
  0
ARC
  8
PT4-Rzut7
  6
CONTINUOUS
 62
     7
 10
321.995700000000000
 20
219.614600000000000
 40
0.125000000000000
 50
339.000000000000000
 51
69.000000000000000
  0
ARC
  8
PT4-Rzut7
  6
CONTINUOUS
 62
     7
 10
322.085300000000020
 20
219.848000000000010
 40
0.125000000000000
 50
249.000000000000000
 51
339.000000000000000
  0
ARC
  8
PT4-Rzut7
  6
CONTINUOUS
 62
     7
 10
321.816599999999990
 20
219.147799999999990
 40
0.125000000000000
 50
249.000000000000000
 51
69.000000000000000
  0
ARC
  8
PT4-Rzut7
  6
CONTINUOUS
 62
     7
 10
321.726999999999980
 20
218.914400000000000
 40
0.125000000000000
 50
249.000000000000000
 51
339.000000000000000
  0
ARC
  8
PT4-Rzut7
  6
CONTINUOUS
 62
     7
 10
321.637400000000010
 20
218.680999999999980
 40
0.125000000000000
 50
339.000000000000000
 51
69.000000000000000
  0
ARC
  8
PT4-Rzut7
  6
CONTINUOUS
 62
     7
 10
321.726999999999980
 20
218.914400000000000
 40
0.125000000000000
 50
339.000000000000000
 51
69.000000000000000
  0
ARC
  8
PT4-Rzut7
  6
CONTINUOUS
 62
     7
 10
321.906099999999980
 20
219.381200000000010
 40
0.125000000000000
 50
249.000000000000000
 51
69.000000000000000
  0
ARC
  8
PT4-Rzut7
  6
CONTINUOUS
 62
     7
 10
311.688800000000010
 20
228.969699999999990
 40
0.250000000000000
 50
249.000000000000000
 51
339.000000000000000
  0
ARC
  8
PT4-Rzut7
  6
CONTINUOUS
 62
     7
 10
311.688800000000010
 20
228.969699999999990
 40
0.250000000000000
 50
159.000000000000000
 51
249.000000000000000
  0
ARC
  8
PT4-Rzut7
  6
CONTINUOUS
 62
     7
 10
311.221999999999980
 20
229.148900000000000
 40
0.250000000000000
 50
159.000000000000000
 51
339.000000000000000
  0
ARC
  8
PT4-Rzut7
  6
CONTINUOUS
 62
     7
 10
310.755200000000000
 20
229.328100000000010
 40
0.250000000000000
 50
285.851600000000020
 51
339.000000000000000
  0
ARC
  8
PT4-Rzut7
  6
CONTINUOUS
 62
     7
 10
312.155599999999990
 20
228.790599999999980
 40
0.250000000000000
 50
159.000000000000000
 51
339.000000000000000
  0
ARC
  8
PT4-Rzut7
  6
CONTINUOUS
 62
     7
 10
315.423099999999980
 20
227.536299999999980
 40
0.250000000000000
 50
159.000000000000000
 51
339.000000000000000
  0
ARC
  8
PT4-Rzut7
  6
CONTINUOUS
 62
     7
 10
315.889900000000010
 20
227.357100000000000
 40
0.250000000000000
 50
249.000000000000000
 51
339.000000000000000
  0
ARC
  8
PT4-Rzut7
  6
CONTINUOUS
 62
     7
 10
315.889900000000010
 20
227.357100000000000
 40
0.250000000000000
 50
159.000000000000000
 51
249.000000000000000
  0
ARC
  8
PT4-Rzut7
  6
CONTINUOUS
 62
     7
 10
313.089200000000010
 20
228.432199999999990
 40
0.250000000000000
 50
159.000000000000000
 51
249.000000000000000
  0
ARC
  8
PT4-Rzut7
  6
CONTINUOUS
 62
     7
 10
313.555999999999980
 20
228.252999999999990
 40
0.250000000000000
 50
159.000000000000000
 51
339.000000000000000
  0
ARC
  8
PT4-Rzut7
  6
CONTINUOUS
 62
     7
 10
313.089200000000010
 20
228.432199999999990
 40
0.250000000000000
 50
249.000000000000000
 51
339.000000000000000
  0
ARC
  8
PT4-Rzut7
  6
CONTINUOUS
 62
     7
 10
314.489500000000020
 20
227.894600000000000
 40
0.250000000000000
 50
159.000000000000000
 51
249.000000000000000
  0
ARC
  8
PT4-Rzut7
  6
CONTINUOUS
 62
     7
 10
314.489500000000020
 20
227.894600000000000
 40
0.250000000000000
 50
249.000000000000000
 51
339.000000000000000
  0
ARC
  8
PT4-Rzut7
  6
CONTINUOUS
 62
     7
 10
314.956300000000000
 20
227.715499999999990
 40
0.250000000000000
 50
159.000000000000000
 51
339.000000000000000
  0
ARC
  8
PT4-Rzut7
  6
CONTINUOUS
 62
     7
 10
314.022699999999990
 20
228.073800000000010
 40
0.250000000000000
 50
159.000000000000000
 51
339.000000000000000
  0
ARC
  8
PT4-Rzut7
  6
CONTINUOUS
 62
     7
 10
312.622400000000030
 20
228.611400000000000
 40
0.250000000000000
 50
159.000000000000000
 51
339.000000000000000
  0
ARC
  8
PT4-Rzut7
  6
CONTINUOUS
 62
     7
 10
316.823500000000020
 20
226.998699999999990
 40
0.250000000000000
 50
159.000000000000000
 51
339.000000000000000
  0
ARC
  8
PT4-Rzut7
  6
CONTINUOUS
 62
     7
 10
317.290300000000000
 20
226.819500000000010
 40
0.250000000000000
 50
159.000000000000000
 51
249.000000000000000
  0
ARC
  8
PT4-Rzut7
  6
CONTINUOUS
 62
     7
 10
318.223900000000010
 20
226.461199999999990
 40
0.250000000000000
 50
159.000000000000000
 51
339.000000000000000
  0
ARC
  8
PT4-Rzut7
  6
CONTINUOUS
 62
     7
 10
317.757099999999980
 20
226.640400000000000
 40
0.250000000000000
 50
159.000000000000000
 51
339.000000000000000
  0
ARC
  8
PT4-Rzut7
  6
CONTINUOUS
 62
     7
 10
317.290300000000000
 20
226.819500000000010
 40
0.250000000000000
 50
249.000000000000000
 51
339.000000000000000
  0
ARC
  8
PT4-Rzut7
  6
CONTINUOUS
 62
     7
 10
318.690699999999990
 20
226.281999999999980
 40
0.250000000000000
 50
159.000000000000000
 51
249.000000000000000
  0
ARC
  8
PT4-Rzut7
  6
CONTINUOUS
 62
     7
 10
318.690699999999990
 20
226.281999999999980
 40
0.250000000000000
 50
249.000000000000000
 51
339.000000000000000
  0
ARC
  8
PT4-Rzut7
  6
CONTINUOUS
 62
     7
 10
319.624199999999970
 20
225.923599999999990
 40
0.250000000000000
 50
159.000000000000000
 51
339.000000000000000
  0
ARC
  8
PT4-Rzut7
  6
CONTINUOUS
 62
     7
 10
319.157400000000000
 20
226.102800000000000
 40
0.250000000000000
 50
159.000000000000000
 51
339.000000000000000
  0
ARC
  8
PT4-Rzut7
  6
CONTINUOUS
 62
     7
 10
320.149299999999980
 20
225.617600000000010
 40
0.050000000000000
 50
339.000000000000000
 51
69.000000000000000
  0
ARC
  8
PT4-Rzut7
  6
CONTINUOUS
 62
     7
 10
320.073899999999980
 20
225.700200000000000
 40
0.050000000000000
 50
69.000000000000000
 51
249.000000000000000
  0
ARC
  8
PT4-Rzut7
  6
CONTINUOUS
 62
     7
 10
323.383600000000000
 20
224.555499999999990
 40
0.200000000000000
 50
69.000000000000000
 51
249.000000000000000
  0
ARC
  8
PT4-Rzut7
  6
CONTINUOUS
 62
     7
 10
320.091000000000010
 20
225.744399999999980
 40
0.250000000000000
 50
159.000000000000000
 51
237.433200000000000
  0
ARC
  8
PT4-Rzut7
  6
CONTINUOUS
 62
     7
 10
316.356699999999990
 20
227.177899999999990
 40
0.250000000000000
 50
159.000000000000000
 51
339.000000000000000
  0
ARC
  8
PT4-Rzut7
  6
CONTINUOUS
 62
     7
 10
323.685299999999980
 20
224.225500000000010
 40
0.200000000000000
 50
302.130099999999970
 51
69.000000000000000
  0
ARC
  8
PT4-Rzut7
  6
CONTINUOUS
 62
     7
 10
322.869199999999980
 20
223.424900000000010
 40
0.125000000000000
 50
69.000000000000000
 51
249.000000000000000
  0
ARC
  8
PT4-Rzut7
  6
CONTINUOUS
 62
     7
 10
323.429199999999980
 20
223.348900000000010
 40
0.125000000000000
 50
249.000000000000000
 51
339.000000000000000
  0
ARC
  8
PT4-Rzut7
  6
CONTINUOUS
 62
     7
 10
322.242099999999990
 20
221.791100000000000
 40
0.125000000000000
 50
69.000000000000000
 51
249.000000000000000
  0
ARC
  8
PT4-Rzut7
  6
CONTINUOUS
 62
     7
 10
322.802100000000000
 20
221.715200000000010
 40
0.125000000000000
 50
249.000000000000000
 51
69.000000000000000
  0
ARC
  8
PT4-Rzut7
  6
CONTINUOUS
 62
     7
 10
322.802100000000000
 20
221.715200000000010
 40
0.125000000000000
 50
249.000000000000000
 51
339.000000000000000
  0
ARC
  8
PT4-Rzut7
  6
CONTINUOUS
 62
     7
 10
322.062900000000010
 20
221.324299999999990
 40
0.125000000000000
 50
69.000000000000000
 51
249.000000000000000
  0
ARC
  8
PT4-Rzut7
  6
CONTINUOUS
 62
     7
 10
322.152499999999970
 20
221.557700000000010
 40
0.125000000000000
 50
69.000000000000000
 51
249.000000000000000
  0
ARC
  8
PT4-Rzut7
  6
CONTINUOUS
 62
     7
 10
321.883699999999980
 20
220.857500000000020
 40
0.125000000000000
 50
69.000000000000000
 51
249.000000000000000
  0
ARC
  8
PT4-Rzut7
  6
CONTINUOUS
 62
     7
 10
321.794100000000010
 20
220.624100000000000
 40
0.125000000000000
 50
69.000000000000000
 51
249.000000000000000
  0
ARC
  8
PT4-Rzut7
  6
CONTINUOUS
 62
     7
 10
321.973299999999990
 20
221.090900000000000
 40
0.125000000000000
 50
69.000000000000000
 51
249.000000000000000
  0
ARC
  8
PT4-Rzut7
  6
CONTINUOUS
 62
     7
 10
322.533300000000000
 20
221.014999999999990
 40
0.125000000000000
 50
249.000000000000000
 51
69.000000000000000
  0
ARC
  8
PT4-Rzut7
  6
CONTINUOUS
 62
     7
 10
322.443699999999980
 20
220.781600000000000
 40
0.125000000000000
 50
249.000000000000000
 51
339.000000000000000
  0
ARC
  8
PT4-Rzut7
  6
CONTINUOUS
 62
     7
 10
322.354100000000020
 20
220.548200000000010
 40
0.125000000000000
 50
339.000000000000000
 51
69.000000000000000
  0
ARC
  8
PT4-Rzut7
  6
CONTINUOUS
 62
     7
 10
322.354100000000020
 20
220.548200000000010
 40
0.125000000000000
 50
249.000000000000000
 51
339.000000000000000
  0
ARC
  8
PT4-Rzut7
  6
CONTINUOUS
 62
     7
 10
322.443699999999980
 20
220.781600000000000
 40
0.125000000000000
 50
339.000000000000000
 51
69.000000000000000
  0
ARC
  8
PT4-Rzut7
  6
CONTINUOUS
 62
     7
 10
322.622900000000020
 20
221.248400000000000
 40
0.125000000000000
 50
249.000000000000000
 51
69.000000000000000
  0
ARC
  8
PT4-Rzut7
  6
CONTINUOUS
 62
     7
 10
322.712499999999980
 20
221.481799999999990
 40
0.125000000000000
 50
249.000000000000000
 51
339.000000000000000
  0
ARC
  8
PT4-Rzut7
  6
CONTINUOUS
 62
     7
 10
322.712499999999980
 20
221.481799999999990
 40
0.125000000000000
 50
339.000000000000000
 51
69.000000000000000
  0
ARC
  8
PT4-Rzut7
  6
CONTINUOUS
 62
     7
 10
322.264500000000000
 20
220.314799999999990
 40
0.125000000000000
 50
249.000000000000000
 51
69.000000000000000
  0
ARC
  8
PT4-Rzut7
  6
CONTINUOUS
 62
     7
 10
322.779600000000020
 20
223.191499999999990
 40
0.125000000000000
 50
69.000000000000000
 51
249.000000000000000
  0
ARC
  8
PT4-Rzut7
  6
CONTINUOUS
 62
     7
 10
322.600500000000010
 20
222.724699999999980
 40
0.125000000000000
 50
69.000000000000000
 51
249.000000000000000
  0
ARC
  8
PT4-Rzut7
  6
CONTINUOUS
 62
     7
 10
322.690000000000000
 20
222.958100000000000
 40
0.125000000000000
 50
69.000000000000000
 51
249.000000000000000
  0
ARC
  8
PT4-Rzut7
  6
CONTINUOUS
 62
     7
 10
322.331700000000010
 20
222.024499999999990
 40
0.125000000000000
 50
69.000000000000000
 51
249.000000000000000
  0
ARC
  8
PT4-Rzut7
  6
CONTINUOUS
 62
     7
 10
322.421299999999970
 20
222.257900000000010
 40
0.125000000000000
 50
69.000000000000000
 51
249.000000000000000
  0
ARC
  8
PT4-Rzut7
  6
CONTINUOUS
 62
     7
 10
322.510899999999990
 20
222.491300000000000
 40
0.125000000000000
 50
69.000000000000000
 51
249.000000000000000
  0
ARC
  8
PT4-Rzut7
  6
CONTINUOUS
 62
     7
 10
322.802100000000000
 20
221.715200000000010
 40
0.125000000000000
 50
339.000000000000000
 51
69.000000000000000
  0
ARC
  8
PT4-Rzut7
  6
CONTINUOUS
 62
     7
 10
323.070800000000020
 20
222.415400000000010
 40
0.125000000000000
 50
249.000000000000000
 51
69.000000000000000
  0
ARC
  8
PT4-Rzut7
  6
CONTINUOUS
 62
     7
 10
322.891700000000010
 20
221.948600000000000
 40
0.125000000000000
 50
249.000000000000000
 51
339.000000000000000
  0
ARC
  8
PT4-Rzut7
  6
CONTINUOUS
 62
     7
 10
322.891700000000010
 20
221.948600000000000
 40
0.125000000000000
 50
339.000000000000000
 51
69.000000000000000
  0
ARC
  8
PT4-Rzut7
  6
CONTINUOUS
 62
     7
 10
322.981299999999980
 20
222.182000000000020
 40
0.125000000000000
 50
249.000000000000000
 51
69.000000000000000
  0
ARC
  8
PT4-Rzut7
  6
CONTINUOUS
 62
     7
 10
323.339600000000020
 20
223.115500000000000
 40
0.125000000000000
 50
249.000000000000000
 51
69.000000000000000
  0
ARC
  8
PT4-Rzut7
  6
CONTINUOUS
 62
     7
 10
323.160399999999980
 20
222.648799999999990
 40
0.125000000000000
 50
249.000000000000000
 51
339.000000000000000
  0
ARC
  8
PT4-Rzut7
  6
CONTINUOUS
 62
     7
 10
323.250000000000000
 20
222.882200000000010
 40
0.125000000000000
 50
249.000000000000000
 51
69.000000000000000
  0
ARC
  8
PT4-Rzut7
  6
CONTINUOUS
 62
     7
 10
323.160399999999980
 20
222.648799999999990
 40
0.125000000000000
 50
339.000000000000000
 51
69.000000000000000
  0
ARC
  8
PT4-Rzut7
  6
CONTINUOUS
 62
     7
 10
323.048400000000020
 20
223.891700000000010
 40
0.125000000000000
 50
69.000000000000000
 51
249.000000000000000
  0
ARC
  8
PT4-Rzut7
  6
CONTINUOUS
 62
     7
 10
322.958800000000000
 20
223.658300000000000
 40
0.125000000000000
 50
69.000000000000000
 51
249.000000000000000
  0
ARC
  8
PT4-Rzut7
  6
CONTINUOUS
 62
     7
 10
323.518800000000000
 20
223.582300000000000
 40
0.125000000000000
 50
249.000000000000000
 51
69.000000000000000
  0
ARC
  8
PT4-Rzut7
  6
CONTINUOUS
 62
     7
 10
323.608400000000020
 20
223.815699999999990
 40
0.125000000000000
 50
249.000000000000000
 51
339.000000000000000
  0
ARC
  8
PT4-Rzut7
  6
CONTINUOUS
 62
     7
 10
323.429199999999980
 20
223.348900000000010
 40
0.125000000000000
 50
339.000000000000000
 51
69.000000000000000
  0
ARC
  8
PT4-Rzut7
  6
CONTINUOUS
 62
     7
 10
323.608400000000020
 20
223.815699999999990
 40
0.125000000000000
 50
339.000000000000000
 51
69.000000000000000
  0
ARC
  8
PT4-Rzut7
  6
CONTINUOUS
 62
     7
 10
323.137999999999980
 20
224.125100000000000
 40
0.125000000000000
 50
69.000000000000000
 51
249.000000000000000
  0
ARC
  8
PT4-Rzut7
  6
CONTINUOUS
 62
     7
 10
320.149299999999980
 20
225.617600000000010
 40
0.050000000000000
 50
249.000000000000000
 51
339.000000000000000
  0
ARC
  8
PT4-Rzut7
  6
CONTINUOUS
 62
     7
 10
320.113499999999990
 20
225.524299999999980
 40
0.050000000000000
 50
249.000000000000000
 51
69.000000000000000
  0
ARC
  8
PT4-Rzut7
  6
CONTINUOUS
 62
     7
 10
320.038099999999990
 20
225.606799999999990
 40
0.050000000000000
 50
69.000000000000000
 51
249.000000000000000
  0
ARC
  8
PT4-Rzut7
  6
CONTINUOUS
 62
     7
 10
320.002200000000020
 20
225.513399999999990
 40
0.050000000000000
 50
69.000000000000000
 51
159.000000000000000
  0
ARC
  8
PT4-Rzut7
  6
CONTINUOUS
 62
     7
 10
324.530399999999990
 20
227.543000000000010
 40
0.200000000000000
 50
114.276700000000010
 51
249.000000000000000
  0
ARC
  8
PT4-Rzut7
  6
CONTINUOUS
 62
     7
 10
324.832100000000030
 20
227.212899999999990
 40
0.200000000000000
 50
249.000000000000000
 51
69.000000000000000
  0
ARC
  8
PT4-Rzut7
  6
CONTINUOUS
 62
     7
 10
317.236100000000020
 20
227.375900000000000
 40
0.250000000000000
 50
339.000000000000000
 51
159.000000000000000
  0
ARC
  8
PT4-Rzut7
  6
CONTINUOUS
 62
     7
 10
323.956999999999990
 20
226.049300000000020
 40
0.200000000000000
 50
69.000000000000000
 51
249.000000000000000
  0
ARC
  8
PT4-Rzut7
  6
CONTINUOUS
 62
     7
 10
324.258699999999980
 20
225.719200000000000
 40
0.200000000000000
 50
249.000000000000000
 51
69.000000000000000
  0
ARC
  8
PT4-Rzut7
  6
CONTINUOUS
 62
     7
 10
323.813600000000010
 20
225.675800000000010
 40
0.200000000000000
 50
69.000000000000000
 51
249.000000000000000
  0
ARC
  8
PT4-Rzut7
  6
CONTINUOUS
 62
     7
 10
323.670300000000000
 20
225.302400000000010
 40
0.200000000000000
 50
69.000000000000000
 51
249.000000000000000
  0
ARC
  8
PT4-Rzut7
  6
CONTINUOUS
 62
     7
 10
323.526900000000010
 20
224.929000000000000
 40
0.200000000000000
 50
69.000000000000000
 51
249.000000000000000
  0
ARC
  8
PT4-Rzut7
  6
CONTINUOUS
 62
     7
 10
324.115400000000020
 20
225.345800000000000
 40
0.200000000000000
 50
249.000000000000000
 51
69.000000000000000
  0
ARC
  8
PT4-Rzut7
  6
CONTINUOUS
 62
     7
 10
323.971999999999980
 20
224.972299999999990
 40
0.200000000000000
 50
339.000000000000000
 51
69.000000000000000
  0
ARC
  8
PT4-Rzut7
  6
CONTINUOUS
 62
     7
 10
323.828700000000030
 20
224.598900000000010
 40
0.200000000000000
 50
249.000000000000000
 51
69.000000000000000
  0
ARC
  8
PT4-Rzut7
  6
CONTINUOUS
 62
     7
 10
323.971999999999980
 20
224.972299999999990
 40
0.200000000000000
 50
249.000000000000000
 51
339.000000000000000
  0
ARC
  8
PT4-Rzut7
  6
CONTINUOUS
 62
     7
 10
320.468099999999990
 20
226.727100000000010
 40
0.050000000000000
 50
69.000000000000000
 51
249.000000000000000
  0
ARC
  8
PT4-Rzut7
  6
CONTINUOUS
 62
     7
 10
320.579400000000020
 20
226.737900000000000
 40
0.050000000000000
 50
249.000000000000000
 51
339.000000000000000
  0
ARC
  8
PT4-Rzut7
  6
CONTINUOUS
 62
     7
 10
320.432300000000000
 20
226.633700000000000
 40
0.050000000000000
 50
69.000000000000000
 51
249.000000000000000
  0
ARC
  8
PT4-Rzut7
  6
CONTINUOUS
 62
     7
 10
320.396400000000030
 20
226.540400000000010
 40
0.050000000000000
 50
69.000000000000000
 51
249.000000000000000
  0
ARC
  8
PT4-Rzut7
  6
CONTINUOUS
 62
     7
 10
320.507700000000000
 20
226.551199999999990
 40
0.050000000000000
 50
249.000000000000000
 51
69.000000000000000
  0
ARC
  8
PT4-Rzut7
  6
CONTINUOUS
 62
     7
 10
320.471900000000010
 20
226.457900000000000
 40
0.050000000000000
 50
339.000000000000000
 51
69.000000000000000
  0
ARC
  8
PT4-Rzut7
  6
CONTINUOUS
 62
     7
 10
320.543499999999990
 20
226.644600000000000
 40
0.050000000000000
 50
249.000000000000000
 51
69.000000000000000
  0
ARC
  8
PT4-Rzut7
  6
CONTINUOUS
 62
     7
 10
320.471900000000010
 20
226.457900000000000
 40
0.050000000000000
 50
249.000000000000000
 51
339.000000000000000
  0
ARC
  8
PT4-Rzut7
  6
CONTINUOUS
 62
     7
 10
320.360599999999980
 20
226.447000000000000
 40
0.050000000000000
 50
69.000000000000000
 51
249.000000000000000
  0
ARC
  8
PT4-Rzut7
  6
CONTINUOUS
 62
     7
 10
320.651000000000010
 20
226.924700000000000
 40
0.050000000000000
 50
249.000000000000000
 51
50.711700000000008
  0
ARC
  8
PT4-Rzut7
  6
CONTINUOUS
 62
     7
 10
320.615200000000020
 20
226.831300000000000
 40
0.050000000000000
 50
249.000000000000000
 51
69.000000000000000
  0
ARC
  8
PT4-Rzut7
  6
CONTINUOUS
 62
     7
 10
320.575600000000010
 20
227.007200000000010
 40
0.050000000000000
 50
161.895299999999990
 51
249.000000000000000
  0
ARC
  8
PT4-Rzut7
  6
CONTINUOUS
 62
     7
 10
320.503899999999990
 20
226.820500000000010
 40
0.050000000000000
 50
69.000000000000000
 51
249.000000000000000
  0
ARC
  8
PT4-Rzut7
  6
CONTINUOUS
 62
     7
 10
320.539800000000010
 20
226.913800000000010
 40
0.050000000000000
 50
69.000000000000000
 51
249.000000000000000
  0
ARC
  8
PT4-Rzut7
  6
CONTINUOUS
 62
     7
 10
320.579400000000020
 20
226.737900000000000
 40
0.050000000000000
 50
339.000000000000000
 51
69.000000000000000
  0
ARC
  8
PT4-Rzut7
  6
CONTINUOUS
 62
     7
 10
320.364399999999990
 20
226.177799999999990
 40
0.050000000000000
 50
249.000000000000000
 51
339.000000000000000
  0
ARC
  8
PT4-Rzut7
  6
CONTINUOUS
 62
     7
 10
320.328500000000020
 20
226.084400000000020
 40
0.050000000000000
 50
249.000000000000000
 51
69.000000000000000
  0
ARC
  8
PT4-Rzut7
  6
CONTINUOUS
 62
     7
 10
320.364399999999990
 20
226.177799999999990
 40
0.050000000000000
 50
339.000000000000000
 51
69.000000000000000
  0
ARC
  8
PT4-Rzut7
  6
CONTINUOUS
 62
     7
 10
320.400199999999980
 20
226.271199999999990
 40
0.050000000000000
 50
249.000000000000000
 51
69.000000000000000
  0
ARC
  8
PT4-Rzut7
  6
CONTINUOUS
 62
     7
 10
320.185200000000010
 20
225.711000000000010
 40
0.050000000000000
 50
249.000000000000000
 51
69.000000000000000
  0
ARC
  8
PT4-Rzut7
  6
CONTINUOUS
 62
     7
 10
320.256800000000000
 20
225.897699999999990
 40
0.050000000000000
 50
339.000000000000000
 51
69.000000000000000
  0
ARC
  8
PT4-Rzut7
  6
CONTINUOUS
 62
     7
 10
320.256800000000000
 20
225.897699999999990
 40
0.050000000000000
 50
249.000000000000000
 51
339.000000000000000
  0
ARC
  8
PT4-Rzut7
  6
CONTINUOUS
 62
     7
 10
320.221000000000000
 20
225.804399999999990
 40
0.050000000000000
 50
249.000000000000000
 51
69.000000000000000
  0
ARC
  8
PT4-Rzut7
  6
CONTINUOUS
 62
     7
 10
320.292700000000020
 20
225.991100000000020
 40
0.050000000000000
 50
249.000000000000000
 51
69.000000000000000
  0
ARC
  8
PT4-Rzut7
  6
CONTINUOUS
 62
     7
 10
320.253100000000020
 20
226.167000000000000
 40
0.050000000000000
 50
69.000000000000000
 51
249.000000000000000
  0
ARC
  8
PT4-Rzut7
  6
CONTINUOUS
 62
     7
 10
320.288900000000010
 20
226.260300000000000
 40
0.050000000000000
 50
69.000000000000000
 51
249.000000000000000
  0
ARC
  8
PT4-Rzut7
  6
CONTINUOUS
 62
     7
 10
320.145600000000000
 20
225.886900000000000
 40
0.050000000000000
 50
69.000000000000000
 51
249.000000000000000
  0
ARC
  8
PT4-Rzut7
  6
CONTINUOUS
 62
     7
 10
320.109699999999980
 20
225.793499999999990
 40
0.050000000000000
 50
159.000000000000000
 51
249.000000000000000
  0
ARC
  8
PT4-Rzut7
  6
CONTINUOUS
 62
     7
 10
320.181400000000000
 20
225.980200000000000
 40
0.050000000000000
 50
69.000000000000000
 51
249.000000000000000
  0
ARC
  8
PT4-Rzut7
  6
CONTINUOUS
 62
     7
 10
320.217199999999990
 20
226.073600000000000
 40
0.050000000000000
 50
69.000000000000000
 51
249.000000000000000
  0
ARC
  8
PT4-Rzut7
  6
CONTINUOUS
 62
     7
 10
320.036800000000030
 20
226.300800000000010
 40
0.250000000000000
 50
15.918599999999969
 51
159.000000000000000
  0
ARC
  8
PT4-Rzut7
  6
CONTINUOUS
 62
     7
 10
320.435999999999980
 20
226.364499999999990
 40
0.050000000000000
 50
249.000000000000000
 51
69.000000000000000
  0
ARC
  8
PT4-Rzut7
  6
CONTINUOUS
 62
     7
 10
320.324700000000010
 20
226.353700000000000
 40
0.050000000000000
 50
69.000000000000000
 51
249.000000000000000
  0
ARC
  8
PT4-Rzut7
  6
CONTINUOUS
 62
     7
 10
317.702900000000000
 20
227.196699999999990
 40
0.250000000000000
 50
339.000000000000000
 51
159.000000000000000
  0
ARC
  8
PT4-Rzut7
  6
CONTINUOUS
 62
     7
 10
318.169699999999980
 20
227.017600000000020
 40
0.250000000000000
 50
339.000000000000000
 51
159.000000000000000
  0
ARC
  8
PT4-Rzut7
  6
CONTINUOUS
 62
     7
 10
318.636399999999980
 20
226.838400000000010
 40
0.250000000000000
 50
339.000000000000000
 51
159.000000000000000
  0
ARC
  8
PT4-Rzut7
  6
CONTINUOUS
 62
     7
 10
319.103200000000020
 20
226.659200000000000
 40
0.250000000000000
 50
339.000000000000000
 51
159.000000000000000
  0
ARC
  8
PT4-Rzut7
  6
CONTINUOUS
 62
     7
 10
319.569999999999990
 20
226.479999999999990
 40
0.250000000000000
 50
339.000000000000000
 51
159.000000000000000
  0
ARC
  8
PT4-Rzut7
  6
CONTINUOUS
 62
     7
 10
324.387000000000000
 20
227.169500000000000
 40
0.200000000000000
 50
69.000000000000000
 51
249.000000000000000
  0
ARC
  8
PT4-Rzut7
  6
CONTINUOUS
 62
     7
 10
324.100300000000000
 20
226.422699999999990
 40
0.200000000000000
 50
69.000000000000000
 51
249.000000000000000
  0
ARC
  8
PT4-Rzut7
  6
CONTINUOUS
 62
     7
 10
324.243699999999990
 20
226.796100000000000
 40
0.200000000000000
 50
69.000000000000000
 51
249.000000000000000
  0
ARC
  8
PT4-Rzut7
  6
CONTINUOUS
 62
     7
 10
324.688800000000010
 20
226.839499999999990
 40
0.200000000000000
 50
339.000000000000000
 51
69.000000000000000
  0
ARC
  8
PT4-Rzut7
  6
CONTINUOUS
 62
     7
 10
324.688800000000010
 20
226.839499999999990
 40
0.200000000000000
 50
249.000000000000000
 51
339.000000000000000
  0
ARC
  8
PT4-Rzut7
  6
CONTINUOUS
 62
     7
 10
324.402100000000020
 20
226.092600000000000
 40
0.200000000000000
 50
339.000000000000000
 51
69.000000000000000
  0
ARC
  8
PT4-Rzut7
  6
CONTINUOUS
 62
     7
 10
324.402100000000020
 20
226.092600000000000
 40
0.200000000000000
 50
249.000000000000000
 51
339.000000000000000
  0
ARC
  8
PT4-Rzut7
  6
CONTINUOUS
 62
     7
 10
324.545399999999970
 20
226.466099999999980
 40
0.200000000000000
 50
249.000000000000000
 51
69.000000000000000
  0
ARC
  8
PT4-Rzut7
  6
CONTINUOUS
 62
     7
 10
313.501700000000030
 20
228.809399999999980
 40
0.250000000000000
 50
339.000000000000000
 51
159.000000000000000
  0
ARC
  8
PT4-Rzut7
  6
CONTINUOUS
 62
     7
 10
316.769299999999990
 20
227.555100000000010
 40
0.250000000000000
 50
339.000000000000000
 51
159.000000000000000
  0
ARC
  8
PT4-Rzut7
  6
CONTINUOUS
 62
     7
 10
315.835699999999970
 20
227.913500000000000
 40
0.250000000000000
 50
339.000000000000000
 51
159.000000000000000
  0
ARC
  8
PT4-Rzut7
  6
CONTINUOUS
 62
     7
 10
316.302500000000010
 20
227.734299999999990
 40
0.250000000000000
 50
339.000000000000000
 51
159.000000000000000
  0
ARC
  8
PT4-Rzut7
  6
CONTINUOUS
 62
     7
 10
314.435299999999980
 20
228.450999999999990
 40
0.250000000000000
 50
339.000000000000000
 51
159.000000000000000
  0
ARC
  8
PT4-Rzut7
  6
CONTINUOUS
 62
     7
 10
315.368900000000000
 20
228.092700000000010
 40
0.250000000000000
 50
339.000000000000000
 51
159.000000000000000
  0
ARC
  8
PT4-Rzut7
  6
CONTINUOUS
 62
     7
 10
314.902100000000020
 20
228.271799999999980
 40
0.250000000000000
 50
339.000000000000000
 51
159.000000000000000
  0
ARC
  8
PT4-Rzut7
  6
CONTINUOUS
 62
     7
 10
313.968500000000010
 20
228.630200000000000
 40
0.250000000000000
 50
339.000000000000000
 51
159.000000000000000
  0
ARC
  8
PT4-Rzut7
  6
CONTINUOUS
 62
     7
 10
313.035000000000030
 20
228.988599999999990
 40
0.250000000000000
 50
339.000000000000000
 51
159.000000000000000
  0
ARC
  8
PT4-Rzut7
  6
CONTINUOUS
 62
     7
 10
312.101400000000010
 20
229.346900000000010
 40
0.250000000000000
 50
339.000000000000000
 51
159.000000000000000
  0
ARC
  8
PT4-Rzut7
  6
CONTINUOUS
 62
     7
 10
311.634599999999980
 20
229.526099999999990
 40
0.250000000000000
 50
339.000000000000000
 51
159.000000000000000
  0
ARC
  8
PT4-Rzut7
  6
CONTINUOUS
 62
     7
 10
311.167800000000000
 20
229.705299999999990
 40
0.250000000000000
 50
339.000000000000000
 51
92.594100000000026
  0
ARC
  8
PT4-Rzut7
  6
CONTINUOUS
 62
     7
 10
312.568199999999990
 20
229.167800000000000
 40
0.250000000000000
 50
339.000000000000000
 51
159.000000000000000
  0
ARC
  8
PT4-Rzut7
  6
CONTINUOUS
 62
     7
 10
324.975500000000010
 20
227.586299999999990
 40
0.200000000000000
 50
249.000000000000000
 51
321.763500000000020
  0
ARC
  8
PT4-Rzut7
  6
CONTINUOUS
 62
     7
 10
320.114300000000010
 20
214.713300000000000
 40
0.125000000000000
 50
272.073899999999980
 51
69.000000000000000
  0
ARC
  8
PT4-Rzut7
  6
CONTINUOUS
 62
     7
 10
319.643899999999970
 20
215.022699999999990
 40
0.125000000000000
 50
69.000000000000000
 51
249.000000000000000
  0
ARC
  8
PT4-Rzut7
  6
CONTINUOUS
 62
     7
 10
320.024700000000000
 20
214.479899999999990
 40
0.125000000000000
 50
272.073899999999980
 51
69.000000000000000
  0
ARC
  8
PT4-Rzut7
  6
CONTINUOUS
 62
     7
 10
319.554300000000010
 20
214.789300000000000
 40
0.125000000000000
 50
69.000000000000000
 51
249.000000000000000
  0
ARC
  8
PT4-Rzut7
  6
CONTINUOUS
 62
     7
 10
319.935099999999980
 20
214.246500000000000
 40
0.125000000000000
 50
272.073899999999980
 51
69.000000000000000
  0
ARC
  8
PT4-Rzut7
  6
CONTINUOUS
 62
     7
 10
319.464699999999990
 20
214.555900000000010
 40
0.125000000000000
 50
69.000000000000000
 51
249.000000000000000
  0
ARC
  8
PT4-Rzut7
  6
CONTINUOUS
 62
     7
 10
319.845500000000020
 20
214.013100000000010
 40
0.125000000000000
 50
272.073899999999980
 51
69.000000000000000
  0
ARC
  8
PT4-Rzut7
  6
CONTINUOUS
 62
     7
 10
319.375099999999970
 20
214.322499999999990
 40
0.125000000000000
 50
69.000000000000000
 51
249.000000000000000
  0
ARC
  8
PT4-Rzut7
  6
CONTINUOUS
 62
     7
 10
315.070299999999970
 20
215.316000000000000
 40
0.100000000000000
 50
69.000000000000000
 51
159.000000000000000
  0
ARC
  8
PT4-Rzut7
  6
CONTINUOUS
 62
     7
 10
320.858499999999990
 20
213.094100000000000
 40
0.100000000000000
 50
339.000000000000000
 51
69.000000000000000
  0
ARC
  8
PT4-Rzut7
  6
CONTINUOUS
 62
     7
 10
319.711700000000010
 20
210.106600000000010
 40
0.100000000000000
 50
249.000000000000000
 51
339.000000000000000
  0
ARC
  8
PT4-Rzut7
  6
CONTINUOUS
 62
     7
 10
313.923499999999990
 20
212.328499999999990
 40
0.100000000000000
 50
159.000000000000000
 51
249.000000000000000
  0
LINE
  8
PT4-Rzut7
  6
CONTINUOUS
 62
     7
 10
331.1974
 20
218.122999999999990
 11
328.3304
 21
210.654300000000010
  0
LINE
  8
PT4-Rzut7
  6
CONTINUOUS
 62
     7
 10
331.5557
 20
219.056600000000000
 11
331.1974
 21
218.122999999999990
  0
LINE
  8
PT4-Rzut7
  6
CONTINUOUS
 62
     7
 10
327.972
 20
209.720800000000000
 11
328.3304
 21
210.654300000000010
  0
LINE
  8
PT4-Rzut7
  6
CONTINUOUS
 62
     7
 10
331.4849
 20
217.477100000000010
 11
330.9098
 21
218.768900000000000
  0
LINE
  8
PT4-Rzut7
  6
CONTINUOUS
 62
     7
 10
328.618
 20
210.008500000000000
 11
328.0428
 21
211.300199999999990
  0
LINE
  8
PT4-Rzut7
  6
CONTINUOUS
 62
     7
 10
332.1309
 20
217.764600000000000
 11
330.2638
 21
218.481400000000010
  0
LINE
  8
PT4-Rzut7
  6
CONTINUOUS
 62
     7
 10
329.264
 20
210.295999999999990
 11
327.3968
 21
211.012700000000000
  0
TEXT
  8
PT4-Rzut7
  6
CONTINUOUS
 62
     7
 10
328.356800000000020
 20
212.430499999999990
 40
2.000000000000000
 50
429.000000000000000
  1
80
  0
LINE
  8
PT4-Rzut7
  6
CONTINUOUS
 62
     7
 10
328.3304
 20
210.654300000000010
 11
326.8969
 21
206.920000000000020
  0
LINE
  8
PT4-Rzut7
  6
CONTINUOUS
 62
     7
 10
328.6888
 20
211.587899999999990
 11
328.3304
 21
210.654300000000010
  0
LINE
  8
PT4-Rzut7
  6
CONTINUOUS
 62
     7
 10
326.5386
 20
205.986400000000000
 11
326.8969
 21
206.920000000000020
  0
LINE
  8
PT4-Rzut7
  6
CONTINUOUS
 62
     7
 10
328.618
 20
210.008500000000000
 11
328.0428
 21
211.300199999999990
  0
LINE
  8
PT4-Rzut7
  6
CONTINUOUS
 62
     7
 10
327.1845
 20
206.274100000000000
 11
326.6094
 21
207.565900000000000
  0
LINE
  8
PT4-Rzut7
  6
CONTINUOUS
 62
     7
 10
329.264
 20
210.295999999999990
 11
327.3968
 21
211.012700000000000
  0
LINE
  8
PT4-Rzut7
  6
CONTINUOUS
 62
     7
 10
327.8305
 20
206.561700000000000
 11
325.9634
 21
207.278400000000000
  0
TEXT
  8
PT4-Rzut7
  6
CONTINUOUS
 62
     7
 10
326.189799999999990
 20
206.311900000000010
 40
2.000000000000000
 50
429.000000000000000
  1
40
  0
LINE
  8
PT4-Rzut7
  6
CONTINUOUS
 62
     7
 10
326.8969
 20
206.920000000000020
 11
326.5386
 21
205.986400000000000
  0
LINE
  8
PT4-Rzut7
  6
CONTINUOUS
 62
     7
 10
327.2553
 20
207.853600000000000
 11
326.8969
 21
206.920000000000020
  0
LINE
  8
PT4-Rzut7
  6
CONTINUOUS
 62
     7
 10
326.1802
 20
205.052899999999990
 11
326.5386
 21
205.986400000000000
  0
LINE
  8
PT4-Rzut7
  6
CONTINUOUS
 62
     7
 10
327.1845
 20
206.274100000000000
 11
326.6094
 21
207.565900000000000
  0
LINE
  8
PT4-Rzut7
  6
CONTINUOUS
 62
     7
 10
326.8261
 20
205.340599999999990
 11
326.251
 21
206.632299999999990
  0
LINE
  8
PT4-Rzut7
  6
CONTINUOUS
 62
     7
 10
327.8305
 20
206.561700000000000
 11
325.9634
 21
207.278400000000000
  0
LINE
  8
PT4-Rzut7
  6
CONTINUOUS
 62
     7
 10
327.4721
 20
205.628100000000020
 11
325.605
 21
206.344799999999990
  0
TEXT
  8
PT4-Rzut7
  6
CONTINUOUS
 62
     7
 10
324.341500000000000
 20
202.169100000000010
 40
2.000000000000000
 50
429.000000000000000
  1
10
  0
LINE
  8
PT4-Rzut7
  6
CONTINUOUS
 62
     7
 10
334.6255
 20
216.807099999999990
 11
330.325
 21
205.604100000000020
  0
LINE
  8
PT4-Rzut7
  6
CONTINUOUS
 62
     7
 10
334.9838
 20
217.740600000000000
 11
334.6255
 21
216.807099999999990
  0
LINE
  8
PT4-Rzut7
  6
CONTINUOUS
 62
     7
 10
329.9667
 20
204.670500000000000
 11
330.325
 21
205.604100000000020
  0
LINE
  8
PT4-Rzut7
  6
CONTINUOUS
 62
     7
 10
334.913
 20
216.161200000000010
 11
334.3379
 21
217.452900000000000
  0
LINE
  8
PT4-Rzut7
  6
CONTINUOUS
 62
     7
 10
330.6126
 20
204.958200000000010
 11
330.0375
 21
206.250000000000000
  0
LINE
  8
PT4-Rzut7
  6
CONTINUOUS
 62
     7
 10
335.559
 20
216.448700000000000
 11
333.6919
 21
217.165400000000010
  0
LINE
  8
PT4-Rzut7
  6
CONTINUOUS
 62
     7
 10
331.2586
 20
205.245700000000000
 11
329.3915
 21
205.962500000000010
  0
TEXT
  8
PT4-Rzut7
  6
CONTINUOUS
 62
     7
 10
330.523799999999990
 20
207.522899999999990
 40
2.000000000000000
 50
429.000000000000000
  1
1,20
  0
LINE
  8
PT4-Rzut7
  6
CONTINUOUS
 62
     7
 10
317.1293
 20
217.610500000000000
 11
315.7289
 21
218.148000000000000
  0
LINE
  8
PT4-Rzut7
  6
CONTINUOUS
 62
     7
 10
318.0629
 20
217.252099999999980
 11
317.1293
 21
217.610500000000000
  0
LINE
  8
PT4-Rzut7
  6
CONTINUOUS
 62
     7
 10
314.7953
 20
218.506399999999990
 11
315.7289
 21
218.148000000000000
  0
LINE
  8
PT4-Rzut7
  6
CONTINUOUS
 62
     7
 10
316.4834
 20
217.322900000000000
 11
317.7752
 21
217.898000000000000
  0
LINE
  8
PT4-Rzut7
  6
CONTINUOUS
 62
     7
 10
315.083
 20
217.860500000000000
 11
316.3748
 21
218.435599999999990
  0
LINE
  8
PT4-Rzut7
  6
CONTINUOUS
 62
     7
 10
317.4877
 20
218.544100000000010
 11
316.7709
 21
216.676899999999990
  0
LINE
  8
PT4-Rzut7
  6
CONTINUOUS
 62
     7
 10
316.0873
 20
219.081600000000010
 11
315.3706
 21
217.214499999999990
  0
TEXT
  8
PT4-Rzut7
  6
CONTINUOUS
 62
     7
 10
314.109300000000020
 20
220.682199999999990
 40
2.000000000000000
 50
339.000000000000000
  1
15
  0
TEXT
  8
PT4-Rzut7
  6
CONTINUOUS
 62
     7
 10
311.933499999999980
 20
239.209700000000000
 40
1.800000000000000
  1
Nr 1 
  0
TEXT
  8
PT4-Rzut7
  6
CONTINUOUS
 62
     7
 10
314.534699999999990
 20
236.749000000000000
 40
1.800000000000000
  1
f
  0
TEXT
  8
PT4-Rzut7
  6
CONTINUOUS
 62
     7
 10
311.722600000000000
 20
236.467800000000010
 40
1.800000000000000
  1
4    12 mm
  0
LINE
  8
PT4-Rzut7
  6
CONTINUOUS
 62
     7
 10
309.6838
 20
234.049700000000000
 11
325.2911
 21
234.049700000000000
  0
LINE
  8
PT4-Rzut7
  6
CONTINUOUS
 62
     7
 10
325.2911
 20
234.049700000000000
 11
325.2911
 21
241.361200000000000
  0
LINE
  8
PT4-Rzut7
  6
CONTINUOUS
 62
     7
 10
325.2911
 20
241.361200000000000
 11
309.6838
 21
241.361200000000000
  0
LINE
  8
PT4-Rzut7
  6
CONTINUOUS
 62
     7
 10
309.6838
 20
241.361200000000000
 11
309.6838
 21
234.049700000000000
  0
TEXT
  8
PT4-Rzut7
  6
CONTINUOUS
 62
     7
 10
322.268700000000020
 20
201.355400000000000
 40
1.800000000000000
  1
Nr 2 
  0
TEXT
  8
PT4-Rzut7
  6
CONTINUOUS
 62
     7
 10
322.268700000000020
 20
198.894800000000000
 40
1.800000000000000
  1
f
  0
TEXT
  8
PT4-Rzut7
  6
CONTINUOUS
 62
     7
 10
323.885699999999990
 20
198.473000000000010
 40
1.800000000000000
  1
6 mm co 
  0
TEXT
  8
PT4-Rzut7
  6
CONTINUOUS
 62
     7
 10
323.885699999999990
 20
195.773000000000000
 40
1.800000000000000
  1
25 cm
  0
LINE
  8
PT4-Rzut7
  6
CONTINUOUS
 62
     7
 10
320.019
 20
194.278099999999990
 11
335.6263
 21
194.278099999999990
  0
LINE
  8
PT4-Rzut7
  6
CONTINUOUS
 62
     7
 10
335.6263
 20
194.278099999999990
 11
335.6263
 21
203.506900000000000
  0
LINE
  8
PT4-Rzut7
  6
CONTINUOUS
 62
     7
 10
335.6263
 20
203.506900000000000
 11
320.019
 21
203.506900000000000
  0
LINE
  8
PT4-Rzut7
  6
CONTINUOUS
 62
     7
 10
320.019
 20
203.506900000000000
 11
320.019
 21
194.278099999999990
  0
LINE
  8
PT4-Rzut7
  6
CONTINUOUS
 62
     7
 10
331.2149
 20
218.116199999999990
 11
332.8276
 21
222.317399999999990
  0
LINE
  8
PT4-Rzut7
  6
CONTINUOUS
 62
     7
 10
330.8565
 20
217.182700000000010
 11
331.2149
 21
218.116199999999990
  0
LINE
  8
PT4-Rzut7
  6
CONTINUOUS
 62
     7
 10
333.1859
 20
223.250900000000000
 11
332.8276
 21
222.317399999999990
  0
LINE
  8
PT4-Rzut7
  6
CONTINUOUS
 62
     7
 10
330.9273
 20
218.762100000000000
 11
331.5025
 21
217.470399999999980
  0
LINE
  8
PT4-Rzut7
  6
CONTINUOUS
 62
     7
 10
332.54
 20
222.963200000000000
 11
333.1151
 21
221.671500000000010
  0
LINE
  8
PT4-Rzut7
  6
CONTINUOUS
 62
     7
 10
332.1485
 20
217.757900000000010
 11
330.2813
 21
218.474600000000010
  0
LINE
  8
PT4-Rzut7
  6
CONTINUOUS
 62
     7
 10
333.7611
 20
221.959000000000000
 11
331.894
 21
222.675700000000010
  0
TEXT
  8
PT4-Rzut7
  6
CONTINUOUS
 62
     7
 10
330.460100000000010
 20
219.986200000000000
 40
2.000000000000000
 50
69.000000000000000
  1
45
  0
TEXT
  8
PT4-Rzut7
  6
CONTINUOUS
 62
     7
 10
313.293799999999980
 20
206.702900000000000
 40
2.000000000000000
 50
339.000000000000000
  1
70
  0
LINE
  8
PT4-Rzut7
  6
CONTINUOUS
 62
     7
 10
310.6943
 20
205.032300000000020
 11
317.2293
 21
202.523700000000020
  0
LINE
  8
PT4-Rzut7
  6
CONTINUOUS
 62
     7
 10
309.7607
 20
205.390699999999980
 11
310.6943
 21
205.032300000000020
  0
LINE
  8
PT4-Rzut7
  6
CONTINUOUS
 62
     7
 10
318.1629
 20
202.165400000000010
 11
317.2293
 21
202.523700000000020
  0
LINE
  8
PT4-Rzut7
  6
CONTINUOUS
 62
     7
 10
311.3401
 20
205.319900000000020
 11
310.0484
 21
204.744800000000000
  0
LINE
  8
PT4-Rzut7
  6
CONTINUOUS
 62
     7
 10
317.8752
 20
202.811300000000020
 11
316.5835
 21
202.236200000000000
  0
LINE
  8
PT4-Rzut7
  6
CONTINUOUS
 62
     7
 10
310.3359
 20
204.098700000000010
 11
311.0526
 21
205.965900000000000
  0
LINE
  8
PT4-Rzut7
  6
CONTINUOUS
 62
     7
 10
316.871
 20
201.590199999999980
 11
317.5877
 21
203.457300000000000
  0
LINE
  8
PT4-Rzut7
  6
CONTINUOUS
 62
     7
 10
324.2613
 20
212.216299999999990
 11
328.1264
 21
222.285100000000000
  0
LINE
  8
PT4-Rzut7
  6
CONTINUOUS
 62
     7
 10
323.903
 20
211.282700000000010
 11
324.2613
 21
212.216299999999990
  0
LINE
  8
PT4-Rzut7
  6
CONTINUOUS
 62
     7
 10
328.4847
 20
223.218600000000010
 11
328.1264
 21
222.285100000000000
  0
LINE
  8
PT4-Rzut7
  6
CONTINUOUS
 62
     7
 10
323.9738
 20
212.862200000000000
 11
324.5489
 21
211.570400000000010
  0
LINE
  8
PT4-Rzut7
  6
CONTINUOUS
 62
     7
 10
327.8388
 20
222.930900000000010
 11
328.4139
 21
221.639200000000020
  0
LINE
  8
PT4-Rzut7
  6
CONTINUOUS
 62
     7
 10
325.1949
 20
211.857900000000000
 11
323.3277
 21
212.574700000000010
  0
LINE
  8
PT4-Rzut7
  6
CONTINUOUS
 62
     7
 10
329.0599
 20
221.926699999999980
 11
327.1928
 21
222.643399999999990
  0
TEXT
  8
PT4-Rzut7
  6
CONTINUOUS
 62
     7
 10
323.576700000000020
 20
214.313699999999980
 40
2.000000000000000
 50
69.000000000000000
  1
1,08
  0
LINE
  8
PT4-Rzut7
  6
CONTINUOUS
 62
     7
 10
294.7484
 20
232.345399999999980
 11
304.0979
 21
228.756399999999990
  0
LINE
  8
PT4-Rzut7
  6
CONTINUOUS
 62
     7
 10
309.9425
 20
226.512900000000000
 11
319.1848
 21
222.965100000000010
  0
LINE
  8
PT4-Rzut7
  6
CONTINUOUS
 62
     7
 10
323.0512
 20
203.514799999999980
 11
320.4623
 21
211.783000000000020
  0
LINE
  8
PT4-Rzut7
  6
CONTINUOUS
 62
     7
 10
323.0512
 20
203.514799999999980
 11
294.4823
 21
221.736099999999990
  0
LINE
  8
PT4-Rzut7
  6
CONTINUOUS
 62
     7
 10
316.4515
 20
234.048499999999990
 11
312.3167
 21
218.543100000000010
  0
LINE
  8
PT4-Rzut7
  6
CONTINUOUS
 62
     7
 10
312.3167
 20
218.543100000000010
 11
315.1061
 21
215.409300000000000
  0
LINE
  8
PT4-Rzut7
  6
CONTINUOUS
 62
     7
 10
312.3167
 20
218.543100000000010
 11
313.9593
 21
212.421899999999990
  0
LINE
  8
PT4-Rzut7
  6
CONTINUOUS
 62
     7
 10
312.3167
 20
218.543100000000010
 11
319.6183
 21
210.142499999999980
  0
LINE
  8
PT4-Rzut7
  6
CONTINUOUS
 62
     7
 10
312.3167
 20
218.543100000000010
 11
320.8226
 21
213.000699999999990
  0
LINE
  8
PT4-Rzut7
  6
CONTINUOUS
 62
     7
 10
312.3167
 20
218.543100000000010
 11
295.0557
 21
223.229800000000010
  0
LINE
  8
PT4-Rzut7
  6
CONTINUOUS
 62
     7
 10
300.2359
 20
221.823300000000020
 11
293.9089
 21
220.242400000000000
  0
LINE
  8
PT4-Rzut7
  6
CONTINUOUS
 62
     7
 10
300.2359
 20
221.823300000000020
 11
288.1207
 21
222.464200000000010
  0
LINE
  8
PT4-Rzut7
  6
CONTINUOUS
 62
     7
 10
300.2359
 20
221.823300000000020
 11
289.0835
 21
225.445100000000000
  0
LINE
  8
PT4-Rzut7
  6
CONTINUOUS
 62
     7
 10
89.2449
 20
73.104099999999988
 11
161.2313
 21
73.104099999999988
  0
LINE
  8
PT4-Rzut7
  6
CONTINUOUS
 62
     7
 10
89.2449
 20
89.506100000000004
 11
161.2313
 21
89.506100000000004
  0
LINE
  8
PT4-Rzut7
  6
CONTINUOUS
 62
     7
 10
89.2449
 20
97.707099999999997
 11
89.2449
 21
62.169499999999999
  0
LINE
  8
PT4-Rzut7
  6
CONTINUOUS
 62
     7
 10
89.2449
 20
92.239699999999999
 11
161.2313
 21
92.239699999999999
  0
LINE
  8
PT4-Rzut7
  6
CONTINUOUS
 62
     7
 10
134.1984
 20
94.973399999999998
 11
161.2313
 21
94.973399999999998
  0
LINE
  8
PT4-Rzut7
  6
CONTINUOUS
 62
     7
 10
89.2449
 20
97.707099999999997
 11
161.2313
 21
97.707099999999997
  0
LINE
  8
PT4-Rzut7
  6
CONTINUOUS
 62
     7
 10
89.2449
 20
86.772400000000005
 11
161.2313
 21
86.772400000000005
  0
LINE
  8
PT4-Rzut7
  6
CONTINUOUS
 62
     7
 10
89.2449
 20
84.038800000000009
 11
161.2313
 21
84.038800000000009
  0
LINE
  8
PT4-Rzut7
  6
CONTINUOUS
 62
     7
 10
89.2449
 20
81.305100000000010
 11
161.2313
 21
81.305100000000010
  0
LINE
  8
PT4-Rzut7
  6
CONTINUOUS
 62
     7
 10
89.2449
 20
78.571400000000011
 11
161.2313
 21
78.571400000000011
  0
LINE
  8
PT4-Rzut7
  6
CONTINUOUS
 62
     7
 10
89.2449
 20
75.837799999999987
 11
161.2313
 21
75.837799999999987
  0
LINE
  8
PT4-Rzut7
  6
CONTINUOUS
 62
     7
 10
94.1047
 20
97.707099999999997
 11
94.1047
 21
75.837799999999987
  0
LINE
  8
PT4-Rzut7
  6
CONTINUOUS
 62
     7
 10
105.9506
 20
97.707099999999997
 11
105.9506
 21
75.837799999999987
  0
LINE
  8
PT4-Rzut7
  6
CONTINUOUS
 62
     7
 10
120.8339
 20
97.707099999999997
 11
120.8339
 21
75.837799999999987
  0
LINE
  8
PT4-Rzut7
  6
CONTINUOUS
 62
     7
 10
134.1984
 20
97.707099999999997
 11
134.1984
 21
75.837799999999987
  0
LINE
  8
PT4-Rzut7
  6
CONTINUOUS
 62
     7
 10
148.1705
 20
94.973399999999998
 11
148.1705
 21
75.837799999999987
  0
LINE
  8
PT4-Rzut7
  6
CONTINUOUS
 62
     7
 10
161.2313
 20
97.707099999999997
 11
161.2313
 21
62.169499999999999
  0
LINE
  8
PT4-Rzut7
  6
CONTINUOUS
 62
     7
 10
89.2449
 20
70.370399999999989
 11
161.2313
 21
70.370399999999989
  0
LINE
  8
PT4-Rzut7
  6
CONTINUOUS
 62
     7
 10
89.2449
 20
67.636799999999994
 11
161.2313
 21
67.636799999999994
  0
LINE
  8
PT4-Rzut7
  6
CONTINUOUS
 62
     7
 10
89.2449
 20
64.903099999999995
 11
161.2313
 21
64.903099999999995
  0
LINE
  8
PT4-Rzut7
  6
CONTINUOUS
 62
     7
 10
89.2449
 20
62.169499999999999
 11
161.2313
 21
62.169499999999999
  0
LINE
  8
PT4-Rzut7
  6
CONTINUOUS
 62
     7
 10
134.1984
 20
73.104099999999988
 11
134.1984
 21
62.169499999999999
  0
LINE
  8
PT4-Rzut7
  6
CONTINUOUS
 62
     7
 10
148.1705
 20
73.104099999999988
 11
148.1705
 21
64.903099999999995
  0
TEXT
  8
PT4-Rzut7
  6
CONTINUOUS
 62
     7
 10
91.735600000000005
 20
90.287899999999979
 40
1.800000000000000
  1
1
  0
TEXT
  8
PT4-Rzut7
  6
CONTINUOUS
 62
     7
 10
99.936599999999999
 20
90.287899999999979
 40
1.800000000000000
  1
12
  0
TEXT
  8
PT4-Rzut7
  6
CONTINUOUS
 62
     7
 10
112.389900000000000
 20
90.287899999999979
 40
1.800000000000000
  1
21,4
  0
TEXT
  8
PT4-Rzut7
  6
CONTINUOUS
 62
     7
 10
126.058200000000000
 20
90.287899999999979
 40
1.800000000000000
  1
4
  0
TEXT
  8
PT4-Rzut7
  6
CONTINUOUS
 62
     7
 10
140.941399999999990
 20
90.287899999999979
 40
1.800000000000000
  1
85,6
  0
TEXT
  8
PT4-Rzut7
  6
CONTINUOUS
 62
     7
 10
91.735600000000005
 20
87.554199999999980
 40
1.800000000000000
  1
2
  0
TEXT
  8
PT4-Rzut7
  6
CONTINUOUS
 62
     7
 10
99.936599999999999
 20
87.554199999999980
 40
1.800000000000000
  1
6
  0
TEXT
  8
PT4-Rzut7
  6
CONTINUOUS
 62
     7
 10
112.389900000000000
 20
87.554199999999980
 40
1.800000000000000
  1
2,06
  0
TEXT
  8
PT4-Rzut7
  6
CONTINUOUS
 62
     7
 10
126.126900000000010
 20
87.697800000000001
 40
1.800000000000000
  1
86
  0
TEXT
  8
PT4-Rzut7
  6
CONTINUOUS
 62
     7
 10
153.772300000000000
 20
87.634500000000003
 40
1.800000000000000
  1
177,2
  0
TEXT
  8
PT4-Rzut7
  6
CONTINUOUS
 62
     7
 10
90.520600000000002
 20
95.755200000000002
 40
1.800000000000000
  1
NR
  0
TEXT
  8
PT4-Rzut7
  6
CONTINUOUS
 62
     7
 10
94.201999999999998
 20
95.665599999999984
 40
1.800000000000000
  1
ŚREDNICA
  0
TEXT
  8
PT4-Rzut7
  6
CONTINUOUS
 62
     7
 10
108.347100000000000
 20
95.665599999999984
 40
1.800000000000000
  1
DŁUGOŚĆ
  0
TEXT
  8
PT4-Rzut7
  6
CONTINUOUS
 62
     7
 10
124.843200000000000
 20
95.755200000000002
 40
1.800000000000000
  1
ILOŚĆ
  0
TEXT
  8
PT4-Rzut7
  6
CONTINUOUS
 62
     7
 10
140.941399999999990
 20
95.755200000000002
 40
1.800000000000000
  1
DŁUGOŚĆ [M]
  0
TEXT
  8
PT4-Rzut7
  6
CONTINUOUS
 62
     7
 10
112.389900000000000
 20
94.801599999999979
 40
0.019900000000000
  1
CM
  0
TEXT
  8
PT4-Rzut7
  6
CONTINUOUS
 62
     7
 10
126.058200000000000
 20
94.801599999999979
 40
0.019900000000000
  1
SZT
  0
TEXT
  8
PT4-Rzut7
  6
CONTINUOUS
 62
     7
 10
140.821599999999990
 20
93.382399999999990
 40
1.800000000000000
  1
12
  0
TEXT
  8
PT4-Rzut7
  6
CONTINUOUS
 62
     7
 10
154.609800000000010
 20
93.021499999999975
 40
1.800000000000000
  1
6
  0
TEXT
  8
PT4-Rzut7
  6
CONTINUOUS
 62
     7
 10
154.609800000000010
 20
71.152199999999993
 40
1.800000000000000
  1
177,2
  0
TEXT
  8
PT4-Rzut7
  6
CONTINUOUS
 62
     7
 10
140.941399999999990
 20
71.152199999999993
 40
1.800000000000000
  1
85,6
  0
TEXT
  8
PT4-Rzut7
  6
CONTINUOUS
 62
     7
 10
91.735600000000005
 20
62.951299999999975
 40
1.800000000000000
  1
MASA OGÓŁEM [kg]
  0
TEXT
  8
PT4-Rzut7
  6
CONTINUOUS
 62
     7
 10
140.941399999999990
 20
68.418599999999998
 40
1.800000000000000
  1
0,887
  0
TEXT
  8
PT4-Rzut7
  6
CONTINUOUS
 62
     7
 10
140.941399999999990
 20
65.684899999999999
 40
1.800000000000000
  1
75,9
  0
TEXT
  8
PT4-Rzut7
  6
CONTINUOUS
 62
     7
 10
143.978800000000010
 20
62.951299999999975
 40
1.800000000000000
  1
115,2
  0
TEXT
  8
PT4-Rzut7
  6
CONTINUOUS
 62
     7
 10
154.609800000000010
 20
68.418599999999998
 40
1.800000000000000
  1
0,222
  0
TEXT
  8
PT4-Rzut7
  6
CONTINUOUS
 62
     7
 10
155.126600000000000
 20
65.684899999999999
 40
1.800000000000000
  1
39,3
  0
TEXT
  8
PT4-Rzut7
  6
CONTINUOUS
 62
     7
 10
139.674399999999990
 20
93.411000000000001
 40
1.800000000000000
  1
f
  0
TEXT
  8
PT4-Rzut7
  6
CONTINUOUS
 62
     7
 10
138.350799999999990
 20
89.278799999999990
 40
1.800000000000000
  1

  0
TEXT
  8
PT4-Rzut7
  6
CONTINUOUS
 62
     7
 10
153.046699999999990
 20
93.241299999999995
 40
1.800000000000000
  1
f
  0
TEXT
  8
PT4-Rzut7
  6
CONTINUOUS
 62
     7
 10
91.779499999999999
 20
71.316599999999994
 40
1.800000000000000
  1
DŁUGOŚĆ RAZEM [m]
  0
TEXT
  8
PT4-Rzut7
  6
CONTINUOUS
 62
     7
 10
91.909099999999995
 20
68.570399999999978
 40
1.800000000000000
  1
MASA 1 mb [kg]
  0
TEXT
  8
PT4-Rzut7
  6
CONTINUOUS
 62
     7
 10
91.973900000000000
 20
65.836799999999982
 40
1.800000000000000
  1
MASA OGÓŁEM [kg]
  0
TEXT
  8
PT4-Rzut7
  6
CONTINUOUS
 62
     7
 10
265.852500000000020
 20
123.299299999999990
 40
2.000000000000000
 50
339.500000000000000
  1
3,58
  0
LINE
  8
PT4-Rzut7
  6
CONTINUOUS
 62
     7
 10
250.8726
 20
126.242300000000000
 11
284.4075
 21
113.710100000000010
  0
LINE
  8
PT4-Rzut7
  6
CONTINUOUS
 62
     7
 10
249.9358
 20
126.592400000000000
 11
250.8726
 21
126.242300000000000
  0
LINE
  8
PT4-Rzut7
  6
CONTINUOUS
 62
     7
 10
285.3442
 20
113.360099999999990
 11
284.4075
 21
113.710100000000010
  0
LINE
  8
PT4-Rzut7
  6
CONTINUOUS
 62
     7
 10
251.5159
 20
126.535599999999990
 11
250.2293
 21
125.949000000000010
  0
LINE
  8
PT4-Rzut7
  6
CONTINUOUS
 62
     7
 10
285.0508
 20
114.003400000000000
 11
283.7642
 21
113.416799999999990
  0
LINE
  8
PT4-Rzut7
  6
CONTINUOUS
 62
     7
 10
250.5225
 20
125.305600000000000
 11
251.2226
 21
127.179000000000000
  0
LINE
  8
PT4-Rzut7
  6
CONTINUOUS
 62
     7
 10
284.0574
 20
112.773400000000010
 11
284.7575
 21
114.646800000000010
  0
TEXT
  8
PT4-Rzut7
  6
CONTINUOUS
 62
     7
 10
327.621800000000010
 20
153.313999999999990
 40
2.000000000000000
 50
69.500000000000000
  1
7,10
  0
LINE
  8
PT4-Rzut7
  6
CONTINUOUS
 62
     7
 10
318.2243
 20
121.357699999999990
 11
343.0804
 21
187.864600000000000
  0
LINE
  8
PT4-Rzut7
  6
CONTINUOUS
 62
     7
 10
317.8742
 20
120.420999999999990
 11
318.2243
 21
121.357699999999990
  0
LINE
  8
PT4-Rzut7
  6
CONTINUOUS
 62
     7
 10
343.4305
 20
188.801300000000000
 11
343.0804
 21
187.864600000000000
  0
LINE
  8
PT4-Rzut7
  6
CONTINUOUS
 62
     7
 10
317.931
 20
122.001000000000000
 11
318.5176
 21
120.714400000000010
  0
LINE
  8
PT4-Rzut7
  6
CONTINUOUS
 62
     7
 10
342.7872
 20
188.507900000000010
 11
343.3737
 21
187.221299999999990
  0
LINE
  8
PT4-Rzut7
  6
CONTINUOUS
 62
     7
 10
319.161
 20
121.007600000000000
 11
317.2876
 21
121.707799999999990
  0
LINE
  8
PT4-Rzut7
  6
CONTINUOUS
 62
     7
 10
344.0171
 20
187.514500000000000
 11
342.1437
 21
188.214699999999990
  0
TEXT
  8
PT4-Rzut7
  6
CONTINUOUS
 62
     7
 10
247.142900000000000
 20
98.928599999999989
 40
2.500000000000000
  1
UWAGA:
  0
TEXT
  8
PT4-Rzut7
  6
CONTINUOUS
 62
     7
 10
247.142900000000000
 20
95.178599999999989
 40
2.500000000000000
  1
- poziom posadowienia nowych ław fundamentowych wynosi -1,65 m
  0
TEXT
  8
PT4-Rzut7
  6
CONTINUOUS
 62
     7
 10
247.142900000000000
 20
91.428599999999989
 40
2.500000000000000
  1
- poziom posadowienia nowych ław fundamentowych wzdłuż istniejącego
  0
TEXT
  8
PT4-Rzut7
  6
CONTINUOUS
 62
     7
 10
247.142900000000000
 20
87.678599999999989
 40
2.500000000000000
  1
  budynku ustalić po odkopaniu jego fundamentów. Nowe ławy należy w tych 
  0
TEXT
  8
PT4-Rzut7
  6
CONTINUOUS
 62
     7
 10
247.142900000000000
 20
83.928599999999989
 40
2.500000000000000
  1
miejscach   posadowić na poziomie posadowienia ław istniejących.
  0
TEXT
  8
PT4-Rzut7
  6
CONTINUOUS
 62
     7
 10
247.142900000000000
 20
80.178599999999989
 40
2.500000000000000
  1
- stal A-III, beton B-15.
  0
LINE
  8
PT4-Rzut7
  6
CONTINUOUS
 62
     7
 10
32.9704
 20
213.788200000000020
 11
32.9704
 21
193.706300000000000
  0
LINE
  8
PT4-Rzut7
  6
CONTINUOUS
 62
     7
 10
32.9701
 20
193.706300000000000
 11
58.6218
 21
193.706300000000000
  0
LINE
  8
PT4-Rzut7
  6
CONTINUOUS
 62
     7
 10
58.6218
 20
193.706599999999980
 11
58.6218
 21
192.948500000000000
  0
LINE
  8
PT4-Rzut7
  6
CONTINUOUS
 62
     7
 10
58.6215
 20
192.948500000000000
 11
63.3201
 21
192.948500000000000
  0
LINE
  8
PT4-Rzut7
  6
CONTINUOUS
 62
     7
 10
63.3201
 20
192.948199999999990
 11
63.3201
 21
193.706300000000000
  0
LINE
  8
PT4-Rzut7
  6
CONTINUOUS
 62
     7
 10
63.3198
 20
193.706300000000000
 11
83.9323
 21
193.708900000000000
  0
LINE
  8
PT4-Rzut7
  6
CONTINUOUS
 62
     7
 10
83.9323
 20
193.709299999999980
 11
83.9323
 21
193.706300000000000
  0
LINE
  8
PT4-Rzut7
  6
CONTINUOUS
 62
     7
 10
83.9319
 20
193.706300000000000
 11
84.4375
 21
193.706300000000000
  0
LINE
  8
PT4-Rzut7
  6
CONTINUOUS
 62
     7
 10
84.4375
 20
193.706000000000020
 11
84.4375
 21
213.787900000000010
  0
LINE
  8
PT4-Rzut7
  6
CONTINUOUS
 62
     7
 10
84.4378
 20
213.787900000000010
 11
62.5245
 21
213.787900000000010
  0
LINE
  8
PT4-Rzut7
  6
CONTINUOUS
 62
     7
 10
62.5245
 20
213.788200000000020
 11
62.5245
 21
205.610000000000010
  0
LINE
  8
PT4-Rzut7
  6
CONTINUOUS
 62
     7
 10
62.5248
 20
205.610000000000010
 11
58.7608
 21
205.610000000000010
  0
LINE
  8
PT4-Rzut7
  6
CONTINUOUS
 62
     7
 10
58.7608
 20
205.610300000000000
 11
58.7608
 21
193.706300000000000
  0
LINE
  8
PT4-Rzut7
  6
CONTINUOUS
 62
     7
 10
58.7611
 20
193.706300000000000
 11
58.7355
 21
193.706300000000000
  0
LINE
  8
PT4-Rzut7
  6
CONTINUOUS
 62
     7
 10
58.7355
 20
193.706000000000020
 11
58.7355
 21
221.286100000000000
  0
LINE
  8
PT4-Rzut7
  6
CONTINUOUS
 62
     7
 10
44.9436
 20
227.958900000000000
 11
44.9436
 21
213.787900000000010
  0
LINE
  8
PT4-Rzut7
  6
CONTINUOUS
 62
     7
 10
44.9439
 20
213.787900000000010
 11
32.9704
 21
213.787900000000010
  0
LINE
  8
PT4-Rzut7
  6
CONTINUOUS
 62
     7
 10
36.4686
 20
218.347600000000000
 11
36.4689
 21
213.787900000000010
  0
LINE
  8
PT4-Rzut7
  6
CONTINUOUS
 62
     7
 10
44.9436
 20
218.347299999999990
 11
36.4686
 21
218.347299999999990
  0
LINE
  8
PT4-Rzut7
  6
CONTINUOUS
 62
     7
 10
50.2
 20
255.091000000000010
 11
40.6621
 21
229.558200000000000
  0
LINE
  8
PT4-Rzut7
  6
CONTINUOUS
 62
     7
 10
40.6618
 20
229.558400000000010
 11
52.9994
 21
224.949600000000000
  0
LINE
  8
PT4-Rzut7
  6
CONTINUOUS
 62
     7
 10
59.1757
 20
222.642499999999980
 11
67.8606
 21
245.883100000000010
  0
LINE
  8
PT4-Rzut7
  6
CONTINUOUS
 62
     7
 10
67.8606
 20
245.883100000000010
 11
72.1198
 21
244.291699999999990
  0
LINE
  8
PT4-Rzut7
  6
CONTINUOUS
 62
     7
 10
72.1197
 20
244.291400000000010
 11
75.1262
 21
252.336700000000010
  0
LINE
  8
PT4-Rzut7
  6
CONTINUOUS
 62
     7
 10
75.1265
 20
252.336600000000000
 11
70.7487
 21
253.972299999999990
  0
LINE
  8
PT4-Rzut7
  6
CONTINUOUS
 62
     7
 10
70.7489
 20
253.972600000000000
 11
70.2469
 21
252.629500000000010
  0
LINE
  8
PT4-Rzut7
  6
CONTINUOUS
 62
     7
 10
70.2469
 20
252.629500000000010
 11
51.8484
 21
259.503800000000010
  0
LINE
  8
PT4-Rzut7
  6
CONTINUOUS
 62
     7
 10
51.8484
 20
259.503800000000010
 11
50.1999
 21
255.090800000000000
  0
LINE
  8
PT4-Rzut7
  6
CONTINUOUS
 62
     7
 10
50.2
 20
255.091000000000010
 11
40.6621
 21
229.558200000000000
  0
LINE
  8
PT4-Rzut7
  6
CONTINUOUS
 62
     7
 10
40.6618
 20
229.558400000000010
 11
52.9994
 21
224.949600000000000
  0
LINE
  8
PT4-Rzut7
  6
CONTINUOUS
 62
     7
 10
50.2
 20
255.091000000000010
 11
40.6621
 21
229.558200000000000
  0
LINE
  8
PT4-Rzut7
  6
CONTINUOUS
 62
     7
 10
40.6618
 20
229.558400000000010
 11
59.1757
 21
222.642499999999980
  0
LINE
  8
PT4-Rzut7
  6
CONTINUOUS
 62
     7
 10
59.1757
 20
222.642499999999980
 11
58.7355
 21
221.286100000000000
  0
POLYLINE
  8
PT4-Rzut7
  6
CONTINUOUS
 62
     7
 66
     1
 70
     1
  0
VERTEX
  8
PT4-Rzut7
 10
40.6621
 20
229.558200000000000
  0
VERTEX
  8
PT4-Rzut7
 10
59.1757
 20
222.642499999999980
  0
VERTEX
  8
PT4-Rzut7
 10
67.8606
 20
245.883100000000010
  0
VERTEX
  8
PT4-Rzut7
 10
72.1197
 20
244.291400000000010
  0
VERTEX
  8
PT4-Rzut7
 10
75.1265
 20
252.336600000000000
  0
VERTEX
  8
PT4-Rzut7
 10
70.7489
 20
253.972600000000000
  0
VERTEX
  8
PT4-Rzut7
 10
70.2573
 20
252.657199999999990
  0
VERTEX
  8
PT4-Rzut7
 10
51.8484
 20
259.503800000000010
  0
SEQEND
  8
PT4-Rzut7
  0
POLYLINE
  8
PT1-Tabelka_rysu1
  6
CONTINUOUS
 62
     7
 66
     1
 70
     1
  0
VERTEX
  8
PT1-Tabelka_rysu1
 10
307.2697
 20
5.298400000000015
  0
VERTEX
  8
PT1-Tabelka_rysu1
 10
379.2364
 20
5.298400000000015
  0
VERTEX
  8
PT1-Tabelka_rysu1
 10
379.2364
 20
6.356699999999989
  0
VERTEX
  8
PT1-Tabelka_rysu1
 10
307.2697
 20
6.356699999999989
  0
SEQEND
  8
PT1-Tabelka_rysu1
  0
LINE
  8
PT1-Tabelka_rysu1
  6
CONTINUOUS
 62
     7
 10
306.2114
 20
6.356600000000015
 11
378.1781
 21
6.356600000000015
  0
LINE
  8
PT1-Tabelka_rysu1
  6
CONTINUOUS
 62
     7
 10
306.9169
 20
7.062200000000019
 11
377.4725
 21
7.062200000000019
  0
LINE
  8
PT1-Tabelka_rysu1
  6
CONTINUOUS
 62
     7
 10
377.4725
 20
7.062200000000019
 11
377.4725
 21
52.217800000000011
  0
LINE
  8
PT1-Tabelka_rysu1
  6
CONTINUOUS
 62
     7
 10
377.4725
 20
52.217800000000011
 11
306.9169
 21
52.217800000000011
  0
LINE
  8
PT1-Tabelka_rysu1
  6
CONTINUOUS
 62
     7
 10
306.9169
 20
7.062200000000019
 11
306.9169
 21
52.217800000000011
  0
LINE
  8
PT1-Tabelka_rysu1
  6
CONTINUOUS
 62
     7
 10
306.9169
 20
23.995599999999996
 11
377.4725
 21
23.995599999999996
  0
TEXT
  8
PT1-Tabelka_rysu1
  6
CONTINUOUS
 62
     7
 10
307.622500000000000
 20
21.845200000000006
 40
1.797600000000000
  1
Skala:
  0
TEXT
  8
PT1-Tabelka_rysu1
  6
CONTINUOUS
 62
     7
 10
307.622500000000000
 20
21.845200000000006
 40
1.797600000000000
  1
1 : 100
  0
LINE
  8
PT1-Tabelka_rysu1
  6
CONTINUOUS
 62
     7
 10
330.2003
 20
23.995599999999996
 11
330.2003
 21
20.467800000000011
  0
TEXT
  8
PT1-Tabelka_rysu1
  6
CONTINUOUS
 62
     7
 10
330.905800000000000
 20
21.845200000000006
 40
1.797600000000000
  1
Data:
  0
TEXT
  8
PT1-Tabelka_rysu1
  6
CONTINUOUS
 62
     7
 10
330.905800000000000
 20
21.845200000000006
 40
1.797600000000000
  1
07.2004
  0
LINE
  8
PT1-Tabelka_rysu1
  6
CONTINUOUS
 62
     7
 10
353.4836
 20
23.995599999999996
 11
353.4836
 21
20.467800000000011
  0
TEXT
  8
PT1-Tabelka_rysu1
  6
CONTINUOUS
 62
     7
 10
354.488800000000030
 20
21.845200000000006
 40
1.797600000000000
  1
02-P-04/K
  0
LINE
  8
PT1-Tabelka_rysu1
  6
CONTINUOUS
 62
     7
 10
306.9169
 20
27.523300000000006
 11
377.4725
 21
27.523300000000006
  0
TEXT
  8
PT1-Tabelka_rysu1
  6
CONTINUOUS
 62
     7
 10
307.622500000000000
 20
25.373000000000019
 40
1.797600000000000
  1
Branża: konstrukcyjna
  0
TEXT
  8
PT1-Tabelka_rysu1
  6
CONTINUOUS
 62
     7
 10
307.622500000000000
 20
49.714600000000019
 40
1.797600000000000
  1
Projekt: Rozbudowa Szkoły Podstawowej i Gimnazjum
  0
TEXT
  8
PT1-Tabelka_rysu1
  6
CONTINUOUS
 62
     7
 10
307.622500000000000
 20
47.018200000000007
 40
1.797600000000000
  1
              w Rzerzęczycach
  0
LINE
  8
PT1-Tabelka_rysu1
  6
CONTINUOUS
 62
     7
 10
306.9169
 20
44.103900000000010
 11
377.4725
 21
44.103900000000010
  0
TEXT
  8
PT1-Tabelka_rysu1
  6
CONTINUOUS
 62
     7
 10
307.772299999999970
 20
41.600700000000018
 40
1.797600000000000
  1
Inwestor: Urząd Gminy w Kłomnicach
  0
TEXT
  8
PT1-Tabelka_rysu1
  6
CONTINUOUS
 62
     7
 10
307.772299999999970
 20
38.904300000000006
 40
1.797600000000000
  1
                ul. Strażacka 20, 42-270 Kłomnice
  0
LINE
  8
PT1-Tabelka_rysu1
  6
CONTINUOUS
 62
     7
 10
306.9169
 20
35.990000000000009
 11
377.4725
 21
35.990000000000009
  0
TEXT
  8
PT1-Tabelka_rysu1
  6
CONTINUOUS
 62
     7
 10
307.622500000000000
 20
34.076400000000007
 40
1.797600000000000
  1
Projektował: Elżbieta Ochocka UAN-VIII/83861/146/87
  0
TEXT
  8
PT1-Tabelka_rysu1
  6
CONTINUOUS
 62
     7
 10
319.264099999999980
 20
38.073000000000008
 40
1.797600000000000
  1
 
  0
LINE
  8
PT1-Tabelka_rysu1
  6
CONTINUOUS
 62
     7
 10
306.9169
 20
20.467800000000011
 11
377.4725
 21
20.467800000000011
  0
TEXT
  8
PT1-Tabelka_rysu1
  6
CONTINUOUS
 62
     7
 10
307.622500000000000
 20
17.611800000000017
 40
1.797600000000000
  1

  0
TEXT
  8
PT1-Tabelka_rysu1
  6
CONTINUOUS
 62
     7
 10
307.545900000000020
 20
31.181400000000025
 40
1.797600000000000
  1
Sprawdził: Stanisław Kret UAN-VIII-7342/199/94
  0
TEXT
  8
PT1-Tabelka_rysu1
  6
CONTINUOUS
 62
     7
 10
307.630100000000030
 20
28.401900000000012
 40
1.797600000000000
  1
Opracował: Michał Urbańczyk
  0
TEXT
  8
PT1-Tabelka_rysu1
  6
CONTINUOUS
 62
     7
 10
307.673999999999980
 20
18.088999999999999
 40
1.797600000000000
  1
Nazwa rysunku:
  0
TEXT
  8
PT1-Tabelka_rysu1
  6
CONTINUOUS
 62
     7
 10
307.333199999999980
 20
8.852599999999995
 40
2.500000000000000
  1
RZUT FUNDAMENTÓW
  0
TEXT
  8
PT1-Tabelka_rysu1
  6
CONTINUOUS
 62
     7
 10
307.297399999999980
 20
13.306500000000028
 40
2.500000000000000
  1
Sala gimnastyczna
  0
LINE
  8
PT5-Rzut10
  6
CONTINUOUS
 62
     7
 10
262.6554
 20
149.202200000000000
 11
283.2627
 21
204.346000000000000
  0
LINE
  8
PT5-Rzut10
  6
CONTINUOUS
 62
     7
 10
277.5379
 20
200.453700000000000
 11
280.9159
 21
209.492999999999990
  0
LINE
  8
PT5-Rzut10
  6
CONTINUOUS
 62
     7
 10
277.5379
 20
200.453700000000000
 11
278.4747
 21
200.103700000000000
  0
LINE
  8
PT4-Rzut7
  6
CONTINUOUS
 62
     7
 10
278.4747
 20
200.103700000000000
 11
277.5379
 21
200.453700000000000
  0
LINE
  8
PT4-Rzut7
  6
CONTINUOUS
 62
     7
 10
277.5379
 20
200.453700000000000
 11
281.441
 21
210.898100000000000
  0
ENDSEC
  0
EOF
