  0
SECTION
  2
HEADER
  9
$ACADVER
  1
AC1015
  9
$ACADMAINTVER
 70
     6
  9
$DWGCODEPAGE
  3
ANSI_1250
  9
$INSBASE
 10
0.0
 20
0.0
 30
0.0
  9
$EXTMIN
 10
0.0453368479108276
 20
-0.448363186025591
 30
0.0
  9
$EXTMAX
 10
10.28074102386156
 20
7.107640515222442
 30
0.0
  9
$LIMMIN
 10
-0.3
 20
-0.125
  9
$LIMMAX
 10
10.2
 20
7.3
  9
$ORTHOMODE
 70
     0
  9
$REGENMODE
 70
     1
  9
$FILLMODE
 70
     1
  9
$QTEXTMODE
 70
     0
  9
$MIRRTEXT
 70
     1
  9
$LTSCALE
 40
0.025
  9
$ATTMODE
 70
     1
  9
$TEXTSIZE
 40
0.2
  9
$TRACEWID
 40
0.05
  9
$TEXTSTYLE
  7
Standard
  9
$CLAYER
  8
0
  9
$CELTYPE
  6
ByLayer
  9
$CECOLOR
 62
   256
  9
$CELTSCALE
 40
1.0
  9
$DISPSILH
 70
     0
  9
$DIMSCALE
 40
1.0
  9
$DIMASZ
 40
0.18
  9
$DIMEXO
 40
0.0625
  9
$DIMDLI
 40
0.38
  9
$DIMRND
 40
0.0
  9
$DIMDLE
 40
0.0
  9
$DIMEXE
 40
0.18
  9
$DIMTP
 40
0.0
  9
$DIMTM
 40
0.0
  9
$DIMTXT
 40
0.18
  9
$DIMCEN
 40
0.09
  9
$DIMTSZ
 40
0.0
  9
$DIMTOL
 70
     0
  9
$DIMLIM
 70
     0
  9
$DIMTIH
 70
     1
  9
$DIMTOH
 70
     1
  9
$DIMSE1
 70
     0
  9
$DIMSE2
 70
     0
  9
$DIMTAD
 70
     0
  9
$DIMZIN
 70
     0
  9
$DIMBLK
  1

  9
$DIMASO
 70
     1
  9
$DIMSHO
 70
     1
  9
$DIMPOST
  1

  9
$DIMAPOST
  1

  9
$DIMALT
 70
     0
  9
$DIMALTD
 70
     2
  9
$DIMALTF
 40
25.4
  9
$DIMLFAC
 40
1.0
  9
$DIMTOFL
 70
     0
  9
$DIMTVP
 40
0.0
  9
$DIMTIX
 70
     0
  9
$DIMSOXD
 70
     0
  9
$DIMSAH
 70
     0
  9
$DIMBLK1
  1

  9
$DIMBLK2
  1

  9
$DIMSTYLE
  2
Standard
  9
$DIMCLRD
 70
     0
  9
$DIMCLRE
 70
     0
  9
$DIMCLRT
 70
     0
  9
$DIMTFAC
 40
1.0
  9
$DIMGAP
 40
0.09
  9
$DIMJUST
 70
     0
  9
$DIMSD1
 70
     0
  9
$DIMSD2
 70
     0
  9
$DIMTOLJ
 70
     1
  9
$DIMTZIN
 70
     0
  9
$DIMALTZ
 70
     0
  9
$DIMALTTZ
 70
     0
  9
$DIMUPT
 70
     0
  9
$DIMDEC
 70
     4
  9
$DIMTDEC
 70
     4
  9
$DIMALTU
 70
     2
  9
$DIMALTTD
 70
     2
  9
$DIMTXSTY
  7
Standard
  9
$DIMAUNIT
 70
     0
  9
$DIMADEC
 70
     0
  9
$DIMALTRND
 40
0.0
  9
$DIMAZIN
 70
     0
  9
$DIMDSEP
 70
    46
  9
$DIMATFIT
 70
     3
  9
$DIMFRAC
 70
     0
  9
$DIMLDRBLK
  1

  9
$DIMLUNIT
 70
     2
  9
$DIMLWD
 70
    -2
  9
$DIMLWE
 70
    -2
  9
$DIMTMOVE
 70
     0
  9
$LUNITS
 70
     2
  9
$LUPREC
 70
     4
  9
$SKETCHINC
 40
0.1
  9
$FILLETRAD
 40
0.5
  9
$AUNITS
 70
     0
  9
$AUPREC
 70
     0
  9
$MENU
  1
.
  9
$ELEVATION
 40
0.0
  9
$PELEVATION
 40
0.0
  9
$THICKNESS
 40
0.0
  9
$LIMCHECK
 70
     0
  9
$CHAMFERA
 40
0.5
  9
$CHAMFERB
 40
0.5
  9
$CHAMFERC
 40
1.0
  9
$CHAMFERD
 40
0.0
  9
$SKPOLY
 70
     0
  9
$TDCREATE
 40
2454357.439204815
  9
$TDUCREATE
 40
2454357.355871481
  9
$TDUPDATE
 40
2454357.439204827
  9
$TDUUPDATE
 40
2454357.355871493
  9
$TDINDWG
 40
0.0000000116
  9
$TDUSRTIMER
 40
0.0000000116
  9
$USRTIMER
 70
     1
  9
$ANGBASE
 50
0.0
  9
$ANGDIR
 70
     0
  9
$PDMODE
 70
     0
  9
$PDSIZE
 40
0.0
  9
$PLINEWID
 40
0.0
  9
$SPLFRAME
 70
     0
  9
$SPLINETYPE
 70
     6
  9
$SPLINESEGS
 70
     8
  9
$HANDSEED
  5
43A
  9
$SURFTAB1
 70
     6
  9
$SURFTAB2
 70
     6
  9
$SURFTYPE
 70
     6
  9
$SURFU
 70
     6
  9
$SURFV
 70
     6
  9
$UCSBASE
  2

  9
$UCSNAME
  2

  9
$UCSORG
 10
0.0
 20
0.0
 30
0.0
  9
$UCSXDIR
 10
1.0
 20
0.0
 30
0.0
  9
$UCSYDIR
 10
0.0
 20
1.0
 30
0.0
  9
$UCSORTHOREF
  2

  9
$UCSORTHOVIEW
 70
     0
  9
$UCSORGTOP
 10
0.0
 20
0.0
 30
0.0
  9
$UCSORGBOTTOM
 10
0.0
 20
0.0
 30
0.0
  9
$UCSORGLEFT
 10
0.0
 20
0.0
 30
0.0
  9
$UCSORGRIGHT
 10
0.0
 20
0.0
 30
0.0
  9
$UCSORGFRONT
 10
0.0
 20
0.0
 30
0.0
  9
$UCSORGBACK
 10
0.0
 20
0.0
 30
0.0
  9
$PUCSBASE
  2

  9
$PUCSNAME
  2

  9
$PUCSORG
 10
0.0
 20
0.0
 30
0.0
  9
$PUCSXDIR
 10
1.0
 20
0.0
 30
0.0
  9
$PUCSYDIR
 10
0.0
 20
1.0
 30
0.0
  9
$PUCSORTHOREF
  2

  9
$PUCSORTHOVIEW
 70
     0
  9
$PUCSORGTOP
 10
0.0
 20
0.0
 30
0.0
  9
$PUCSORGBOTTOM
 10
0.0
 20
0.0
 30
0.0
  9
$PUCSORGLEFT
 10
0.0
 20
0.0
 30
0.0
  9
$PUCSORGRIGHT
 10
0.0
 20
0.0
 30
0.0
  9
$PUCSORGFRONT
 10
0.0
 20
0.0
 30
0.0
  9
$PUCSORGBACK
 10
0.0
 20
0.0
 30
0.0
  9
$USERI1
 70
     0
  9
$USERI2
 70
     0
  9
$USERI3
 70
     0
  9
$USERI4
 70
     0
  9
$USERI5
 70
     0
  9
$USERR1
 40
0.0
  9
$USERR2
 40
0.0
  9
$USERR3
 40
0.0
  9
$USERR4
 40
0.0
  9
$USERR5
 40
0.0
  9
$WORLDVIEW
 70
     1
  9
$SHADEDGE
 70
     3
  9
$SHADEDIF
 70
    70
  9
$TILEMODE
 70
     1
  9
$MAXACTVP
 70
    64
  9
$PINSBASE
 10
0.0
 20
0.0
 30
0.0
  9
$PLIMCHECK
 70
     0
  9
$PEXTMIN
 10
1.000000000000000E+20
 20
1.000000000000000E+20
 30
1.000000000000000E+20
  9
$PEXTMAX
 10
-1.000000000000000E+20
 20
-1.000000000000000E+20
 30
-1.000000000000000E+20
  9
$PLIMMIN
 10
0.0
 20
0.0
  9
$PLIMMAX
 10
12.0
 20
9.0
  9
$UNITMODE
 70
     0
  9
$VISRETAIN
 70
     1
  9
$PLINEGEN
 70
     0
  9
$PSLTSCALE
 70
     1
  9
$TREEDEPTH
 70
  3020
  9
$CMLSTYLE
  2
Standard
  9
$CMLJUST
 70
     0
  9
$CMLSCALE
 40
1.0
  9
$PROXYGRAPHICS
 70
     1
  9
$MEASUREMENT
 70
     1
  9
$CELWEIGHT
370
    -1
  9
$ENDCAPS
280
     0
  9
$JOINSTYLE
280
     0
  9
$LWDISPLAY
290
     0
  9
$INSUNITS
 70
     6
  9
$HYPERLINKBASE
  1

  9
$STYLESHEET
  1

  9
$XEDIT
290
     1
  9
$CEPSNTYPE
380
     0
  9
$PSTYLEMODE
290
     1
  9
$FINGERPRINTGUID
  2
{4A43F3FF-95C6-42C5-A206-A71589C4D49E}
  9
$VERSIONGUID
  2
{FAEB1C32-E019-11D5-929B-00C0DF256EC4}
  9
$EXTNAMES
290
     1
  9
$PSVPSCALE
 40
0.0
  9
$OLESTARTUP
290
     0
  0
ENDSEC
  0
SECTION
  2
CLASSES
  0
CLASS
  1
ACDBDICTIONARYWDFLT
  2
AcDbDictionaryWithDefault
  3
ObjectDBX Classes
 90
        0
280
     0
281
     0
  0
CLASS
  1
ACDBPLACEHOLDER
  2
AcDbPlaceHolder
  3
ObjectDBX Classes
 90
        0
280
     0
281
     0
  0
CLASS
  1
LAYOUT
  2
AcDbLayout
  3
ObjectDBX Classes
 90
        0
280
     0
281
     0
  0
ENDSEC
  0
SECTION
  2
TABLES
  0
TABLE
  2
VPORT
  5
8
330
0
100
AcDbSymbolTable
 70
     1
  0
VPORT
  5
29
330
8
100
AcDbSymbolTableRecord
100
AcDbViewportTableRecord
  2
*Active
 70
     0
 10
0.0
 20
0.0
 11
1.0
 21
1.0
 12
4.949999999999999
 22
3.5875
 13
0.0
 23
0.0
 14
0.5
 24
0.5
 15
0.5
 25
0.5
 16
0.0
 26
0.0
 36
1.0
 17
0.0
 27
0.0
 37
0.0
 40
7.425
 41
1.414141414141414
 42
50.0
 43
0.0
 44
0.0
 50
0.0
 51
0.0
 71
     0
 72
   100
 73
     1
 74
     3
 75
     0
 76
     0
 77
     0
 78
     0
281
     0
 65
     1
110
0.0
120
0.0
130
0.0
111
1.0
121
0.0
131
0.0
112
0.0
122
1.0
132
0.0
 79
     0
146
0.0
  0
ENDTAB
  0
TABLE
  2
LTYPE
  5
5
330
0
100
AcDbSymbolTable
 70
     3
  0
LTYPE
  5
14
330
5
100
AcDbSymbolTableRecord
100
AcDbLinetypeTableRecord
  2
ByBlock
 70
     0
  3

 72
    65
 73
     0
 40
0.0
  0
LTYPE
  5
15
330
5
100
AcDbSymbolTableRecord
100
AcDbLinetypeTableRecord
  2
ByLayer
 70
     0
  3

 72
    65
 73
     0
 40
0.0
  0
LTYPE
  5
16
330
5
100
AcDbSymbolTableRecord
100
AcDbLinetypeTableRecord
  2
Continuous
 70
     0
  3
Solid line
 72
    65
 73
     0
 40
0.0
  0
LTYPE
  5
274
330
5
100
AcDbSymbolTableRecord
100
AcDbLinetypeTableRecord
  2
GESTRICHELT
 70
     0
  3
???
 72
    65
 73
     2
 40
4.000000134110451
 49
3.00000011920929
 74
     0
 49
-1.000000014901161
 74
     0
  0
LTYPE
  5
288
330
5
100
AcDbSymbolTableRecord
100
AcDbLinetypeTableRecord
  2
STRICHPUNKT
 70
     0
  3
???
 72
    65
 73
     4
 40
3.000000044703484
 49
1.000000014901161
 74
     0
 49
-1.000000014901161
 74
     0
 49
0.0
 74
     0
 49
-1.000000014901161
 74
     0
  0
ENDTAB
  0
TABLE
  2
LAYER
  5
2
330
0
100
AcDbSymbolTable
 70
     4
  0
LAYER
  5
10
330
2
100
AcDbSymbolTableRecord
100
AcDbLayerTableRecord
  2
0
 70
     0
 62
     7
  6
Continuous
370
    -3
390
F
  0
LAYER
  5
2B
330
2
100
AcDbSymbolTableRecord
100
AcDbLayerTableRecord
  2
PATTERN_CLASS
 70
     0
 62
     7
  6
Continuous
370
    -3
390
F
  0
LAYER
  5
31
330
2
100
AcDbSymbolTableRecord
100
AcDbLayerTableRecord
  2
BUDOWLE$I$BUDYNKI-5
 70
     0
 62
     7
  6
Continuous
370
    -3
390
F
  0
LAYER
  5
63
330
2
100
AcDbSymbolTableRecord
100
AcDbLayerTableRecord
  2
Siatka
 70
     0
 62
     7
  6
Continuous
370
    -3
390
F
  0
ENDTAB
  0
TABLE
  2
STYLE
  5
3
330
0
100
AcDbSymbolTable
 70
     3
  0
STYLE
  5
11
330
3
100
AcDbSymbolTableRecord
100
AcDbTextStyleTableRecord
  2
Standard
 70
     0
 40
0.0
 41
1.0
 50
0.0
 71
     0
 42
0.2
  3
txt
  4

  0
STYLE
  5
2A
330
3
100
AcDbSymbolTableRecord
100
AcDbTextStyleTableRecord
  2
STIL17
 70
     0
 40
0.0
 41
1.0
 50
0.0
 71
     0
 42
0.2
  3

  4

1001
ACAD
1000
Bookman Old Style
1071
    60944
  0
STYLE
  5
30
330
3
100
AcDbSymbolTableRecord
100
AcDbTextStyleTableRecord
  2
STIL10
 70
     0
 40
0.0
 41
1.0
 50
0.0
 71
     0
 42
0.2
  3

  4

1001
ACAD
1000
Arial
1071
    60960
  0
ENDTAB
  0
TABLE
  2
VIEW
  5
6
330
0
100
AcDbSymbolTable
 70
     0
  0
ENDTAB
  0
TABLE
  2
UCS
  5
7
330
0
100
AcDbSymbolTable
 70
     0
  0
ENDTAB
  0
TABLE
  2
APPID
  5
9
330
0
100
AcDbSymbolTable
 70
     1
  0
APPID
  5
12
330
9
100
AcDbSymbolTableRecord
100
AcDbRegAppTableRecord
  2
ACAD
 70
     0
  0
ENDTAB
  0
TABLE
  2
DIMSTYLE
  5
A
330
0
100
AcDbSymbolTable
 70
     1
100
AcDbDimStyleTable
  0
DIMSTYLE
105
27
330
A
100
AcDbSymbolTableRecord
100
AcDbDimStyleTableRecord
  2
Standard
 70
     0
340
11
  0
ENDTAB
  0
TABLE
  2
BLOCK_RECORD
  5
1
330
0
100
AcDbSymbolTable
 70
    32
  0
BLOCK_RECORD
  5
1F
330
1
100
AcDbSymbolTableRecord
100
AcDbBlockTableRecord
  2
*Model_Space
340
22
  0
BLOCK_RECORD
  5
1B
330
1
100
AcDbSymbolTableRecord
100
AcDbBlockTableRecord
  2
*Paper_Space
340
1E
  0
BLOCK_RECORD
  5
23
330
1
100
AcDbSymbolTableRecord
100
AcDbBlockTableRecord
  2
*Paper_Space0
340
26
  0
BLOCK_RECORD
  5
AE
330
1
100
AcDbSymbolTableRecord
100
AcDbBlockTableRecord
  2
*U1
340
0
102
{BLKREFS
331
BD
102
}
  0
BLOCK_RECORD
  5
BE
330
1
100
AcDbSymbolTableRecord
100
AcDbBlockTableRecord
  2
*U2
340
0
102
{BLKREFS
331
C7
102
}
  0
BLOCK_RECORD
  5
C8
330
1
100
AcDbSymbolTableRecord
100
AcDbBlockTableRecord
  2
*U3
340
0
102
{BLKREFS
331
D7
102
}
  0
BLOCK_RECORD
  5
D8
330
1
100
AcDbSymbolTableRecord
100
AcDbBlockTableRecord
  2
*U4
340
0
102
{BLKREFS
331
ED
102
}
  0
BLOCK_RECORD
  5
EE
330
1
100
AcDbSymbolTableRecord
100
AcDbBlockTableRecord
  2
*U5
340
0
102
{BLKREFS
331
FD
102
}
  0
BLOCK_RECORD
  5
FE
330
1
100
AcDbSymbolTableRecord
100
AcDbBlockTableRecord
  2
*U6
340
0
102
{BLKREFS
331
10D
102
}
  0
BLOCK_RECORD
  5
10E
330
1
100
AcDbSymbolTableRecord
100
AcDbBlockTableRecord
  2
*U7
340
0
102
{BLKREFS
331
117
102
}
  0
BLOCK_RECORD
  5
118
330
1
100
AcDbSymbolTableRecord
100
AcDbBlockTableRecord
  2
*U8
340
0
102
{BLKREFS
331
121
102
}
  0
BLOCK_RECORD
  5
122
330
1
100
AcDbSymbolTableRecord
100
AcDbBlockTableRecord
  2
*U9
340
0
102
{BLKREFS
331
12B
102
}
  0
BLOCK_RECORD
  5
12C
330
1
100
AcDbSymbolTableRecord
100
AcDbBlockTableRecord
  2
*U10
340
0
102
{BLKREFS
331
135
102
}
  0
BLOCK_RECORD
  5
136
330
1
100
AcDbSymbolTableRecord
100
AcDbBlockTableRecord
  2
*U11
340
0
102
{BLKREFS
331
145
102
}
  0
BLOCK_RECORD
  5
146
330
1
100
AcDbSymbolTableRecord
100
AcDbBlockTableRecord
  2
*U12
340
0
102
{BLKREFS
331
14F
102
}
  0
BLOCK_RECORD
  5
150
330
1
100
AcDbSymbolTableRecord
100
AcDbBlockTableRecord
  2
*U13
340
0
102
{BLKREFS
331
159
102
}
  0
BLOCK_RECORD
  5
15A
330
1
100
AcDbSymbolTableRecord
100
AcDbBlockTableRecord
  2
*U14
340
0
102
{BLKREFS
331
163
102
}
  0
BLOCK_RECORD
  5
164
330
1
100
AcDbSymbolTableRecord
100
AcDbBlockTableRecord
  2
*U15
340
0
102
{BLKREFS
331
182
102
}
  0
BLOCK_RECORD
  5
183
330
1
100
AcDbSymbolTableRecord
100
AcDbBlockTableRecord
  2
*U16
340
0
102
{BLKREFS
331
192
102
}
  0
BLOCK_RECORD
  5
193
330
1
100
AcDbSymbolTableRecord
100
AcDbBlockTableRecord
  2
*U17
340
0
102
{BLKREFS
331
19C
102
}
  0
BLOCK_RECORD
  5
19D
330
1
100
AcDbSymbolTableRecord
100
AcDbBlockTableRecord
  2
*U18
340
0
102
{BLKREFS
331
1A6
102
}
  0
BLOCK_RECORD
  5
1A7
330
1
100
AcDbSymbolTableRecord
100
AcDbBlockTableRecord
  2
*U19
340
0
102
{BLKREFS
331
1B3
102
}
  0
BLOCK_RECORD
  5
1B4
330
1
100
AcDbSymbolTableRecord
100
AcDbBlockTableRecord
  2
*U20
340
0
102
{BLKREFS
331
1C9
102
}
  0
BLOCK_RECORD
  5
1CA
330
1
100
AcDbSymbolTableRecord
100
AcDbBlockTableRecord
  2
*U21
340
0
102
{BLKREFS
331
1D3
102
}
  0
BLOCK_RECORD
  5
1D4
330
1
100
AcDbSymbolTableRecord
100
AcDbBlockTableRecord
  2
*U22
340
0
102
{BLKREFS
331
1E3
102
}
  0
BLOCK_RECORD
  5
1E4
330
1
100
AcDbSymbolTableRecord
100
AcDbBlockTableRecord
  2
*U23
340
0
102
{BLKREFS
331
1ED
102
}
  0
BLOCK_RECORD
  5
1EE
330
1
100
AcDbSymbolTableRecord
100
AcDbBlockTableRecord
  2
*U24
340
0
102
{BLKREFS
331
1FD
102
}
  0
BLOCK_RECORD
  5
1FE
330
1
100
AcDbSymbolTableRecord
100
AcDbBlockTableRecord
  2
*U25
340
0
102
{BLKREFS
331
20D
102
}
  0
BLOCK_RECORD
  5
20E
330
1
100
AcDbSymbolTableRecord
100
AcDbBlockTableRecord
  2
*U26
340
0
102
{BLKREFS
331
21D
102
}
  0
BLOCK_RECORD
  5
21E
330
1
100
AcDbSymbolTableRecord
100
AcDbBlockTableRecord
  2
*U27
340
0
102
{BLKREFS
331
22D
102
}
  0
BLOCK_RECORD
  5
22E
330
1
100
AcDbSymbolTableRecord
100
AcDbBlockTableRecord
  2
*U28
340
0
102
{BLKREFS
331
237
102
}
  0
BLOCK_RECORD
  5
238
330
1
100
AcDbSymbolTableRecord
100
AcDbBlockTableRecord
  2
*U29
340
0
102
{BLKREFS
331
247
102
}
  0
BLOCK_RECORD
  5
248
330
1
100
AcDbSymbolTableRecord
100
AcDbBlockTableRecord
  2
*U30
340
0
102
{BLKREFS
331
254
102
}
  0
BLOCK_RECORD
  5
255
330
1
100
AcDbSymbolTableRecord
100
AcDbBlockTableRecord
  2
*U31
340
0
102
{BLKREFS
331
267
102
}
  0
ENDTAB
  0
ENDSEC
  0
SECTION
  2
BLOCKS
  0
BLOCK
  5
20
330
1F
100
AcDbEntity
  8
0
100
AcDbBlockBegin
  2
*Model_Space
 70
     0
 71
     0
 10
0.0
 20
0.0
 30
0.0
  3
*Model_Space
  1

  0
ENDBLK
  5
21
330
1F
100
AcDbEntity
  8
0
100
AcDbBlockEnd
  0
BLOCK
  5
1C
330
1B
100
AcDbEntity
 67
     1
  8
0
100
AcDbBlockBegin
  2
*Paper_Space
 70
     0
 71
     0
 10
0.0
 20
0.0
 30
0.0
  3
*Paper_Space
  1

  0
ENDBLK
  5
1D
330
1B
100
AcDbEntity
 67
     1
  8
0
100
AcDbBlockEnd
  0
BLOCK
  5
24
330
23
100
AcDbEntity
  8
0
100
AcDbBlockBegin
  2
*Paper_Space0
 70
     0
 71
     0
 10
0.0
 20
0.0
 30
0.0
  3
*Paper_Space0
  1

  0
ENDBLK
  5
25
330
23
100
AcDbEntity
  8
0
100
AcDbBlockEnd
  0
BLOCK
  5
AF
330
AE
100
AcDbEntity
  8
0
100
AcDbBlockBegin
  2
*U1
 70
     1
 71
     0
 10
0.9837515022961725
 20
2.724858404821589
 30
0.0
  3
*U1
  1

  0
LINE
  5
B1
330
AE
100
AcDbEntity
  8
Siatka
  6
Continuous
 62
     8
100
AcDbLine
 10
1.083751503786289
 20
2.743608405566647
 30
0.0
 11
1.083751503786289
 21
6.943608405566693
 31
0.0
  0
LINE
  5
B2
330
AE
100
AcDbEntity
  8
Siatka
  6
Continuous
 62
     8
100
AcDbLine
 10
1.108751504158818
 20
2.743608405566647
 30
0.0
 11
0.9837515022961725
 21
2.743608405566647
 31
0.0
  0
LINE
  5
B3
330
AE
100
AcDbEntity
  8
Siatka
  6
Continuous
 62
     4
100
AcDbLine
 10
1.102501504531347
 20
2.724858404821589
 30
0.0
 11
1.065001503041231
 21
2.762358406311705
 31
0.0
  0
LINE
  5
B4
330
AE
100
AcDbEntity
  8
Siatka
  6
Continuous
 62
     8
100
AcDbLine
 10
1.05875150341376
 20
4.803608405566592
 30
0.0
 11
1.183751505276405
 21
4.803608405566592
 31
0.0
  0
LINE
  5
B5
330
AE
100
AcDbEntity
  8
Siatka
  6
Continuous
 62
     4
100
AcDbLine
 10
1.102501504531347
 20
4.784858404821534
 30
0.0
 11
1.065001503041231
 21
4.822358406311651
 31
0.0
  0
TEXT
  5
B6
330
AE
100
AcDbEntity
  8
Siatka
 62
     3
100
AcDbText
 10
1.05875150341376
 20
3.684671254129468
 30
0.0
 40
0.0553571428571429
  1
2.06
 50
90.0
  7
STIL17
 72
     1
 11
1.05875150341376
 21
3.77360840556662
 31
0.0
100
AcDbText
  0
LINE
  5
B7
330
AE
100
AcDbEntity
  8
Siatka
  6
Continuous
 62
     8
100
AcDbLine
 10
1.05875150341376
 20
4.883608405566633
 30
0.0
 11
1.183751505276405
 21
4.883608405566633
 31
0.0
  0
LINE
  5
B8
330
AE
100
AcDbEntity
  8
Siatka
  6
Continuous
 62
     4
100
AcDbLine
 10
1.102501504531347
 20
4.864858404821575
 30
0.0
 11
1.065001503041231
 21
4.902358406311691
 31
0.0
  0
TEXT
  5
B9
330
AE
100
AcDbEntity
  8
Siatka
 62
     3
100
AcDbText
 10
1.05875150341376
 20
4.818395692853957
 30
0.0
 40
0.0553571428571429
  1
8
 50
90.0
  7
STIL17
 72
     1
 11
1.05875150341376
 21
4.84360840556667
 31
0.0
100
AcDbText
  0
LINE
  5
BA
330
AE
100
AcDbEntity
  8
Siatka
  6
Continuous
 62
     8
100
AcDbLine
 10
1.05875150341376
 20
6.943608405566693
 30
0.0
 11
1.183751505276405
 21
6.943608405566693
 31
0.0
  0
LINE
  5
BB
330
AE
100
AcDbEntity
  8
Siatka
  6
Continuous
 62
     4
100
AcDbLine
 10
1.102501504531347
 20
6.924858404821634
 30
0.0
 11
1.065001503041231
 21
6.962358406311751
 31
0.0
  0
TEXT
  5
BC
330
AE
100
AcDbEntity
  8
Siatka
 62
     3
100
AcDbText
 10
1.05875150341376
 20
5.824671254129455
 30
0.0
 40
0.0553571428571429
  1
2.06
 50
90.0
  7
STIL17
 72
     1
 11
1.05875150341376
 21
5.913608405566606
 31
0.0
100
AcDbText
  0
ENDBLK
  5
B0
330
AE
100
AcDbEntity
  8
0
100
AcDbBlockEnd
  0
BLOCK
  5
BF
330
BE
100
AcDbEntity
  8
0
100
AcDbBlockBegin
  2
*U2
 70
     1
 71
     0
 10
5.766183739318535
 20
1.403941491127512
 30
0.0
  3
*U2
  1

  0
LINE
  5
C1
330
BE
100
AcDbEntity
  8
PATTERN_CLASS
  6
Continuous
 62
     8
100
AcDbLine
 10
5.784933740063593
 20
1.428941491500041
 30
0.0
 11
6.234933740063639
 21
1.428941491500041
 31
0.0
  0
LINE
  5
C2
330
BE
100
AcDbEntity
  8
PATTERN_CLASS
  6
Continuous
 62
     8
100
AcDbLine
 10
5.784933740063593
 20
1.403941491127512
 30
0.0
 11
5.784933740063593
 21
1.528941492990157
 31
0.0
  0
LINE
  5
C3
330
BE
100
AcDbEntity
  8
PATTERN_CLASS
  6
Continuous
 62
     4
100
AcDbLine
 10
5.766183739318535
 20
1.410191490754983
 30
0.0
 11
5.803683740808651
 21
1.447691492245099
 31
0.0
  0
LINE
  5
C4
330
BE
100
AcDbEntity
  8
PATTERN_CLASS
  6
Continuous
 62
     8
100
AcDbLine
 10
6.234933740063639
 20
1.403941491127512
 30
0.0
 11
6.234933740063639
 21
1.528941492990157
 31
0.0
  0
LINE
  5
C5
330
BE
100
AcDbEntity
  8
PATTERN_CLASS
  6
Continuous
 62
     4
100
AcDbLine
 10
6.216183739318581
 20
1.410191490754983
 30
0.0
 11
6.253683740808697
 21
1.447691492245099
 31
0.0
  0
TEXT
  5
C6
330
BE
100
AcDbEntity
  8
PATTERN_CLASS
 62
     3
100
AcDbText
 10
5.960090146470022
 20
1.45394149187257
 30
0.0
 40
0.0553571428571429
  1
45
  7
STIL17
 72
     1
 11
6.009933740063616
 21
1.45394149187257
 31
0.0
100
AcDbText
  0
ENDBLK
  5
C0
330
BE
100
AcDbEntity
  8
0
100
AcDbBlockEnd
  0
BLOCK
  5
C9
330
C8
100
AcDbEntity
  8
0
100
AcDbBlockBegin
  2
*U3
 70
     1
 71
     0
 10
5.669635058886722
 20
2.724858404821589
 30
0.0
  3
*U3
  1

  0
LINE
  5
CB
330
C8
100
AcDbEntity
  8
PATTERN_CLASS
  6
Continuous
 62
     8
100
AcDbLine
 10
5.767313184259251
 20
2.743608405566647
 30
0.0
 11
5.767313184259251
 21
6.943608405566693
 31
0.0
  0
LINE
  5
CC
330
C8
100
AcDbEntity
  8
PATTERN_CLASS
  6
Continuous
 62
     8
100
AcDbLine
 10
5.742313183886722
 20
2.743608405566647
 30
0.0
 11
5.867313185749367
 21
2.743608405566647
 31
0.0
  0
LINE
  5
CD
330
C8
100
AcDbEntity
  8
PATTERN_CLASS
  6
Continuous
 62
     4
100
AcDbLine
 10
5.786063185004309
 20
2.724858404821589
 30
0.0
 11
5.748563183514193
 21
2.762358406311705
 31
0.0
  0
LINE
  5
CE
330
C8
100
AcDbEntity
  8
PATTERN_CLASS
  6
Continuous
 62
     8
100
AcDbLine
 10
5.742313183886722
 20
4.803608405566706
 30
0.0
 11
5.867313185749367
 21
4.803608405566706
 31
0.0
  0
LINE
  5
CF
330
C8
100
AcDbEntity
  8
PATTERN_CLASS
  6
Continuous
 62
     4
100
AcDbLine
 10
5.786063185004309
 20
4.784858404821648
 30
0.0
 11
5.748563183514193
 21
4.822358406311764
 31
0.0
  0
TEXT
  5
D0
330
C8
100
AcDbEntity
  8
PATTERN_CLASS
 62
     3
100
AcDbText
 10
5.742313183886722
 20
3.684671254129582
 30
0.0
 40
0.0553571428571429
  1
2.06
 50
90.0
  7
STIL17
 72
     1
 11
5.742313183886722
 21
3.773608405566733
 31
0.0
100
AcDbText
  0
LINE
  5
D1
330
C8
100
AcDbEntity
  8
PATTERN_CLASS
  6
Continuous
 62
     8
100
AcDbLine
 10
5.742313183886722
 20
4.883608405566633
 30
0.0
 11
5.867313185749367
 21
4.883608405566633
 31
0.0
  0
LINE
  5
D2
330
C8
100
AcDbEntity
  8
PATTERN_CLASS
  6
Continuous
 62
     4
100
AcDbLine
 10
5.786063185004309
 20
4.864858404821575
 30
0.0
 11
5.748563183514193
 21
4.902358406311691
 31
0.0
  0
TEXT
  5
D3
330
C8
100
AcDbEntity
  8
PATTERN_CLASS
 62
     3
100
AcDbText
 10
5.742313183886722
 20
4.818395692853957
 30
0.0
 40
0.0553571428571429
  1
8
 50
90.0
  7
STIL17
 72
     1
 11
5.742313183886722
 21
4.84360840556667
 31
0.0
100
AcDbText
  0
LINE
  5
D4
330
C8
100
AcDbEntity
  8
PATTERN_CLASS
  6
Continuous
 62
     8
100
AcDbLine
 10
5.742313183886722
 20
6.943608405566693
 30
0.0
 11
5.867313185749367
 21
6.943608405566693
 31
0.0
  0
LINE
  5
D5
330
C8
100
AcDbEntity
  8
PATTERN_CLASS
  6
Continuous
 62
     4
100
AcDbLine
 10
5.786063185004309
 20
6.924858404821634
 30
0.0
 11
5.748563183514193
 21
6.962358406311751
 31
0.0
  0
TEXT
  5
D6
330
C8
100
AcDbEntity
  8
PATTERN_CLASS
 62
     3
100
AcDbText
 10
5.742313183886722
 20
5.824671254129455
 30
0.0
 40
0.0553571428571429
  1
2.06
 50
90.0
  7
STIL17
 72
     1
 11
5.742313183886722
 21
5.913608405566606
 31
0.0
100
AcDbText
  0
ENDBLK
  5
CA
330
C8
100
AcDbEntity
  8
0
100
AcDbBlockEnd
  0
BLOCK
  5
D9
330
D8
100
AcDbEntity
  8
0
100
AcDbBlockBegin
  2
*U4
 70
     1
 71
     0
 10
5.237795890182156
 20
0.4944898853628956
 30
0.0
  3
*U4
  1

  0
LINE
  5
DB
330
D8
100
AcDbEntity
  8
Siatka
  6
Continuous
 62
     8
100
AcDbLine
 10
5.337795891672272
 20
0.5132398861079537
 30
0.0
 11
5.337795891672272
 21
0.9632398861079992
 31
0.0
  0
LINE
  5
DC
330
D8
100
AcDbEntity
  8
Siatka
  6
Continuous
 62
     8
100
AcDbLine
 10
5.362795892044801
 20
0.5132398861079537
 30
0.0
 11
5.237795890182156
 21
0.5132398861079537
 31
0.0
  0
LINE
  5
DD
330
D8
100
AcDbEntity
  8
Siatka
  6
Continuous
 62
     4
100
AcDbLine
 10
5.35654589241733
 20
0.4944898853628956
 30
0.0
 11
5.319045890927214
 21
0.5319898868530117
 31
0.0
  0
LINE
  5
DE
330
D8
100
AcDbEntity
  8
Siatka
  6
Continuous
 62
     8
100
AcDbLine
 10
5.362795892044801
 20
0.5882398861079992
 30
0.0
 11
5.237795890182156
 21
0.5882398861079992
 31
0.0
  0
LINE
  5
DF
330
D8
100
AcDbEntity
  8
Siatka
  6
Continuous
 62
     4
100
AcDbLine
 10
5.35654589241733
 20
0.5694898853629411
 30
0.0
 11
5.319045890927214
 21
0.6069898868530572
 31
0.0
  0
MTEXT
  5
E0
330
D8
100
AcDbEntity
  8
Siatka
 62
     3
100
AcDbMText
 10
5.285833078799742
 20
0.5087376986079765
 30
0.0
 40
0.0553571428571429
 41
0.0
 71
     4
 72
     1
  1
\A1;7{\H0.67x;\S5^ ;}
  7
STIL17
 11
6.123031769111886E-17
 21
1.0
 31
0.0
 73
     1
 44
1.0
  0
LINE
  5
E1
330
D8
100
AcDbEntity
  8
Siatka
  6
Continuous
 62
     8
100
AcDbLine
 10
5.362795892044801
 20
0.6382398861079537
 30
0.0
 11
5.237795890182156
 21
0.6382398861079537
 31
0.0
  0
LINE
  5
E2
330
D8
100
AcDbEntity
  8
Siatka
  6
Continuous
 62
     4
100
AcDbLine
 10
5.35654589241733
 20
0.6194898853628956
 30
0.0
 11
5.319045890927214
 21
0.6569898868530117
 31
0.0
  0
TEXT
  5
E3
330
D8
100
AcDbEntity
  8
Siatka
 62
     3
100
AcDbText
 10
5.312795891299743
 20
0.5873068101749005
 30
0.0
 40
0.0553571428571429
  1
5
 50
90.0
  7
STIL17
 72
     1
 11
5.312795891299743
 21
0.6132398861079764
 31
0.0
100
AcDbText
  0
LINE
  5
E4
330
D8
100
AcDbEntity
  8
Siatka
  6
Continuous
 62
     8
100
AcDbLine
 10
5.362795892044801
 20
0.8382398861079992
 30
0.0
 11
5.237795890182156
 21
0.8382398861079992
 31
0.0
  0
LINE
  5
E5
330
D8
100
AcDbEntity
  8
Siatka
  6
Continuous
 62
     4
100
AcDbLine
 10
5.35654589241733
 20
0.8194898853629411
 30
0.0
 11
5.319045890927214
 21
0.8569898868530572
 31
0.0
  0
TEXT
  5
E6
330
D8
100
AcDbEntity
  8
Siatka
 62
     3
100
AcDbText
 10
5.312795891299743
 20
0.6878698732379636
 30
0.0
 40
0.0553571428571429
  1
20
 50
90.0
  7
STIL17
 72
     1
 11
5.312795891299743
 21
0.7382398861079764
 31
0.0
100
AcDbText
  0
LINE
  5
E7
330
D8
100
AcDbEntity
  8
Siatka
  6
Continuous
 62
     8
100
AcDbLine
 10
5.362795892044801
 20
0.8882398861079537
 30
0.0
 11
5.237795890182156
 21
0.8882398861079537
 31
0.0
  0
LINE
  5
E8
330
D8
100
AcDbEntity
  8
Siatka
  6
Continuous
 62
     4
100
AcDbLine
 10
5.35654589241733
 20
0.8694898853628956
 30
0.0
 11
5.319045890927214
 21
0.9069898868530117
 31
0.0
  0
TEXT
  5
E9
330
D8
100
AcDbEntity
  8
Siatka
 62
     3
100
AcDbText
 10
5.312795891299743
 20
0.8373068101749005
 30
0.0
 40
0.0553571428571429
  1
5
 50
90.0
  7
STIL17
 72
     1
 11
5.312795891299743
 21
0.8632398861079764
 31
0.0
100
AcDbText
  0
LINE
  5
EA
330
D8
100
AcDbEntity
  8
Siatka
  6
Continuous
 62
     8
100
AcDbLine
 10
5.362795892044801
 20
0.9632398861079992
 30
0.0
 11
5.237795890182156
 21
0.9632398861079992
 31
0.0
  0
LINE
  5
EB
330
D8
100
AcDbEntity
  8
Siatka
  6
Continuous
 62
     4
100
AcDbLine
 10
5.35654589241733
 20
0.9444898853629411
 30
0.0
 11
5.319045890927214
 21
0.9819898868530572
 31
0.0
  0
MTEXT
  5
EC
330
D8
100
AcDbEntity
  8
Siatka
 62
     3
100
AcDbMText
 10
5.285833078799742
 20
0.8837376986079765
 30
0.0
 40
0.0553571428571429
 41
0.0
 71
     4
 72
     1
  1
\A1;7{\H0.67x;\S5^ ;}
  7
STIL17
 11
6.123031769111886E-17
 21
1.0
 31
0.0
 73
     1
 44
1.0
  0
ENDBLK
  5
DA
330
D8
100
AcDbEntity
  8
0
100
AcDbBlockEnd
  0
BLOCK
  5
EF
330
EE
100
AcDbEntity
  8
0
100
AcDbBlockBegin
  2
*U5
 70
     1
 71
     0
 10
5.386584600260335
 20
0.4944898853628956
 30
0.0
  3
*U5
  1

  0
LINE
  5
F1
330
EE
100
AcDbEntity
  8
Siatka
  6
Continuous
 62
     8
100
AcDbLine
 10
5.486584601750451
 20
0.5132398861079537
 30
0.0
 11
5.486584601750451
 21
0.9632398861079992
 31
0.0
  0
LINE
  5
F2
330
EE
100
AcDbEntity
  8
Siatka
  6
Continuous
 62
     8
100
AcDbLine
 10
5.51158460212298
 20
0.5132398861079537
 30
0.0
 11
5.386584600260335
 21
0.5132398861079537
 31
0.0
  0
LINE
  5
F3
330
EE
100
AcDbEntity
  8
Siatka
  6
Continuous
 62
     4
100
AcDbLine
 10
5.505334602495509
 20
0.4944898853628956
 30
0.0
 11
5.467834601005393
 21
0.5319898868530117
 31
0.0
  0
LINE
  5
F4
330
EE
100
AcDbEntity
  8
Siatka
  6
Continuous
 62
     8
100
AcDbLine
 10
5.51158460212298
 20
0.5882398861079992
 30
0.0
 11
5.386584600260335
 21
0.5882398861079992
 31
0.0
  0
LINE
  5
F5
330
EE
100
AcDbEntity
  8
Siatka
  6
Continuous
 62
     4
100
AcDbLine
 10
5.505334602495509
 20
0.5694898853629411
 30
0.0
 11
5.467834601005393
 21
0.6069898868530572
 31
0.0
  0
MTEXT
  5
F6
330
EE
100
AcDbEntity
  8
Siatka
 62
     3
100
AcDbMText
 10
5.434621788877921
 20
0.5087376986079765
 30
0.0
 40
0.0553571428571429
 41
0.0
 71
     4
 72
     1
  1
\A1;7{\H0.67x;\S5^ ;}
  7
STIL17
 11
6.123031769111886E-17
 21
1.0
 31
0.0
 73
     1
 44
1.0
  0
LINE
  5
F7
330
EE
100
AcDbEntity
  8
Siatka
  6
Continuous
 62
     8
100
AcDbLine
 10
5.51158460212298
 20
0.8882398861079537
 30
0.0
 11
5.386584600260335
 21
0.8882398861079537
 31
0.0
  0
LINE
  5
F8
330
EE
100
AcDbEntity
  8
Siatka
  6
Continuous
 62
     4
100
AcDbLine
 10
5.505334602495509
 20
0.8694898853628956
 30
0.0
 11
5.467834601005393
 21
0.9069898868530117
 31
0.0
  0
TEXT
  5
F9
330
EE
100
AcDbEntity
  8
Siatka
 62
     3
100
AcDbText
 10
5.461584601377922
 20
0.6879252857933761
 30
0.0
 40
0.0553571428571429
  1
30
 50
90.0
  7
STIL17
 72
     1
 11
5.461584601377922
 21
0.7382398861079764
 31
0.0
100
AcDbText
  0
LINE
  5
FA
330
EE
100
AcDbEntity
  8
Siatka
  6
Continuous
 62
     8
100
AcDbLine
 10
5.51158460212298
 20
0.9632398861079992
 30
0.0
 11
5.386584600260335
 21
0.9632398861079992
 31
0.0
  0
LINE
  5
FB
330
EE
100
AcDbEntity
  8
Siatka
  6
Continuous
 62
     4
100
AcDbLine
 10
5.505334602495509
 20
0.9444898853629411
 30
0.0
 11
5.467834601005393
 21
0.9819898868530572
 31
0.0
  0
MTEXT
  5
FC
330
EE
100
AcDbEntity
  8
Siatka
 62
     3
100
AcDbMText
 10
5.434621788877921
 20
0.8837376986079765
 30
0.0
 40
0.0553571428571429
 41
0.0
 71
     4
 72
     1
  1
\A1;7{\H0.67x;\S5^ ;}
  7
STIL17
 11
6.123031769111886E-17
 21
1.0
 31
0.0
 73
     1
 44
1.0
  0
ENDBLK
  5
F0
330
EE
100
AcDbEntity
  8
0
100
AcDbBlockEnd
  0
BLOCK
  5
FF
330
FE
100
AcDbEntity
  8
0
100
AcDbBlockBegin
  2
*U6
 70
     1
 71
     0
 10
4.68775090898987
 20
0.2477850139604243
 30
0.0
  3
*U6
  1

  0
LINE
  5
101
330
FE
100
AcDbEntity
  8
Siatka
  6
Continuous
 62
     8
100
AcDbLine
 10
4.706500909734928
 20
0.2727850143329533
 30
0.0
 11
5.156500909734973
 21
0.2727850143329533
 31
0.0
  0
LINE
  5
102
330
FE
100
AcDbEntity
  8
Siatka
  6
Continuous
 62
     8
100
AcDbLine
 10
4.706500909734928
 20
0.2477850139604243
 30
0.0
 11
4.706500909734928
 21
0.3727850158230694
 31
0.0
  0
LINE
  5
103
330
FE
100
AcDbEntity
  8
Siatka
  6
Continuous
 62
     4
100
AcDbLine
 10
4.68775090898987
 20
0.2540350135878953
 30
0.0
 11
4.725250910479986
 21
0.2915350150780114
 31
0.0
  0
LINE
  5
104
330
FE
100
AcDbEntity
  8
Siatka
  6
Continuous
 62
     8
100
AcDbLine
 10
4.781500909734973
 20
0.2477850139604243
 30
0.0
 11
4.781500909734973
 21
0.3727850158230694
 31
0.0
  0
LINE
  5
105
330
FE
100
AcDbEntity
  8
Siatka
  6
Continuous
 62
     4
100
AcDbLine
 10
4.762750908989915
 20
0.2540350135878953
 30
0.0
 11
4.800250910480031
 21
0.2915350150780114
 31
0.0
  0
MTEXT
  5
106
330
FE
100
AcDbEntity
  8
Siatka
 62
     3
100
AcDbMText
 10
4.701998722234951
 20
0.3247478272054823
 30
0.0
 40
0.0553571428571429
 41
0.0
 71
     4
 72
     1
  1
\A1;7{\H0.67x;\S5^ ;}
  7
STIL17
 73
     1
 44
1.0
  0
LINE
  5
107
330
FE
100
AcDbEntity
  8
Siatka
  6
Continuous
 62
     8
100
AcDbLine
 10
5.081500909734928
 20
0.2477850139604243
 30
0.0
 11
5.081500909734928
 21
0.3727850158230694
 31
0.0
  0
LINE
  5
108
330
FE
100
AcDbEntity
  8
Siatka
  6
Continuous
 62
     4
100
AcDbLine
 10
5.06275090898987
 20
0.2540350135878953
 30
0.0
 11
5.100250910479986
 21
0.2915350150780114
 31
0.0
  0
TEXT
  5
109
330
FE
100
AcDbEntity
  8
Siatka
 62
     3
100
AcDbText
 10
4.88118630942035
 20
0.2977850147054824
 30
0.0
 40
0.0553571428571429
  1
30
  7
STIL17
 72
     1
 11
4.93150090973495
 21
0.2977850147054824
 31
0.0
100
AcDbText
  0
LINE
  5
10A
330
FE
100
AcDbEntity
  8
Siatka
  6
Continuous
 62
     8
100
AcDbLine
 10
5.156500909734973
 20
0.2477850139604243
 30
0.0
 11
5.156500909734973
 21
0.3727850158230694
 31
0.0
  0
LINE
  5
10B
330
FE
100
AcDbEntity
  8
Siatka
  6
Continuous
 62
     4
100
AcDbLine
 10
5.137750908989915
 20
0.2540350135878953
 30
0.0
 11
5.175250910480031
 21
0.2915350150780114
 31
0.0
  0
MTEXT
  5
10C
330
FE
100
AcDbEntity
  8
Siatka
 62
     3
100
AcDbMText
 10
5.076998722234951
 20
0.3247478272054823
 30
0.0
 40
0.0553571428571429
 41
0.0
 71
     4
 72
     1
  1
\A1;7{\H0.67x;\S5^ ;}
  7
STIL17
 73
     1
 44
1.0
  0
ENDBLK
  5
100
330
FE
100
AcDbEntity
  8
0
100
AcDbBlockEnd
  0
BLOCK
  5
10F
330
10E
100
AcDbEntity
  8
0
100
AcDbBlockBegin
  2
*U7
 70
     1
 71
     0
 10
4.403171676764866
 20
0.4944898853628956
 30
0.0
  3
*U7
  1

  0
LINE
  5
111
330
10E
100
AcDbEntity
  8
Siatka
  6
Continuous
 62
     8
100
AcDbLine
 10
4.500849802137395
 20
0.5132398861079537
 30
0.0
 11
4.500849802137395
 21
0.9632398861079992
 31
0.0
  0
LINE
  5
112
330
10E
100
AcDbEntity
  8
Siatka
  6
Continuous
 62
     8
100
AcDbLine
 10
4.475849801764866
 20
0.5132398861079537
 30
0.0
 11
4.600849803627511
 21
0.5132398861079537
 31
0.0
  0
LINE
  5
113
330
10E
100
AcDbEntity
  8
Siatka
  6
Continuous
 62
     4
100
AcDbLine
 10
4.519599802882453
 20
0.4944898853628956
 30
0.0
 11
4.482099801392337
 21
0.5319898868530117
 31
0.0
  0
LINE
  5
114
330
10E
100
AcDbEntity
  8
Siatka
  6
Continuous
 62
     8
100
AcDbLine
 10
4.475849801764866
 20
0.9632398861079992
 30
0.0
 11
4.600849803627511
 21
0.9632398861079992
 31
0.0
  0
LINE
  5
115
330
10E
100
AcDbEntity
  8
Siatka
  6
Continuous
 62
     4
100
AcDbLine
 10
4.519599802882453
 20
0.9444898853629411
 30
0.0
 11
4.482099801392337
 21
0.9819898868530572
 31
0.0
  0
TEXT
  5
116
330
10E
100
AcDbEntity
  8
Siatka
 62
     3
100
AcDbText
 10
4.475849801764866
 20
0.6883962925143828
 30
0.0
 40
0.0553571428571429
  1
45
 50
90.0
  7
STIL17
 72
     1
 11
4.475849801764866
 21
0.7382398861079764
 31
0.0
100
AcDbText
  0
ENDBLK
  5
110
330
10E
100
AcDbEntity
  8
0
100
AcDbBlockEnd
  0
BLOCK
  5
119
330
118
100
AcDbEntity
  8
0
100
AcDbBlockBegin
  2
*U8
 70
     1
 71
     0
 10
4.68775090898987
 20
0.1406913717974021
 30
0.0
  3
*U8
  1

  0
LINE
  5
11B
330
118
100
AcDbEntity
  8
Siatka
  6
Continuous
 62
     8
100
AcDbLine
 10
4.706500909734928
 20
0.1656913721699311
 30
0.0
 11
5.156500909734973
 21
0.1656913721699311
 31
0.0
  0
LINE
  5
11C
330
118
100
AcDbEntity
  8
Siatka
  6
Continuous
 62
     8
100
AcDbLine
 10
4.706500909734928
 20
0.1406913717974021
 30
0.0
 11
4.706500909734928
 21
0.2656913736600473
 31
0.0
  0
LINE
  5
11D
330
118
100
AcDbEntity
  8
Siatka
  6
Continuous
 62
     4
100
AcDbLine
 10
4.68775090898987
 20
0.1469413714248731
 30
0.0
 11
4.725250910479986
 21
0.1844413729149892
 31
0.0
  0
LINE
  5
11E
330
118
100
AcDbEntity
  8
Siatka
  6
Continuous
 62
     8
100
AcDbLine
 10
5.156500909734973
 20
0.1406913717974021
 30
0.0
 11
5.156500909734973
 21
0.2656913736600473
 31
0.0
  0
LINE
  5
11F
330
118
100
AcDbEntity
  8
Siatka
  6
Continuous
 62
     4
100
AcDbLine
 10
5.137750908989915
 20
0.1469413714248731
 30
0.0
 11
5.175250910480031
 21
0.1844413729149892
 31
0.0
  0
TEXT
  5
120
330
118
100
AcDbEntity
  8
Siatka
 62
     3
100
AcDbText
 10
4.881657316141356
 20
0.1906913725424602
 30
0.0
 40
0.0553571428571429
  1
45
  7
STIL17
 72
     1
 11
4.93150090973495
 21
0.1906913725424602
 31
0.0
100
AcDbText
  0
ENDBLK
  5
11A
330
118
100
AcDbEntity
  8
0
100
AcDbBlockEnd
  0
BLOCK
  5
123
330
122
100
AcDbEntity
  8
0
100
AcDbBlockBegin
  2
*U9
 70
     1
 71
     0
 10
3.286183739318972
 20
0.2582683377365811
 30
0.0
  3
*U9
  1

  0
LINE
  5
125
330
122
100
AcDbEntity
  8
Siatka
  6
Continuous
 62
     8
100
AcDbLine
 10
3.30493374006403
 20
0.2832683381091101
 30
0.0
 11
3.754933740064075
 21
0.2832683381091101
 31
0.0
  0
LINE
  5
126
330
122
100
AcDbEntity
  8
Siatka
  6
Continuous
 62
     8
100
AcDbLine
 10
3.30493374006403
 20
0.2582683377365811
 30
0.0
 11
3.30493374006403
 21
0.3832683395992262
 31
0.0
  0
LINE
  5
127
330
122
100
AcDbEntity
  8
Siatka
  6
Continuous
 62
     4
100
AcDbLine
 10
3.286183739318972
 20
0.2645183373640521
 30
0.0
 11
3.323683740809088
 21
0.3020183388541682
 31
0.0
  0
LINE
  5
128
330
122
100
AcDbEntity
  8
Siatka
  6
Continuous
 62
     8
100
AcDbLine
 10
3.754933740064075
 20
0.2582683377365811
 30
0.0
 11
3.754933740064075
 21
0.3832683395992262
 31
0.0
  0
LINE
  5
129
330
122
100
AcDbEntity
  8
Siatka
  6
Continuous
 62
     4
100
AcDbLine
 10
3.736183739319017
 20
0.2645183373640521
 30
0.0
 11
3.773683740809133
 21
0.3020183388541682
 31
0.0
  0
TEXT
  5
12A
330
122
100
AcDbEntity
  8
Siatka
 62
     3
100
AcDbText
 10
3.480090146470459
 20
0.3082683384816392
 30
0.0
 40
0.0553571428571429
  1
45
  7
STIL17
 72
     1
 11
3.529933740064053
 21
0.3082683384816392
 31
0.0
100
AcDbText
  0
ENDBLK
  5
124
330
122
100
AcDbEntity
  8
0
100
AcDbBlockEnd
  0
BLOCK
  5
12D
330
12C
100
AcDbEntity
  8
0
100
AcDbBlockBegin
  2
*U10
 70
     1
 71
     0
 10
3.001604507093969
 20
0.4944898853628956
 30
0.0
  3
*U10
  1

  0
LINE
  5
12F
330
12C
100
AcDbEntity
  8
Siatka
  6
Continuous
 62
     8
100
AcDbLine
 10
3.099282632466498
 20
0.5132398861079537
 30
0.0
 11
3.099282632466498
 21
0.9632398861079992
 31
0.0
  0
LINE
  5
130
330
12C
100
AcDbEntity
  8
Siatka
  6
Continuous
 62
     8
100
AcDbLine
 10
3.074282632093969
 20
0.5132398861079537
 30
0.0
 11
3.199282633956614
 21
0.5132398861079537
 31
0.0
  0
LINE
  5
131
330
12C
100
AcDbEntity
  8
Siatka
  6
Continuous
 62
     4
100
AcDbLine
 10
3.118032633211556
 20
0.4944898853628956
 30
0.0
 11
3.080532631721439
 21
0.5319898868530117
 31
0.0
  0
LINE
  5
132
330
12C
100
AcDbEntity
  8
Siatka
  6
Continuous
 62
     8
100
AcDbLine
 10
3.074282632093969
 20
0.9632398861079992
 30
0.0
 11
3.199282633956614
 21
0.9632398861079992
 31
0.0
  0
LINE
  5
133
330
12C
100
AcDbEntity
  8
Siatka
  6
Continuous
 62
     4
100
AcDbLine
 10
3.118032633211556
 20
0.9444898853629411
 30
0.0
 11
3.080532631721439
 21
0.9819898868530572
 31
0.0
  0
TEXT
  5
134
330
12C
100
AcDbEntity
  8
Siatka
 62
     3
100
AcDbText
 10
3.074282632093969
 20
0.6883962925143828
 30
0.0
 40
0.0553571428571429
  1
45
 50
90.0
  7
STIL17
 72
     1
 11
3.074282632093969
 21
0.7382398861079764
 31
0.0
100
AcDbText
  0
ENDBLK
  5
12E
330
12C
100
AcDbEntity
  8
0
100
AcDbBlockEnd
  0
BLOCK
  5
137
330
136
100
AcDbEntity
  8
0
100
AcDbBlockBegin
  2
*U11
 70
     1
 71
     0
 10
5.54356460122555
 20
2.724858404821589
 30
0.0
  3
*U11
  1

  0
LINE
  5
139
330
136
100
AcDbEntity
  8
PATTERN_CLASS
  6
Continuous
 62
     8
100
AcDbLine
 10
5.64124272659808
 20
2.743608405566647
 30
0.0
 11
5.64124272659808
 21
6.943608405566693
 31
0.0
  0
LINE
  5
13A
330
136
100
AcDbEntity
  8
PATTERN_CLASS
  6
Continuous
 62
     8
100
AcDbLine
 10
5.616242726225551
 20
2.743608405566647
 30
0.0
 11
5.741242728088196
 21
2.743608405566647
 31
0.0
  0
LINE
  5
13B
330
136
100
AcDbEntity
  8
PATTERN_CLASS
  6
Continuous
 62
     4
100
AcDbLine
 10
5.659992727343138
 20
2.724858404821589
 30
0.0
 11
5.622492725853022
 21
2.762358406311705
 31
0.0
  0
LINE
  5
13C
330
136
100
AcDbEntity
  8
PATTERN_CLASS
  6
Continuous
 62
     8
100
AcDbLine
 10
5.616242726225551
 20
2.84360840556667
 30
0.0
 11
5.741242728088196
 21
2.84360840556667
 31
0.0
  0
LINE
  5
13D
330
136
100
AcDbEntity
  8
PATTERN_CLASS
  6
Continuous
 62
     4
100
AcDbLine
 10
5.659992727343138
 20
2.824858404821612
 30
0.0
 11
5.622492725853022
 21
2.862358406311728
 31
0.0
  0
TEXT
  5
13E
330
136
100
AcDbEntity
  8
PATTERN_CLASS
 62
     3
100
AcDbText
 10
5.616242726225551
 20
2.738472912931222
 30
0.0
 40
0.0553571428571429
  1
10
 50
90.0
  7
STIL17
 72
     1
 11
5.616242726225551
 21
2.793608405566715
 31
0.0
100
AcDbText
  0
LINE
  5
13F
330
136
100
AcDbEntity
  8
PATTERN_CLASS
  6
Continuous
 62
     8
100
AcDbLine
 10
5.616242726225551
 20
6.793608405566715
 30
0.0
 11
5.741242728088196
 21
6.793608405566715
 31
0.0
  0
LINE
  5
140
330
136
100
AcDbEntity
  8
PATTERN_CLASS
  6
Continuous
 62
     4
100
AcDbLine
 10
5.659992727343138
 20
6.774858404821657
 30
0.0
 11
5.622492725853022
 21
6.812358406311773
 31
0.0
  0
TEXT
  5
141
330
136
100
AcDbEntity
  8
PATTERN_CLASS
 62
     3
100
AcDbText
 10
5.616242726225551
 20
4.730280792239079
 30
0.0
 40
0.0553571428571429
  1
3.95
 50
90.0
  7
STIL17
 72
     1
 11
5.616242726225551
 21
4.818608405566693
 31
0.0
100
AcDbText
  0
LINE
  5
142
330
136
100
AcDbEntity
  8
PATTERN_CLASS
  6
Continuous
 62
     8
100
AcDbLine
 10
5.616242726225551
 20
6.943608405566693
 30
0.0
 11
5.741242728088196
 21
6.943608405566693
 31
0.0
  0
LINE
  5
143
330
136
100
AcDbEntity
  8
PATTERN_CLASS
  6
Continuous
 62
     4
100
AcDbLine
 10
5.659992727343138
 20
6.924858404821634
 30
0.0
 11
5.622492725853022
 21
6.962358406311751
 31
0.0
  0
TEXT
  5
144
330
136
100
AcDbEntity
  8
PATTERN_CLASS
 62
     3
100
AcDbText
 10
5.616242726225551
 20
6.813666856875212
 30
0.0
 40
0.0553571428571429
  1
15
 50
90.0
  7
STIL17
 72
     1
 11
5.616242726225551
 21
6.868608405566761
 31
0.0
100
AcDbText
  0
ENDBLK
  5
138
330
136
100
AcDbEntity
  8
0
100
AcDbBlockEnd
  0
BLOCK
  5
147
330
146
100
AcDbEntity
  8
0
100
AcDbBlockBegin
  2
*U12
 70
     1
 71
     0
 10
1.118632714961791
 20
0.2827557890930166
 30
0.0
  3
*U12
  1

  0
LINE
  5
149
330
146
100
AcDbEntity
  8
PATTERN_CLASS
  6
Continuous
 62
     8
100
AcDbLine
 10
1.587382715706895
 20
0.3077557894655456
 30
0.0
 11
1.137382715706849
 21
0.3077557894655456
 31
0.0
  0
LINE
  5
14A
330
146
100
AcDbEntity
  8
PATTERN_CLASS
  6
Continuous
 62
     8
100
AcDbLine
 10
1.587382715706895
 20
0.2827557890930166
 30
0.0
 11
1.587382715706895
 21
0.4077557909556617
 31
0.0
  0
LINE
  5
14B
330
146
100
AcDbEntity
  8
PATTERN_CLASS
  6
Continuous
 62
     4
100
AcDbLine
 10
1.568632714961836
 20
0.2890057887204875
 30
0.0
 11
1.606132716451953
 21
0.3265057902106037
 31
0.0
  0
LINE
  5
14C
330
146
100
AcDbEntity
  8
PATTERN_CLASS
  6
Continuous
 62
     8
100
AcDbLine
 10
1.137382715706849
 20
0.2827557890930166
 30
0.0
 11
1.137382715706849
 21
0.4077557909556617
 31
0.0
  0
LINE
  5
14D
330
146
100
AcDbEntity
  8
PATTERN_CLASS
  6
Continuous
 62
     4
100
AcDbLine
 10
1.118632714961791
 20
0.2890057887204875
 30
0.0
 11
1.156132716451907
 21
0.3265057902106037
 31
0.0
  0
TEXT
  5
14E
330
146
100
AcDbEntity
  8
PATTERN_CLASS
 62
     3
100
AcDbText
 10
1.312539122113278
 20
0.3327557898380746
 30
0.0
 40
0.0553571428571429
  1
45
  7
STIL17
 72
     1
 11
1.362382715706872
 21
0.3327557898380746
 31
0.0
100
AcDbText
  0
ENDBLK
  5
148
330
146
100
AcDbEntity
  8
0
100
AcDbBlockEnd
  0
BLOCK
  5
151
330
150
100
AcDbEntity
  8
0
100
AcDbBlockBegin
  2
*U13
 70
     1
 71
     0
 10
0.9002347069496567
 20
0.6794898853629547
 30
0.0
  3
*U13
  1

  0
LINE
  5
153
330
150
100
AcDbEntity
  8
Siatka
  6
Continuous
 62
     8
100
AcDbLine
 10
0.9979128323221858
 20
0.6982398861080128
 30
0.0
 11
0.9979128323221858
 21
0.7782398861080537
 31
0.0
  0
LINE
  5
154
330
150
100
AcDbEntity
  8
Siatka
  6
Continuous
 62
     8
100
AcDbLine
 10
0.9729128319496567
 20
0.6982398861080128
 30
0.0
 11
1.097912833812302
 21
0.6982398861080128
 31
0.0
  0
LINE
  5
155
330
150
100
AcDbEntity
  8
Siatka
  6
Continuous
 62
     4
100
AcDbLine
 10
1.016662833067244
 20
0.6794898853629547
 30
0.0
 11
0.9791628315771277
 21
0.7169898868530709
 31
0.0
  0
LINE
  5
156
330
150
100
AcDbEntity
  8
Siatka
  6
Continuous
 62
     8
100
AcDbLine
 10
0.9729128319496567
 20
0.7782398861080537
 30
0.0
 11
1.097912833812302
 21
0.7782398861080537
 31
0.0
  0
LINE
  5
157
330
150
100
AcDbEntity
  8
Siatka
  6
Continuous
 62
     4
100
AcDbLine
 10
1.016662833067244
 20
0.7594898853629957
 30
0.0
 11
0.9791628315771277
 21
0.7969898868531118
 31
0.0
  0
TEXT
  5
158
330
150
100
AcDbEntity
  8
Siatka
 62
     3
100
AcDbText
 10
0.9729128319496567
 20
0.7130271733953774
 30
0.0
 40
0.0553571428571429
  1
8
 50
90.0
  7
STIL17
 72
     1
 11
0.9729128319496567
 21
0.7382398861080901
 31
0.0
100
AcDbText
  0
ENDBLK
  5
152
330
150
100
AcDbEntity
  8
0
100
AcDbBlockEnd
  0
BLOCK
  5
15B
330
15A
100
AcDbEntity
  8
0
100
AcDbBlockBegin
  2
*U14
 70
     1
 71
     0
 10
1.283632714961868
 20
0.9860033778362549
 30
0.0
  3
*U14
  1

  0
LINE
  5
15D
330
15A
100
AcDbEntity
  8
Siatka
  6
Continuous
 62
     8
100
AcDbLine
 10
1.422382715706931
 20
1.086003379326371
 30
0.0
 11
1.302382715706926
 21
1.086003379326371
 31
0.0
  0
LINE
  5
15E
330
15A
100
AcDbEntity
  8
Siatka
  6
Continuous
 62
     8
100
AcDbLine
 10
1.422382715706931
 20
1.1110033796989
 30
0.0
 11
1.422382715706931
 21
0.9860033778362549
 31
0.0
  0
LINE
  5
15F
330
15A
100
AcDbEntity
  8
Siatka
  6
Continuous
 62
     4
100
AcDbLine
 10
1.403632714961873
 20
1.067253378581313
 30
0.0
 11
1.441132716451989
 21
1.104753380071429
 31
0.0
  0
LINE
  5
160
330
15A
100
AcDbEntity
  8
Siatka
  6
Continuous
 62
     8
100
AcDbLine
 10
1.302382715706926
 20
1.1110033796989
 30
0.0
 11
1.302382715706926
 21
0.9860033778362549
 31
0.0
  0
LINE
  5
161
330
15A
100
AcDbEntity
  8
Siatka
  6
Continuous
 62
     4
100
AcDbLine
 10
1.283632714961868
 20
1.067253378581313
 30
0.0
 11
1.321132716451984
 21
1.104753380071429
 31
0.0
  0
TEXT
  5
162
330
15A
100
AcDbEntity
  8
Siatka
 62
     3
100
AcDbText
 10
1.308161530235686
 20
1.1110033796989
 30
0.0
 40
0.0553571428571429
  1
12
  7
STIL17
 72
     1
 11
1.362382715706872
 21
1.1110033796989
 31
0.0
100
AcDbText
  0
ENDBLK
  5
15C
330
15A
100
AcDbEntity
  8
0
100
AcDbBlockEnd
  0
BLOCK
  5
165
330
164
100
AcDbEntity
  8
0
100
AcDbBlockBegin
  2
*U15
 70
     1
 71
     0
 10
6.669282812347888
 20
2.724858404821589
 30
0.0
  3
*U15
  1

  0
LINE
  5
167
330
164
100
AcDbEntity
  8
PATTERN_CLASS
  6
Continuous
 62
     8
100
AcDbLine
 10
6.769282813838004
 20
2.743608405566647
 30
0.0
 11
6.769282813838004
 21
6.943608405566693
 31
0.0
  0
LINE
  5
168
330
164
100
AcDbEntity
  8
PATTERN_CLASS
  6
Continuous
 62
     8
100
AcDbLine
 10
6.794282814210533
 20
2.743608405566647
 30
0.0
 11
6.669282812347888
 21
2.743608405566647
 31
0.0
  0
LINE
  5
169
330
164
100
AcDbEntity
  8
PATTERN_CLASS
  6
Continuous
 62
     4
100
AcDbLine
 10
6.788032814583062
 20
2.724858404821589
 30
0.0
 11
6.750532813092946
 21
2.762358406311705
 31
0.0
  0
LINE
  5
16A
330
164
100
AcDbEntity
  8
PATTERN_CLASS
  6
Continuous
 62
     8
100
AcDbLine
 10
6.794282814210533
 20
2.84360840556667
 30
0.0
 11
6.669282812347888
 21
2.84360840556667
 31
0.0
  0
LINE
  5
16B
330
164
100
AcDbEntity
  8
PATTERN_CLASS
  6
Continuous
 62
     4
100
AcDbLine
 10
6.788032814583062
 20
2.824858404821612
 30
0.0
 11
6.750532813092946
 21
2.862358406311728
 31
0.0
  0
TEXT
  5
16C
330
164
100
AcDbEntity
  8
PATTERN_CLASS
 62
     3
100
AcDbText
 10
6.744282813465475
 20
2.738472912931222
 30
0.0
 40
0.0553571428571429
  1
10
 50
90.0
  7
STIL17
 72
     1
 11
6.744282813465475
 21
2.793608405566715
 31
0.0
100
AcDbText
  0
LINE
  5
16D
330
164
100
AcDbEntity
  8
PATTERN_CLASS
  6
Continuous
 62
     8
100
AcDbLine
 10
6.794282814210533
 20
2.923608405566711
 30
0.0
 11
6.669282812347888
 21
2.923608405566711
 31
0.0
  0
LINE
  5
16E
330
164
100
AcDbEntity
  8
PATTERN_CLASS
  6
Continuous
 62
     4
100
AcDbLine
 10
6.788032814583062
 20
2.904858404821653
 30
0.0
 11
6.750532813092946
 21
2.942358406311769
 31
0.0
  0
TEXT
  5
16F
330
164
100
AcDbEntity
  8
PATTERN_CLASS
 62
     3
100
AcDbText
 10
6.744282813465475
 20
2.858395692853921
 30
0.0
 40
0.0553571428571429
  1
8
 50
90.0
  7
STIL17
 72
     1
 11
6.744282813465475
 21
2.883608405566633
 31
0.0
100
AcDbText
  0
LINE
  5
170
330
164
100
AcDbEntity
  8
PATTERN_CLASS
  6
Continuous
 62
     8
100
AcDbLine
 10
6.794282814210533
 20
4.963608405566674
 30
0.0
 11
6.669282812347888
 21
4.963608405566674
 31
0.0
  0
LINE
  5
171
330
164
100
AcDbEntity
  8
PATTERN_CLASS
  6
Continuous
 62
     4
100
AcDbLine
 10
6.788032814583062
 20
4.944858404821616
 30
0.0
 11
6.750532813092946
 21
4.982358406311732
 31
0.0
  0
TEXT
  5
172
330
164
100
AcDbEntity
  8
PATTERN_CLASS
 62
     3
100
AcDbText
 10
6.744282813465475
 20
3.854892904351191
 30
0.0
 40
0.0553571428571429
  1
2.04
 50
90.0
  7
STIL17
 72
     1
 11
6.744282813465475
 21
3.943608405566693
 31
0.0
100
AcDbText
  0
LINE
  5
173
330
164
100
AcDbEntity
  8
PATTERN_CLASS
  6
Continuous
 62
     8
100
AcDbLine
 10
6.794282814210533
 20
5.043608405566715
 30
0.0
 11
6.669282812347888
 21
5.043608405566715
 31
0.0
  0
LINE
  5
174
330
164
100
AcDbEntity
  8
PATTERN_CLASS
  6
Continuous
 62
     4
100
AcDbLine
 10
6.788032814583062
 20
5.024858404821657
 30
0.0
 11
6.750532813092946
 21
5.062358406311773
 31
0.0
  0
TEXT
  5
175
330
164
100
AcDbEntity
  8
PATTERN_CLASS
 62
     3
100
AcDbText
 10
6.744282813465475
 20
4.978395692854039
 30
0.0
 40
0.0553571428571429
  1
8
 50
90.0
  7
STIL17
 72
     1
 11
6.744282813465475
 21
5.003608405566752
 31
0.0
100
AcDbText
  0
LINE
  5
176
330
164
100
AcDbEntity
  8
PATTERN_CLASS
  6
Continuous
 62
     8
100
AcDbLine
 10
6.794282814210533
 20
5.163608405566606
 30
0.0
 11
6.669282812347888
 21
5.163608405566606
 31
0.0
  0
LINE
  5
177
330
164
100
AcDbEntity
  8
PATTERN_CLASS
  6
Continuous
 62
     4
100
AcDbLine
 10
6.788032814583062
 20
5.144858404821548
 30
0.0
 11
6.750532813092946
 21
5.182358406311664
 31
0.0
  0
TEXT
  5
178
330
164
100
AcDbEntity
  8
PATTERN_CLASS
 62
     3
100
AcDbText
 10
6.744282813465475
 20
5.049387220095476
 30
0.0
 40
0.0553571428571429
  1
12
 50
90.0
  7
STIL17
 72
     1
 11
6.744282813465475
 21
5.103608405566661
 31
0.0
100
AcDbText
  0
LINE
  5
179
330
164
100
AcDbEntity
  8
PATTERN_CLASS
  6
Continuous
 62
     8
100
AcDbLine
 10
6.794282814210533
 20
5.243608405566647
 30
0.0
 11
6.669282812347888
 21
5.243608405566647
 31
0.0
  0
LINE
  5
17A
330
164
100
AcDbEntity
  8
PATTERN_CLASS
  6
Continuous
 62
     4
100
AcDbLine
 10
6.788032814583062
 20
5.224858404821589
 30
0.0
 11
6.750532813092946
 21
5.262358406311705
 31
0.0
  0
TEXT
  5
17B
330
164
100
AcDbEntity
  8
PATTERN_CLASS
 62
     3
100
AcDbText
 10
6.744282813465475
 20
5.178395692853857
 30
0.0
 40
0.0553571428571429
  1
8
 50
90.0
  7
STIL17
 72
     1
 11
6.744282813465475
 21
5.20360840556657
 31
0.0
100
AcDbText
  0
LINE
  5
17C
330
164
100
AcDbEntity
  8
PATTERN_CLASS
  6
Continuous
 62
     8
100
AcDbLine
 10
6.794282814210533
 20
6.793608405566715
 30
0.0
 11
6.669282812347888
 21
6.793608405566715
 31
0.0
  0
LINE
  5
17D
330
164
100
AcDbEntity
  8
PATTERN_CLASS
  6
Continuous
 62
     4
100
AcDbLine
 10
6.788032814583062
 20
6.774858404821657
 30
0.0
 11
6.750532813092946
 21
6.812358406311773
 31
0.0
  0
TEXT
  5
17E
330
164
100
AcDbEntity
  8
PATTERN_CLASS
 62
     3
100
AcDbText
 10
6.744282813465475
 20
5.925459899918119
 30
0.0
 40
0.0553571428571429
  1
1.55
 50
90.0
  7
STIL17
 72
     1
 11
6.744282813465475
 21
6.018608405566624
 31
0.0
100
AcDbText
  0
LINE
  5
17F
330
164
100
AcDbEntity
  8
PATTERN_CLASS
  6
Continuous
 62
     8
100
AcDbLine
 10
6.794282814210533
 20
6.943608405566693
 30
0.0
 11
6.669282812347888
 21
6.943608405566693
 31
0.0
  0
LINE
  5
180
330
164
100
AcDbEntity
  8
PATTERN_CLASS
  6
Continuous
 62
     4
100
AcDbLine
 10
6.788032814583062
 20
6.924858404821634
 30
0.0
 11
6.750532813092946
 21
6.962358406311751
 31
0.0
  0
TEXT
  5
181
330
164
100
AcDbEntity
  8
PATTERN_CLASS
 62
     3
100
AcDbText
 10
6.744282813465475
 20
6.813666856875212
 30
0.0
 40
0.0553571428571429
  1
15
 50
90.0
  7
STIL17
 72
     1
 11
6.744282813465475
 21
6.868608405566761
 31
0.0
100
AcDbText
  0
ENDBLK
  5
166
330
164
100
AcDbEntity
  8
0
100
AcDbBlockEnd
  0
BLOCK
  5
184
330
183
100
AcDbEntity
  8
0
100
AcDbBlockBegin
  2
*U16
 70
     1
 71
     0
 10
6.508517105530927
 20
2.724858404821589
 30
0.0
  3
*U16
  1

  0
LINE
  5
186
330
183
100
AcDbEntity
  8
PATTERN_CLASS
  6
Continuous
 62
     8
100
AcDbLine
 10
6.608517107021044
 20
2.743608405566647
 30
0.0
 11
6.608517107021044
 21
6.943608405566693
 31
0.0
  0
LINE
  5
187
330
183
100
AcDbEntity
  8
PATTERN_CLASS
  6
Continuous
 62
     8
100
AcDbLine
 10
6.633517107393573
 20
2.743608405566647
 30
0.0
 11
6.508517105530927
 21
2.743608405566647
 31
0.0
  0
LINE
  5
188
330
183
100
AcDbEntity
  8
PATTERN_CLASS
  6
Continuous
 62
     4
100
AcDbLine
 10
6.627267107766102
 20
2.724858404821589
 30
0.0
 11
6.589767106275986
 21
2.762358406311705
 31
0.0
  0
LINE
  5
189
330
183
100
AcDbEntity
  8
PATTERN_CLASS
  6
Continuous
 62
     8
100
AcDbLine
 10
6.633517107393573
 20
5.163608405566606
 30
0.0
 11
6.508517105530927
 21
5.163608405566606
 31
0.0
  0
LINE
  5
18A
330
183
100
AcDbEntity
  8
PATTERN_CLASS
  6
Continuous
 62
     4
100
AcDbLine
 10
6.627267107766102
 20
5.144858404821548
 30
0.0
 11
6.589767106275986
 21
5.182358406311664
 31
0.0
  0
TEXT
  5
18B
330
183
100
AcDbEntity
  8
PATTERN_CLASS
 62
     3
100
AcDbText
 10
6.583517106648515
 20
3.865945742903907
 30
0.0
 40
0.0553571428571429
  1
2.42
 50
90.0
  7
STIL17
 72
     1
 11
6.583517106648515
 21
3.95360840556657
 31
0.0
100
AcDbText
  0
LINE
  5
18C
330
183
100
AcDbEntity
  8
PATTERN_CLASS
  6
Continuous
 62
     8
100
AcDbLine
 10
6.633517107393573
 20
5.243608405566647
 30
0.0
 11
6.508517105530927
 21
5.243608405566647
 31
0.0
  0
LINE
  5
18D
330
183
100
AcDbEntity
  8
PATTERN_CLASS
  6
Continuous
 62
     4
100
AcDbLine
 10
6.627267107766102
 20
5.224858404821589
 30
0.0
 11
6.589767106275986
 21
5.262358406311705
 31
0.0
  0
TEXT
  5
18E
330
183
100
AcDbEntity
  8
PATTERN_CLASS
 62
     3
100
AcDbText
 10
6.583517106648515
 20
5.178395692853857
 30
0.0
 40
0.0553571428571429
  1
8
 50
90.0
  7
STIL17
 72
     1
 11
6.583517106648515
 21
5.20360840556657
 31
0.0
100
AcDbText
  0
LINE
  5
18F
330
183
100
AcDbEntity
  8
PATTERN_CLASS
  6
Continuous
 62
     8
100
AcDbLine
 10
6.633517107393573
 20
6.943608405566693
 30
0.0
 11
6.508517105530927
 21
6.943608405566693
 31
0.0
  0
LINE
  5
190
330
183
100
AcDbEntity
  8
PATTERN_CLASS
  6
Continuous
 62
     4
100
AcDbLine
 10
6.627267107766102
 20
6.924858404821634
 30
0.0
 11
6.589767106275986
 21
6.962358406311751
 31
0.0
  0
TEXT
  5
191
330
183
100
AcDbEntity
  8
PATTERN_CLASS
 62
     3
100
AcDbText
 10
6.583517106648515
 20
6.00026595597422
 30
0.0
 40
0.0553571428571429
  1
1.70
 50
90.0
  7
STIL17
 72
     1
 11
6.583517106648515
 21
6.09360840556667
 31
0.0
100
AcDbText
  0
ENDBLK
  5
185
330
183
100
AcDbEntity
  8
0
100
AcDbBlockEnd
  0
BLOCK
  5
194
330
193
100
AcDbEntity
  8
0
100
AcDbBlockBegin
  2
*U17
 70
     1
 71
     0
 10
1.679609801606944
 20
0.4944898853628956
 30
0.0
  3
*U17
  1

  0
LINE
  5
196
330
193
100
AcDbEntity
  8
PATTERN_CLASS
  6
Continuous
 62
     8
100
AcDbLine
 10
1.77960980309706
 20
0.5132398861079537
 30
0.0
 11
1.77960980309706
 21
0.9632398861079992
 31
0.0
  0
LINE
  5
197
330
193
100
AcDbEntity
  8
PATTERN_CLASS
  6
Continuous
 62
     8
100
AcDbLine
 10
1.804609803469589
 20
0.5132398861079537
 30
0.0
 11
1.679609801606944
 21
0.5132398861079537
 31
0.0
  0
LINE
  5
198
330
193
100
AcDbEntity
  8
PATTERN_CLASS
  6
Continuous
 62
     4
100
AcDbLine
 10
1.798359803842118
 20
0.4944898853628956
 30
0.0
 11
1.760859802352002
 21
0.5319898868530117
 31
0.0
  0
LINE
  5
199
330
193
100
AcDbEntity
  8
PATTERN_CLASS
  6
Continuous
 62
     8
100
AcDbLine
 10
1.804609803469589
 20
0.9632398861079992
 30
0.0
 11
1.679609801606944
 21
0.9632398861079992
 31
0.0
  0
LINE
  5
19A
330
193
100
AcDbEntity
  8
PATTERN_CLASS
  6
Continuous
 62
     4
100
AcDbLine
 10
1.798359803842118
 20
0.9444898853629411
 30
0.0
 11
1.760859802352002
 21
0.9819898868530572
 31
0.0
  0
TEXT
  5
19B
330
193
100
AcDbEntity
  8
PATTERN_CLASS
 62
     3
100
AcDbText
 10
1.754609802724531
 20
0.6883962925143828
 30
0.0
 40
0.0553571428571429
  1
45
 50
90.0
  7
STIL17
 72
     1
 11
1.754609802724531
 21
0.7382398861079764
 31
0.0
100
AcDbText
  0
ENDBLK
  5
195
330
193
100
AcDbEntity
  8
0
100
AcDbBlockEnd
  0
BLOCK
  5
19E
330
19D
100
AcDbEntity
  8
0
100
AcDbBlockBegin
  2
*U18
 70
     1
 71
     0
 10
1.283632714961641
 20
6.917138408026517
 30
0.0
  3
*U18
  1

  0
LINE
  5
1A0
330
19D
100
AcDbEntity
  8
PATTERN_CLASS
  6
Continuous
 62
     8
100
AcDbLine
 10
1.302382715706699
 20
7.017138409516633
 30
0.0
 11
1.422382715706817
 21
7.017138409516633
 31
0.0
  0
LINE
  5
1A1
330
19D
100
AcDbEntity
  8
PATTERN_CLASS
  6
Continuous
 62
     8
100
AcDbLine
 10
1.302382715706699
 20
7.042138409889162
 30
0.0
 11
1.302382715706699
 21
6.917138408026517
 31
0.0
  0
LINE
  5
1A2
330
19D
100
AcDbEntity
  8
PATTERN_CLASS
  6
Continuous
 62
     4
100
AcDbLine
 10
1.283632714961641
 20
6.998388408771575
 30
0.0
 11
1.321132716451757
 21
7.035888410261691
 31
0.0
  0
LINE
  5
1A3
330
19D
100
AcDbEntity
  8
PATTERN_CLASS
  6
Continuous
 62
     8
100
AcDbLine
 10
1.422382715706817
 20
7.042138409889162
 30
0.0
 11
1.422382715706817
 21
6.917138408026517
 31
0.0
  0
LINE
  5
1A4
330
19D
100
AcDbEntity
  8
PATTERN_CLASS
  6
Continuous
 62
     4
100
AcDbLine
 10
1.403632714961759
 20
6.998388408771575
 30
0.0
 11
1.441132716451875
 21
7.035888410261691
 31
0.0
  0
TEXT
  5
1A5
330
19D
100
AcDbEntity
  8
PATTERN_CLASS
 62
     3
100
AcDbText
 10
1.308161530235573
 20
7.042138409889162
 30
0.0
 40
0.0553571428571429
  1
12
  7
STIL17
 72
     1
 11
1.362382715706758
 21
7.042138409889162
 31
0.0
100
AcDbText
  0
ENDBLK
  5
19F
330
19D
100
AcDbEntity
  8
0
100
AcDbBlockEnd
  0
BLOCK
  5
1A8
330
1A7
100
AcDbEntity
  8
0
100
AcDbBlockBegin
  2
*U19
 70
     1
 71
     0
 10
3.531183739318749
 20
2.448042198801886
 30
0.0
  3
*U19
  1

  0
LINE
  5
1AA
330
1A7
100
AcDbEntity
  8
PATTERN_CLASS
  6
Continuous
 62
     8
100
AcDbLine
 10
3.549933740063807
 20
2.473042199174415
 30
0.0
 11
7.371209451266964
 21
2.473042199174415
 31
0.0
  0
LINE
  5
1AB
330
1A7
100
AcDbEntity
  8
PATTERN_CLASS
  6
Continuous
 62
     8
100
AcDbLine
 10
3.549933740063807
 20
2.448042198801886
 30
0.0
 11
3.549933740063807
 21
2.573042200664531
 31
0.0
  0
LINE
  5
1AC
330
1A7
100
AcDbEntity
  8
PATTERN_CLASS
  6
Continuous
 62
     4
100
AcDbLine
 10
3.531183739318749
 20
2.454292198429357
 30
0.0
 11
3.568683740808865
 21
2.491792199919473
 31
0.0
  0
LINE
  5
1AD
330
1A7
100
AcDbEntity
  8
PATTERN_CLASS
  6
Continuous
 62
     8
100
AcDbLine
 10
6.009933740063843
 20
2.448042198801886
 30
0.0
 11
6.009933740063843
 21
2.573042200664531
 31
0.0
  0
LINE
  5
1AE
330
1A7
100
AcDbEntity
  8
PATTERN_CLASS
  6
Continuous
 62
     4
100
AcDbLine
 10
5.991183739318785
 20
2.454292198429357
 30
0.0
 11
6.028683740808901
 21
2.491792199919473
 31
0.0
  0
TEXT
  5
1AF
330
1A7
100
AcDbEntity
  8
PATTERN_CLASS
 62
     3
100
AcDbText
 10
4.690996588626674
 20
2.498042199546944
 30
0.0
 40
0.0553571428571429
  1
2.46
  7
STIL17
 72
     1
 11
4.779933740063825
 21
2.498042199546944
 31
0.0
100
AcDbText
  0
LINE
  5
1B0
330
1A7
100
AcDbEntity
  8
PATTERN_CLASS
  6
Continuous
 62
     8
100
AcDbLine
 10
7.371209451266964
 20
2.448042198801886
 30
0.0
 11
7.371209451266964
 21
2.573042200664531
 31
0.0
  0
LINE
  5
1B1
330
1A7
100
AcDbEntity
  8
PATTERN_CLASS
  6
Continuous
 62
     4
100
AcDbLine
 10
7.352459450521906
 20
2.454292198429357
 30
0.0
 11
7.389959452012022
 21
2.491792199919473
 31
0.0
  0
TEXT
  5
1B2
330
1A7
100
AcDbEntity
  8
PATTERN_CLASS
 62
     3
100
AcDbText
 10
6.596868964462829
 20
2.498042199546944
 30
0.0
 40
0.0553571428571429
  1
1.36
  7
STIL17
 72
     1
 11
6.69057159566546
 21
2.498042199546944
 31
0.0
100
AcDbText
  0
ENDBLK
  5
1A9
330
1A7
100
AcDbEntity
  8
0
100
AcDbBlockEnd
  0
BLOCK
  5
1B5
330
1B4
100
AcDbEntity
  8
0
100
AcDbBlockBegin
  2
*U20
 70
     1
 71
     0
 10
3.491183739318785
 20
2.556753247615006
 30
0.0
  3
*U20
  1

  0
LINE
  5
1B7
330
1B4
100
AcDbEntity
  8
PATTERN_CLASS
  6
Continuous
 62
     8
100
AcDbLine
 10
3.509933740063843
 20
2.581753247987535
 30
0.0
 11
7.411209451266927
 21
2.581753247987535
 31
0.0
  0
LINE
  5
1B8
330
1B4
100
AcDbEntity
  8
PATTERN_CLASS
  6
Continuous
 62
     8
100
AcDbLine
 10
3.509933740063843
 20
2.556753247615006
 30
0.0
 11
3.509933740063843
 21
2.681753249477652
 31
0.0
  0
LINE
  5
1B9
330
1B4
100
AcDbEntity
  8
PATTERN_CLASS
  6
Continuous
 62
     4
100
AcDbLine
 10
3.491183739318785
 20
2.563003247242477
 30
0.0
 11
3.528683740808901
 21
2.600503248732593
 31
0.0
  0
LINE
  5
1BA
330
1B4
100
AcDbEntity
  8
PATTERN_CLASS
  6
Continuous
 62
     8
100
AcDbLine
 10
3.589933740063771
 20
2.556753247615006
 30
0.0
 11
3.589933740063771
 21
2.681753249477652
 31
0.0
  0
LINE
  5
1BB
330
1B4
100
AcDbEntity
  8
PATTERN_CLASS
  6
Continuous
 62
     4
100
AcDbLine
 10
3.571183739318713
 20
2.563003247242477
 30
0.0
 11
3.608683740808829
 21
2.600503248732593
 31
0.0
  0
TEXT
  5
1BC
330
1B4
100
AcDbEntity
  8
PATTERN_CLASS
 62
     3
100
AcDbText
 10
3.524721027351094
 20
2.606753248360064
 30
0.0
 40
0.0553571428571429
  1
8
  7
STIL17
 72
     1
 11
3.549933740063807
 21
2.606753248360064
 31
0.0
100
AcDbText
  0
LINE
  5
1BD
330
1B4
100
AcDbEntity
  8
PATTERN_CLASS
  6
Continuous
 62
     8
100
AcDbLine
 10
5.96993374006388
 20
2.556753247615006
 30
0.0
 11
5.96993374006388
 21
2.681753249477652
 31
0.0
  0
LINE
  5
1BE
330
1B4
100
AcDbEntity
  8
PATTERN_CLASS
  6
Continuous
 62
     4
100
AcDbLine
 10
5.951183739318822
 20
2.563003247242477
 30
0.0
 11
5.988683740808938
 21
2.600503248732593
 31
0.0
  0
TEXT
  5
1BF
330
1B4
100
AcDbEntity
  8
PATTERN_CLASS
 62
     3
100
AcDbText
 10
4.691550714180799
 20
2.606753248360064
 30
0.0
 40
0.0553571428571429
  1
2.38
  7
STIL17
 72
     1
 11
4.779933740063825
 21
2.606753248360064
 31
0.0
100
AcDbText
  0
LINE
  5
1C0
330
1B4
100
AcDbEntity
  8
PATTERN_CLASS
  6
Continuous
 62
     8
100
AcDbLine
 10
6.049933740063807
 20
2.556753247615006
 30
0.0
 11
6.049933740063807
 21
2.681753249477652
 31
0.0
  0
LINE
  5
1C1
330
1B4
100
AcDbEntity
  8
PATTERN_CLASS
  6
Continuous
 62
     4
100
AcDbLine
 10
6.031183739318749
 20
2.563003247242477
 30
0.0
 11
6.068683740808865
 21
2.600503248732593
 31
0.0
  0
TEXT
  5
1C2
330
1B4
100
AcDbEntity
  8
PATTERN_CLASS
 62
     3
100
AcDbText
 10
5.984721027351131
 20
2.606753248360064
 30
0.0
 40
0.0553571428571429
  1
8
  7
STIL17
 72
     1
 11
6.009933740063843
 21
2.606753248360064
 31
0.0
100
AcDbText
  0
LINE
  5
1C3
330
1B4
100
AcDbEntity
  8
PATTERN_CLASS
  6
Continuous
 62
     8
100
AcDbLine
 10
7.331209451267
 20
2.556753247615006
 30
0.0
 11
7.331209451267
 21
2.681753249477652
 31
0.0
  0
LINE
  5
1C4
330
1B4
100
AcDbEntity
  8
PATTERN_CLASS
  6
Continuous
 62
     4
100
AcDbLine
 10
7.312459450521942
 20
2.563003247242477
 30
0.0
 11
7.349959452012058
 21
2.600503248732593
 31
0.0
  0
TEXT
  5
1C5
330
1B4
100
AcDbEntity
  8
PATTERN_CLASS
 62
     3
100
AcDbText
 10
6.597423090016955
 20
2.606753248360064
 30
0.0
 40
0.0553571428571429
  1
1.28
  7
STIL17
 72
     1
 11
6.69057159566546
 21
2.606753248360064
 31
0.0
100
AcDbText
  0
LINE
  5
1C6
330
1B4
100
AcDbEntity
  8
PATTERN_CLASS
  6
Continuous
 62
     8
100
AcDbLine
 10
7.411209451266927
 20
2.556753247615006
 30
0.0
 11
7.411209451266927
 21
2.681753249477652
 31
0.0
  0
LINE
  5
1C7
330
1B4
100
AcDbEntity
  8
PATTERN_CLASS
  6
Continuous
 62
     4
100
AcDbLine
 10
7.392459450521869
 20
2.563003247242477
 30
0.0
 11
7.429959452011985
 21
2.600503248732593
 31
0.0
  0
TEXT
  5
1C8
330
1B4
100
AcDbEntity
  8
PATTERN_CLASS
 62
     3
100
AcDbText
 10
7.345996738554251
 20
2.606753248360064
 30
0.0
 40
0.0553571428571429
  1
8
  7
STIL17
 72
     1
 11
7.371209451266964
 21
2.606753248360064
 31
0.0
100
AcDbText
  0
ENDBLK
  5
1B6
330
1B4
100
AcDbEntity
  8
0
100
AcDbBlockEnd
  0
BLOCK
  5
1CB
330
1CA
100
AcDbEntity
  8
0
100
AcDbBlockBegin
  2
*U21
 70
     1
 71
     0
 10
3.306183739318726
 20
1.403941491127512
 30
0.0
  3
*U21
  1

  0
LINE
  5
1CD
330
1CA
100
AcDbEntity
  8
PATTERN_CLASS
  6
Continuous
 62
     8
100
AcDbLine
 10
3.324933740063784
 20
1.428941491500041
 30
0.0
 11
3.77493374006383
 21
1.428941491500041
 31
0.0
  0
LINE
  5
1CE
330
1CA
100
AcDbEntity
  8
PATTERN_CLASS
  6
Continuous
 62
     8
100
AcDbLine
 10
3.324933740063784
 20
1.403941491127512
 30
0.0
 11
3.324933740063784
 21
1.528941492990157
 31
0.0
  0
LINE
  5
1CF
330
1CA
100
AcDbEntity
  8
PATTERN_CLASS
  6
Continuous
 62
     4
100
AcDbLine
 10
3.306183739318726
 20
1.410191490754983
 30
0.0
 11
3.343683740808842
 21
1.447691492245099
 31
0.0
  0
LINE
  5
1D0
330
1CA
100
AcDbEntity
  8
PATTERN_CLASS
  6
Continuous
 62
     8
100
AcDbLine
 10
3.77493374006383
 20
1.403941491127512
 30
0.0
 11
3.77493374006383
 21
1.528941492990157
 31
0.0
  0
LINE
  5
1D1
330
1CA
100
AcDbEntity
  8
PATTERN_CLASS
  6
Continuous
 62
     4
100
AcDbLine
 10
3.756183739318772
 20
1.410191490754983
 30
0.0
 11
3.793683740808888
 21
1.447691492245099
 31
0.0
  0
TEXT
  5
1D2
330
1CA
100
AcDbEntity
  8
PATTERN_CLASS
 62
     3
100
AcDbText
 10
3.500090146470213
 20
1.45394149187257
 30
0.0
 40
0.0553571428571429
  1
45
  7
STIL17
 72
     1
 11
3.549933740063807
 21
1.45394149187257
 31
0.0
100
AcDbText
  0
ENDBLK
  5
1CC
330
1CA
100
AcDbEntity
  8
0
100
AcDbBlockEnd
  0
BLOCK
  5
1D5
330
1D4
100
AcDbEntity
  8
0
100
AcDbBlockBegin
  2
*U22
 70
     1
 71
     0
 10
3.181183739318726
 20
1.298847542925614
 30
0.0
  3
*U22
  1

  0
LINE
  5
1D7
330
1D4
100
AcDbEntity
  8
PATTERN_CLASS
  6
Continuous
 62
     8
100
AcDbLine
 10
3.199933740063784
 20
1.323847543298143
 30
0.0
 11
3.89993374006383
 21
1.323847543298143
 31
0.0
  0
LINE
  5
1D8
330
1D4
100
AcDbEntity
  8
PATTERN_CLASS
  6
Continuous
 62
     8
100
AcDbLine
 10
3.199933740063784
 20
1.298847542925614
 30
0.0
 11
3.199933740063784
 21
1.423847544788259
 31
0.0
  0
LINE
  5
1D9
330
1D4
100
AcDbEntity
  8
PATTERN_CLASS
  6
Continuous
 62
     4
100
AcDbLine
 10
3.181183739318726
 20
1.305097542553085
 30
0.0
 11
3.218683740808842
 21
1.342597544043201
 31
0.0
  0
LINE
  5
1DA
330
1D4
100
AcDbEntity
  8
PATTERN_CLASS
  6
Continuous
 62
     8
100
AcDbLine
 10
3.324933740063784
 20
1.298847542925614
 30
0.0
 11
3.324933740063784
 21
1.423847544788259
 31
0.0
  0
LINE
  5
1DB
330
1D4
100
AcDbEntity
  8
PATTERN_CLASS
  6
Continuous
 62
     4
100
AcDbLine
 10
3.306183739318726
 20
1.305097542553085
 30
0.0
 11
3.343683740808842
 21
1.342597544043201
 31
0.0
  0
MTEXT
  5
1DC
330
1D4
100
AcDbEntity
  8
PATTERN_CLASS
 62
     3
100
AcDbMText
 10
3.195227802563784
 20
1.375810356170672
 30
0.0
 40
0.0553571428571429
 41
0.0
 71
     4
 72
     1
  1
\A1;12{\H0.67x;\S5^ ;}
  7
STIL17
 73
     1
 44
1.0
  0
LINE
  5
1DD
330
1D4
100
AcDbEntity
  8
PATTERN_CLASS
  6
Continuous
 62
     8
100
AcDbLine
 10
3.77493374006383
 20
1.298847542925614
 30
0.0
 11
3.77493374006383
 21
1.423847544788259
 31
0.0
  0
LINE
  5
1DE
330
1D4
100
AcDbEntity
  8
PATTERN_CLASS
  6
Continuous
 62
     4
100
AcDbLine
 10
3.756183739318772
 20
1.305097542553085
 30
0.0
 11
3.793683740808888
 21
1.342597544043201
 31
0.0
  0
TEXT
  5
1DF
330
1D4
100
AcDbEntity
  8
PATTERN_CLASS
 62
     3
100
AcDbText
 10
3.500090146470213
 20
1.348847543670672
 30
0.0
 40
0.0553571428571429
  1
45
  7
STIL17
 72
     1
 11
3.549933740063807
 21
1.348847543670672
 31
0.0
100
AcDbText
  0
LINE
  5
1E0
330
1D4
100
AcDbEntity
  8
PATTERN_CLASS
  6
Continuous
 62
     8
100
AcDbLine
 10
3.89993374006383
 20
1.298847542925614
 30
0.0
 11
3.89993374006383
 21
1.423847544788259
 31
0.0
  0
LINE
  5
1E1
330
1D4
100
AcDbEntity
  8
PATTERN_CLASS
  6
Continuous
 62
     4
100
AcDbLine
 10
3.881183739318772
 20
1.305097542553085
 30
0.0
 11
3.918683740808888
 21
1.342597544043201
 31
0.0
  0
MTEXT
  5
1E2
330
1D4
100
AcDbEntity
  8
PATTERN_CLASS
 62
     3
100
AcDbMText
 10
3.77022780256383
 20
1.375810356170672
 30
0.0
 40
0.0553571428571429
 41
0.0
 71
     4
 72
     1
  1
\A1;12{\H0.67x;\S5^ ;}
  7
STIL17
 73
     1
 44
1.0
  0
ENDBLK
  5
1D6
330
1D4
100
AcDbEntity
  8
0
100
AcDbBlockEnd
  0
BLOCK
  5
1E5
330
1E4
100
AcDbEntity
  8
0
100
AcDbBlockBegin
  2
*U23
 70
     1
 71
     0
 10
7.127459450521883
 20
1.403941491127512
 30
0.0
  3
*U23
  1

  0
LINE
  5
1E7
330
1E4
100
AcDbEntity
  8
PATTERN_CLASS
  6
Continuous
 62
     8
100
AcDbLine
 10
7.146209451266941
 20
1.428941491500041
 30
0.0
 11
7.596209451266986
 21
1.428941491500041
 31
0.0
  0
LINE
  5
1E8
330
1E4
100
AcDbEntity
  8
PATTERN_CLASS
  6
Continuous
 62
     8
100
AcDbLine
 10
7.146209451266941
 20
1.403941491127512
 30
0.0
 11
7.146209451266941
 21
1.528941492990157
 31
0.0
  0
LINE
  5
1E9
330
1E4
100
AcDbEntity
  8
PATTERN_CLASS
  6
Continuous
 62
     4
100
AcDbLine
 10
7.127459450521883
 20
1.410191490754983
 30
0.0
 11
7.164959452011999
 21
1.447691492245099
 31
0.0
  0
LINE
  5
1EA
330
1E4
100
AcDbEntity
  8
PATTERN_CLASS
  6
Continuous
 62
     8
100
AcDbLine
 10
7.596209451266986
 20
1.403941491127512
 30
0.0
 11
7.596209451266986
 21
1.528941492990157
 31
0.0
  0
LINE
  5
1EB
330
1E4
100
AcDbEntity
  8
PATTERN_CLASS
  6
Continuous
 62
     4
100
AcDbLine
 10
7.577459450521928
 20
1.410191490754983
 30
0.0
 11
7.614959452012045
 21
1.447691492245099
 31
0.0
  0
TEXT
  5
1EC
330
1E4
100
AcDbEntity
  8
PATTERN_CLASS
 62
     3
100
AcDbText
 10
7.32136585767337
 20
1.45394149187257
 30
0.0
 40
0.0553571428571429
  1
45
  7
STIL17
 72
     1
 11
7.371209451266964
 21
1.45394149187257
 31
0.0
100
AcDbText
  0
ENDBLK
  5
1E6
330
1E4
100
AcDbEntity
  8
0
100
AcDbBlockEnd
  0
BLOCK
  5
1EF
330
1EE
100
AcDbEntity
  8
0
100
AcDbBlockBegin
  2
*U24
 70
     1
 71
     0
 10
7.002459450521883
 20
1.298847542925614
 30
0.0
  3
*U24
  1

  0
LINE
  5
1F1
330
1EE
100
AcDbEntity
  8
PATTERN_CLASS
  6
Continuous
 62
     8
100
AcDbLine
 10
7.021209451266941
 20
1.323847543298143
 30
0.0
 11
7.721209451266986
 21
1.323847543298143
 31
0.0
  0
LINE
  5
1F2
330
1EE
100
AcDbEntity
  8
PATTERN_CLASS
  6
Continuous
 62
     8
100
AcDbLine
 10
7.021209451266941
 20
1.298847542925614
 30
0.0
 11
7.021209451266941
 21
1.423847544788259
 31
0.0
  0
LINE
  5
1F3
330
1EE
100
AcDbEntity
  8
PATTERN_CLASS
  6
Continuous
 62
     4
100
AcDbLine
 10
7.002459450521883
 20
1.305097542553085
 30
0.0
 11
7.039959452011999
 21
1.342597544043201
 31
0.0
  0
LINE
  5
1F4
330
1EE
100
AcDbEntity
  8
PATTERN_CLASS
  6
Continuous
 62
     8
100
AcDbLine
 10
7.146209451266941
 20
1.298847542925614
 30
0.0
 11
7.146209451266941
 21
1.423847544788259
 31
0.0
  0
LINE
  5
1F5
330
1EE
100
AcDbEntity
  8
PATTERN_CLASS
  6
Continuous
 62
     4
100
AcDbLine
 10
7.127459450521883
 20
1.305097542553085
 30
0.0
 11
7.164959452011999
 21
1.342597544043201
 31
0.0
  0
MTEXT
  5
1F6
330
1EE
100
AcDbEntity
  8
PATTERN_CLASS
 62
     3
100
AcDbMText
 10
7.016503513766941
 20
1.375810356170672
 30
0.0
 40
0.0553571428571429
 41
0.0
 71
     4
 72
     1
  1
\A1;12{\H0.67x;\S5^ ;}
  7
STIL17
 73
     1
 44
1.0
  0
LINE
  5
1F7
330
1EE
100
AcDbEntity
  8
PATTERN_CLASS
  6
Continuous
 62
     8
100
AcDbLine
 10
7.596209451266986
 20
1.298847542925614
 30
0.0
 11
7.596209451266986
 21
1.423847544788259
 31
0.0
  0
LINE
  5
1F8
330
1EE
100
AcDbEntity
  8
PATTERN_CLASS
  6
Continuous
 62
     4
100
AcDbLine
 10
7.577459450521928
 20
1.305097542553085
 30
0.0
 11
7.614959452012045
 21
1.342597544043201
 31
0.0
  0
TEXT
  5
1F9
330
1EE
100
AcDbEntity
  8
PATTERN_CLASS
 62
     3
100
AcDbText
 10
7.32136585767337
 20
1.348847543670672
 30
0.0
 40
0.0553571428571429
  1
45
  7
STIL17
 72
     1
 11
7.371209451266964
 21
1.348847543670672
 31
0.0
100
AcDbText
  0
LINE
  5
1FA
330
1EE
100
AcDbEntity
  8
PATTERN_CLASS
  6
Continuous
 62
     8
100
AcDbLine
 10
7.721209451266986
 20
1.298847542925614
 30
0.0
 11
7.721209451266986
 21
1.423847544788259
 31
0.0
  0
LINE
  5
1FB
330
1EE
100
AcDbEntity
  8
PATTERN_CLASS
  6
Continuous
 62
     4
100
AcDbLine
 10
7.702459450521928
 20
1.305097542553085
 30
0.0
 11
7.739959452012045
 21
1.342597544043201
 31
0.0
  0
MTEXT
  5
1FC
330
1EE
100
AcDbEntity
  8
PATTERN_CLASS
 62
     3
100
AcDbMText
 10
7.591503513766987
 20
1.375810356170672
 30
0.0
 40
0.0553571428571429
 41
0.0
 71
     4
 72
     1
  1
\A1;12{\H0.67x;\S5^ ;}
  7
STIL17
 73
     1
 44
1.0
  0
ENDBLK
  5
1F0
330
1EE
100
AcDbEntity
  8
0
100
AcDbBlockEnd
  0
BLOCK
  5
1FF
330
1FE
100
AcDbEntity
  8
0
100
AcDbBlockBegin
  2
*U25
 70
     1
 71
     0
 10
5.641183739318763
 20
1.298847542925614
 30
0.0
  3
*U25
  1

  0
LINE
  5
201
330
1FE
100
AcDbEntity
  8
PATTERN_CLASS
  6
Continuous
 62
     8
100
AcDbLine
 10
5.659933740063821
 20
1.323847543298143
 30
0.0
 11
6.359933740063866
 21
1.323847543298143
 31
0.0
  0
LINE
  5
202
330
1FE
100
AcDbEntity
  8
PATTERN_CLASS
  6
Continuous
 62
     8
100
AcDbLine
 10
5.659933740063821
 20
1.298847542925614
 30
0.0
 11
5.659933740063821
 21
1.423847544788259
 31
0.0
  0
LINE
  5
203
330
1FE
100
AcDbEntity
  8
PATTERN_CLASS
  6
Continuous
 62
     4
100
AcDbLine
 10
5.641183739318763
 20
1.305097542553085
 30
0.0
 11
5.678683740808879
 21
1.342597544043201
 31
0.0
  0
LINE
  5
204
330
1FE
100
AcDbEntity
  8
PATTERN_CLASS
  6
Continuous
 62
     8
100
AcDbLine
 10
5.784933740063593
 20
1.298847542925614
 30
0.0
 11
5.784933740063593
 21
1.423847544788259
 31
0.0
  0
LINE
  5
205
330
1FE
100
AcDbEntity
  8
PATTERN_CLASS
  6
Continuous
 62
     4
100
AcDbLine
 10
5.766183739318535
 20
1.305097542553085
 30
0.0
 11
5.803683740808651
 21
1.342597544043201
 31
0.0
  0
MTEXT
  5
206
330
1FE
100
AcDbEntity
  8
PATTERN_CLASS
 62
     3
100
AcDbMText
 10
5.655227802563707
 20
1.375810356170672
 30
0.0
 40
0.0553571428571429
 41
0.0
 71
     4
 72
     1
  1
\A1;12{\H0.67x;\S5^ ;}
  7
STIL17
 73
     1
 44
1.0
  0
LINE
  5
207
330
1FE
100
AcDbEntity
  8
PATTERN_CLASS
  6
Continuous
 62
     8
100
AcDbLine
 10
6.234933740063639
 20
1.298847542925614
 30
0.0
 11
6.234933740063639
 21
1.423847544788259
 31
0.0
  0
LINE
  5
208
330
1FE
100
AcDbEntity
  8
PATTERN_CLASS
  6
Continuous
 62
     4
100
AcDbLine
 10
6.216183739318581
 20
1.305097542553085
 30
0.0
 11
6.253683740808697
 21
1.342597544043201
 31
0.0
  0
TEXT
  5
209
330
1FE
100
AcDbEntity
  8
PATTERN_CLASS
 62
     3
100
AcDbText
 10
5.960090146470022
 20
1.348847543670672
 30
0.0
 40
0.0553571428571429
  1
45
  7
STIL17
 72
     1
 11
6.009933740063616
 21
1.348847543670672
 31
0.0
100
AcDbText
  0
LINE
  5
20A
330
1FE
100
AcDbEntity
  8
PATTERN_CLASS
  6
Continuous
 62
     8
100
AcDbLine
 10
6.359933740063866
 20
1.298847542925614
 30
0.0
 11
6.359933740063866
 21
1.423847544788259
 31
0.0
  0
LINE
  5
20B
330
1FE
100
AcDbEntity
  8
PATTERN_CLASS
  6
Continuous
 62
     4
100
AcDbLine
 10
6.341183739318808
 20
1.305097542553085
 30
0.0
 11
6.378683740808924
 21
1.342597544043201
 31
0.0
  0
MTEXT
  5
20C
330
1FE
100
AcDbEntity
  8
PATTERN_CLASS
 62
     3
100
AcDbMText
 10
6.230227802563753
 20
1.375810356170672
 30
0.0
 40
0.0553571428571429
 41
0.0
 71
     4
 72
     1
  1
\A1;12{\H0.67x;\S5^ ;}
  7
STIL17
 73
     1
 44
1.0
  0
ENDBLK
  5
200
330
1FE
100
AcDbEntity
  8
0
100
AcDbBlockEnd
  0
BLOCK
  5
20F
330
20E
100
AcDbEntity
  8
0
100
AcDbBlockBegin
  2
*U26
 70
     1
 71
     0
 10
0.993632714961791
 20
0.1509148473691084
 30
0.0
  3
*U26
  1

  0
LINE
  5
211
330
20E
100
AcDbEntity
  8
PATTERN_CLASS
  6
Continuous
 62
     8
100
AcDbLine
 10
1.712382715706895
 20
0.1759148477416375
 30
0.0
 11
1.012382715706849
 21
0.1759148477416375
 31
0.0
  0
LINE
  5
212
330
20E
100
AcDbEntity
  8
PATTERN_CLASS
  6
Continuous
 62
     8
100
AcDbLine
 10
1.712382715706895
 20
0.1509148473691084
 30
0.0
 11
1.712382715706895
 21
0.2759148492317536
 31
0.0
  0
LINE
  5
213
330
20E
100
AcDbEntity
  8
PATTERN_CLASS
  6
Continuous
 62
     4
100
AcDbLine
 10
1.693632714961836
 20
0.1571648469965794
 30
0.0
 11
1.731132716451953
 21
0.1946648484866955
 31
0.0
  0
LINE
  5
214
330
20E
100
AcDbEntity
  8
PATTERN_CLASS
  6
Continuous
 62
     8
100
AcDbLine
 10
1.587382715706895
 20
0.1509148473691084
 30
0.0
 11
1.587382715706895
 21
0.2759148492317536
 31
0.0
  0
LINE
  5
215
330
20E
100
AcDbEntity
  8
PATTERN_CLASS
  6
Continuous
 62
     4
100
AcDbLine
 10
1.568632714961836
 20
0.1571648469965794
 30
0.0
 11
1.606132716451953
 21
0.1946648484866955
 31
0.0
  0
MTEXT
  5
216
330
20E
100
AcDbEntity
  8
PATTERN_CLASS
 62
     3
100
AcDbMText
 10
1.582676778206895
 20
0.2278776606141665
 30
0.0
 40
0.0553571428571429
 41
0.0
 71
     4
 72
     1
  1
\A1;12{\H0.67x;\S5^ ;}
  7
STIL17
 73
     1
 44
1.0
  0
LINE
  5
217
330
20E
100
AcDbEntity
  8
PATTERN_CLASS
  6
Continuous
 62
     8
100
AcDbLine
 10
1.137382715706849
 20
0.1509148473691084
 30
0.0
 11
1.137382715706849
 21
0.2759148492317536
 31
0.0
  0
LINE
  5
218
330
20E
100
AcDbEntity
  8
PATTERN_CLASS
  6
Continuous
 62
     4
100
AcDbLine
 10
1.118632714961791
 20
0.1571648469965794
 30
0.0
 11
1.156132716451907
 21
0.1946648484866955
 31
0.0
  0
TEXT
  5
219
330
20E
100
AcDbEntity
  8
PATTERN_CLASS
 62
     3
100
AcDbText
 10
1.312539122113278
 20
0.2009148481141665
 30
0.0
 40
0.0553571428571429
  1
45
  7
STIL17
 72
     1
 11
1.362382715706872
 21
0.2009148481141665
 31
0.0
100
AcDbText
  0
LINE
  5
21A
330
20E
100
AcDbEntity
  8
PATTERN_CLASS
  6
Continuous
 62
     8
100
AcDbLine
 10
1.012382715706849
 20
0.1509148473691084
 30
0.0
 11
1.012382715706849
 21
0.2759148492317536
 31
0.0
  0
LINE
  5
21B
330
20E
100
AcDbEntity
  8
PATTERN_CLASS
  6
Continuous
 62
     4
100
AcDbLine
 10
0.993632714961791
 20
0.1571648469965794
 30
0.0
 11
1.031132716451907
 21
0.1946648484866955
 31
0.0
  0
MTEXT
  5
21C
330
20E
100
AcDbEntity
  8
PATTERN_CLASS
 62
     3
100
AcDbMText
 10
1.007676778206849
 20
0.2278776606141665
 30
0.0
 40
0.0553571428571429
 41
0.0
 71
     4
 72
     1
  1
\A1;12{\H0.67x;\S5^ ;}
  7
STIL17
 73
     1
 44
1.0
  0
ENDBLK
  5
210
330
20E
100
AcDbEntity
  8
0
100
AcDbBlockEnd
  0
BLOCK
  5
21F
330
21E
100
AcDbEntity
  8
0
100
AcDbBlockBegin
  2
*U27
 70
     1
 71
     0
 10
1.826893156376286
 20
0.3694898853628956
 30
0.0
  3
*U27
  1

  0
LINE
  5
221
330
21E
100
AcDbEntity
  8
PATTERN_CLASS
  6
Continuous
 62
     8
100
AcDbLine
 10
1.926893157866402
 20
0.3882398861079537
 30
0.0
 11
1.926893157866402
 21
1.088239886107999
 31
0.0
  0
LINE
  5
222
330
21E
100
AcDbEntity
  8
PATTERN_CLASS
  6
Continuous
 62
     8
100
AcDbLine
 10
1.951893158238931
 20
0.3882398861079537
 30
0.0
 11
1.826893156376286
 21
0.3882398861079537
 31
0.0
  0
LINE
  5
223
330
21E
100
AcDbEntity
  8
PATTERN_CLASS
  6
Continuous
 62
     4
100
AcDbLine
 10
1.94564315861146
 20
0.3694898853628956
 30
0.0
 11
1.908143157121344
 21
0.4069898868530117
 31
0.0
  0
LINE
  5
224
330
21E
100
AcDbEntity
  8
PATTERN_CLASS
  6
Continuous
 62
     8
100
AcDbLine
 10
1.951893158238931
 20
0.5132398861079537
 30
0.0
 11
1.826893156376286
 21
0.5132398861079537
 31
0.0
  0
LINE
  5
225
330
21E
100
AcDbEntity
  8
PATTERN_CLASS
  6
Continuous
 62
     4
100
AcDbLine
 10
1.94564315861146
 20
0.4944898853628956
 30
0.0
 11
1.908143157121344
 21
0.5319898868530117
 31
0.0
  0
MTEXT
  5
226
330
21E
100
AcDbEntity
  8
PATTERN_CLASS
 62
     3
100
AcDbMText
 10
1.874930344993874
 20
0.3835339486079537
 30
0.0
 40
0.0553571428571429
 41
0.0
 71
     4
 72
     1
  1
\A1;12{\H0.67x;\S5^ ;}
  7
STIL17
 11
6.123031769111886E-17
 21
1.0
 31
0.0
 73
     1
 44
1.0
  0
LINE
  5
227
330
21E
100
AcDbEntity
  8
PATTERN_CLASS
  6
Continuous
 62
     8
100
AcDbLine
 10
1.951893158238931
 20
0.9632398861079992
 30
0.0
 11
1.826893156376286
 21
0.9632398861079992
 31
0.0
  0
LINE
  5
228
330
21E
100
AcDbEntity
  8
PATTERN_CLASS
  6
Continuous
 62
     4
100
AcDbLine
 10
1.94564315861146
 20
0.9444898853629411
 30
0.0
 11
1.908143157121344
 21
0.9819898868530572
 31
0.0
  0
TEXT
  5
229
330
21E
100
AcDbEntity
  8
PATTERN_CLASS
 62
     3
100
AcDbText
 10
1.901893157493873
 20
0.6883962925143828
 30
0.0
 40
0.0553571428571429
  1
45
 50
90.0
  7
STIL17
 72
     1
 11
1.901893157493873
 21
0.7382398861079764
 31
0.0
100
AcDbText
  0
LINE
  5
22A
330
21E
100
AcDbEntity
  8
PATTERN_CLASS
  6
Continuous
 62
     8
100
AcDbLine
 10
1.951893158238931
 20
1.088239886107999
 30
0.0
 11
1.826893156376286
 21
1.088239886107999
 31
0.0
  0
LINE
  5
22B
330
21E
100
AcDbEntity
  8
PATTERN_CLASS
  6
Continuous
 62
     4
100
AcDbLine
 10
1.94564315861146
 20
1.069489885362941
 30
0.0
 11
1.908143157121344
 21
1.106989886853057
 31
0.0
  0
MTEXT
  5
22C
330
21E
100
AcDbEntity
  8
PATTERN_CLASS
 62
     3
100
AcDbMText
 10
1.874930344993874
 20
0.9585339486079991
 30
0.0
 40
0.0553571428571429
 41
0.0
 71
     4
 72
     1
  1
\A1;12{\H0.67x;\S5^ ;}
  7
STIL17
 11
6.123031769111886E-17
 21
1.0
 31
0.0
 73
     1
 44
1.0
  0
ENDBLK
  5
220
330
21E
100
AcDbEntity
  8
0
100
AcDbBlockEnd
  0
BLOCK
  5
22F
330
22E
100
AcDbEntity
  8
0
100
AcDbBlockBegin
  2
*U28
 70
     1
 71
     0
 10
0.9936327149616773
 20
1.233395784835921
 30
0.0
  3
*U28
  1

  0
LINE
  5
231
330
22E
100
AcDbEntity
  8
PATTERN_CLASS
  6
Continuous
 62
     8
100
AcDbLine
 10
1.012382715706735
 20
1.25839578520845
 30
0.0
 11
1.712382715706781
 21
1.25839578520845
 31
0.0
  0
LINE
  5
232
330
22E
100
AcDbEntity
  8
PATTERN_CLASS
  6
Continuous
 62
     8
100
AcDbLine
 10
1.012382715706735
 20
1.233395784835921
 30
0.0
 11
1.012382715706735
 21
1.358395786698566
 31
0.0
  0
LINE
  5
233
330
22E
100
AcDbEntity
  8
PATTERN_CLASS
  6
Continuous
 62
     4
100
AcDbLine
 10
0.9936327149616773
 20
1.239645784463392
 30
0.0
 11
1.031132716451793
 21
1.277145785953508
 31
0.0
  0
LINE
  5
234
330
22E
100
AcDbEntity
  8
PATTERN_CLASS
  6
Continuous
 62
     8
100
AcDbLine
 10
1.712382715706781
 20
1.233395784835921
 30
0.0
 11
1.712382715706781
 21
1.358395786698566
 31
0.0
  0
LINE
  5
235
330
22E
100
AcDbEntity
  8
PATTERN_CLASS
  6
Continuous
 62
     4
100
AcDbLine
 10
1.693632714961723
 20
1.239645784463392
 30
0.0
 11
1.731132716451839
 21
1.277145785953508
 31
0.0
  0
TEXT
  5
236
330
22E
100
AcDbEntity
  8
PATTERN_CLASS
 62
     3
100
AcDbText
 10
1.311818758892801
 20
1.283395785580979
 30
0.0
 40
0.0553571428571429
  1
70
  7
STIL17
 72
     1
 11
1.362382715706758
 21
1.283395785580979
 31
0.0
100
AcDbText
  0
ENDBLK
  5
230
330
22E
100
AcDbEntity
  8
0
100
AcDbBlockEnd
  0
BLOCK
  5
239
330
238
100
AcDbEntity
  8
0
100
AcDbBlockBegin
  2
*U29
 70
     1
 71
     0
 10
0.9936327149616773
 20
1.358474479035181
 30
0.0
  3
*U29
  1

  0
LINE
  5
23B
330
238
100
AcDbEntity
  8
PATTERN_CLASS
  6
Continuous
 62
     8
100
AcDbLine
 10
1.012382715706735
 20
1.38347447940771
 30
0.0
 11
1.712382715706781
 21
1.38347447940771
 31
0.0
  0
LINE
  5
23C
330
238
100
AcDbEntity
  8
PATTERN_CLASS
  6
Continuous
 62
     8
100
AcDbLine
 10
1.012382715706735
 20
1.358474479035181
 30
0.0
 11
1.012382715706735
 21
1.483474480897826
 31
0.0
  0
LINE
  5
23D
330
238
100
AcDbEntity
  8
PATTERN_CLASS
  6
Continuous
 62
     4
100
AcDbLine
 10
0.9936327149616773
 20
1.364724478662652
 30
0.0
 11
1.031132716451793
 21
1.402224480152768
 31
0.0
  0
LINE
  5
23E
330
238
100
AcDbEntity
  8
PATTERN_CLASS
  6
Continuous
 62
     8
100
AcDbLine
 10
1.137382715706735
 20
1.358474479035181
 30
0.0
 11
1.137382715706735
 21
1.483474480897826
 31
0.0
  0
LINE
  5
23F
330
238
100
AcDbEntity
  8
PATTERN_CLASS
  6
Continuous
 62
     4
100
AcDbLine
 10
1.118632714961677
 20
1.364724478662652
 30
0.0
 11
1.156132716451793
 21
1.402224480152768
 31
0.0
  0
MTEXT
  5
240
330
238
100
AcDbEntity
  8
PATTERN_CLASS
 62
     3
100
AcDbMText
 10
1.007676778206735
 20
1.435437292280239
 30
0.0
 40
0.0553571428571429
 41
0.0
 71
     4
 72
     1
  1
\A1;12{\H0.67x;\S5^ ;}
  7
STIL17
 73
     1
 44
1.0
  0
LINE
  5
241
330
238
100
AcDbEntity
  8
PATTERN_CLASS
  6
Continuous
 62
     8
100
AcDbLine
 10
1.587382715706781
 20
1.358474479035181
 30
0.0
 11
1.587382715706781
 21
1.483474480897826
 31
0.0
  0
LINE
  5
242
330
238
100
AcDbEntity
  8
PATTERN_CLASS
  6
Continuous
 62
     4
100
AcDbLine
 10
1.568632714961723
 20
1.364724478662652
 30
0.0
 11
1.606132716451839
 21
1.402224480152768
 31
0.0
  0
TEXT
  5
243
330
238
100
AcDbEntity
  8
PATTERN_CLASS
 62
     3
100
AcDbText
 10
1.312539122113164
 20
1.408474479780239
 30
0.0
 40
0.0553571428571429
  1
45
  7
STIL17
 72
     1
 11
1.362382715706758
 21
1.408474479780239
 31
0.0
100
AcDbText
  0
LINE
  5
244
330
238
100
AcDbEntity
  8
PATTERN_CLASS
  6
Continuous
 62
     8
100
AcDbLine
 10
1.712382715706781
 20
1.358474479035181
 30
0.0
 11
1.712382715706781
 21
1.483474480897826
 31
0.0
  0
LINE
  5
245
330
238
100
AcDbEntity
  8
PATTERN_CLASS
  6
Continuous
 62
     4
100
AcDbLine
 10
1.693632714961723
 20
1.364724478662652
 30
0.0
 11
1.731132716451839
 21
1.402224480152768
 31
0.0
  0
MTEXT
  5
246
330
238
100
AcDbEntity
  8
PATTERN_CLASS
 62
     3
100
AcDbMText
 10
1.582676778206781
 20
1.435437292280239
 30
0.0
 40
0.0553571428571429
 41
0.0
 71
     4
 72
     1
  1
\A1;12{\H0.67x;\S5^ ;}
  7
STIL17
 73
     1
 44
1.0
  0
ENDBLK
  5
23A
330
238
100
AcDbEntity
  8
0
100
AcDbBlockEnd
  0
BLOCK
  5
249
330
248
100
AcDbEntity
  8
0
100
AcDbBlockBegin
  2
*U30
 70
     1
 71
     0
 10
0.7546384997338395
 20
1.524858404821657
 30
0.0
  3
*U30
  1

  0
LINE
  5
24B
330
248
100
AcDbEntity
  8
PATTERN_CLASS
  6
Continuous
 62
     8
100
AcDbLine
 10
0.8523166251063685
 20
1.543608405566715
 30
0.0
 11
0.8523166251063685
 21
6.943608405566693
 31
0.0
  0
LINE
  5
24C
330
248
100
AcDbEntity
  8
PATTERN_CLASS
  6
Continuous
 62
     8
100
AcDbLine
 10
0.8273166247338395
 20
1.543608405566715
 30
0.0
 11
0.9523166265964846
 21
1.543608405566715
 31
0.0
  0
LINE
  5
24D
330
248
100
AcDbEntity
  8
PATTERN_CLASS
  6
Continuous
 62
     4
100
AcDbLine
 10
0.8710666258514266
 20
1.524858404821657
 30
0.0
 11
0.8335666243613105
 21
1.562358406311773
 31
0.0
  0
LINE
  5
24E
330
248
100
AcDbEntity
  8
PATTERN_CLASS
  6
Continuous
 62
     8
100
AcDbLine
 10
0.8273166247338395
 20
2.743608405566647
 30
0.0
 11
0.9523166265964846
 21
2.743608405566647
 31
0.0
  0
LINE
  5
24F
330
248
100
AcDbEntity
  8
PATTERN_CLASS
  6
Continuous
 62
     4
100
AcDbLine
 10
0.8710666258514266
 20
2.724858404821589
 30
0.0
 11
0.8335666243613105
 21
2.762358406311705
 31
0.0
  0
TEXT
  5
250
330
248
100
AcDbEntity
  8
PATTERN_CLASS
 62
     3
100
AcDbText
 10
0.8273166247338395
 20
2.050265955974061
 30
0.0
 40
0.0553571428571429
  1
1.20
 50
90.0
  7
STIL17
 72
     1
 11
0.8273166247338395
 21
2.143608405566511
 31
0.0
100
AcDbText
  0
LINE
  5
251
330
248
100
AcDbEntity
  8
PATTERN_CLASS
  6
Continuous
 62
     8
100
AcDbLine
 10
0.8273166247338395
 20
6.943608405566693
 30
0.0
 11
0.9523166265964846
 21
6.943608405566693
 31
0.0
  0
LINE
  5
252
330
248
100
AcDbEntity
  8
PATTERN_CLASS
  6
Continuous
 62
     4
100
AcDbLine
 10
0.8710666258514266
 20
6.924858404821634
 30
0.0
 11
0.8335666243613105
 21
6.962358406311751
 31
0.0
  0
TEXT
  5
253
330
248
100
AcDbEntity
  8
PATTERN_CLASS
 62
     3
100
AcDbText
 10
0.8273166247338395
 20
4.755363911072175
 30
0.0
 40
0.0553571428571429
  1
4.20
 50
90.0
  7
STIL17
 72
     1
 11
0.8273166247338395
 21
4.84360840556667
 31
0.0
100
AcDbText
  0
ENDBLK
  5
24A
330
248
100
AcDbEntity
  8
0
100
AcDbBlockEnd
  0
BLOCK
  5
256
330
255
100
AcDbEntity
  8
0
100
AcDbBlockBegin
  2
*U31
 70
     1
 71
     0
 10
0.8635654813548784
 20
1.524858404821657
 30
0.0
  3
*U31
  1

  0
LINE
  5
258
330
255
100
AcDbEntity
  8
PATTERN_CLASS
  6
Continuous
 62
     8
100
AcDbLine
 10
0.9612436067274075
 20
1.543608405566715
 30
0.0
 11
0.9612436067274075
 21
6.943608405566693
 31
0.0
  0
LINE
  5
259
330
255
100
AcDbEntity
  8
PATTERN_CLASS
  6
Continuous
 62
     8
100
AcDbLine
 10
0.9362436063548785
 20
1.543608405566715
 30
0.0
 11
1.061243608217524
 21
1.543608405566715
 31
0.0
  0
LINE
  5
25A
330
255
100
AcDbEntity
  8
PATTERN_CLASS
  6
Continuous
 62
     4
100
AcDbLine
 10
0.9799936074724656
 20
1.524858404821657
 30
0.0
 11
0.9424936059823494
 21
1.562358406311773
 31
0.0
  0
LINE
  5
25B
330
255
100
AcDbEntity
  8
PATTERN_CLASS
  6
Continuous
 62
     8
100
AcDbLine
 10
0.9362436063548785
 20
1.843608405566783
 30
0.0
 11
1.061243608217524
 21
1.843608405566783
 31
0.0
  0
LINE
  5
25C
330
255
100
AcDbEntity
  8
PATTERN_CLASS
  6
Continuous
 62
     4
100
AcDbLine
 10
0.9799936074724656
 20
1.824858404821725
 30
0.0
 11
0.9424936059823494
 21
1.862358406311842
 31
0.0
  0
TEXT
  5
25D
330
255
100
AcDbEntity
  8
PATTERN_CLASS
 62
     3
100
AcDbText
 10
0.9362436063548785
 20
1.643293805252206
 30
0.0
 40
0.0553571428571429
  1
30
 50
90.0
  7
STIL17
 72
     1
 11
0.9362436063548785
 21
1.693608405566806
 31
0.0
100
AcDbText
  0
LINE
  5
25E
330
255
100
AcDbEntity
  8
PATTERN_CLASS
  6
Continuous
 62
     8
100
AcDbLine
 10
0.9362436063548785
 20
2.743608405566647
 30
0.0
 11
1.061243608217524
 21
2.743608405566647
 31
0.0
  0
LINE
  5
25F
330
255
100
AcDbEntity
  8
PATTERN_CLASS
  6
Continuous
 62
     4
100
AcDbLine
 10
0.9799936074724656
 20
2.724858404821589
 30
0.0
 11
0.9424936059823494
 21
2.762358406311705
 31
0.0
  0
TEXT
  5
260
330
255
100
AcDbEntity
  8
PATTERN_CLASS
 62
     3
100
AcDbText
 10
0.9362436063548785
 20
2.243515455473765
 30
0.0
 40
0.0553571428571429
  1
90
 50
90.0
  7
STIL17
 72
     1
 11
0.9362436063548785
 21
2.293608405566715
 31
0.0
100
AcDbText
  0
LINE
  5
261
330
255
100
AcDbEntity
  8
PATTERN_CLASS
  6
Continuous
 62
     8
100
AcDbLine
 10
0.9362436063548785
 20
6.793608405566715
 30
0.0
 11
1.061243608217524
 21
6.793608405566715
 31
0.0
  0
LINE
  5
262
330
255
100
AcDbEntity
  8
PATTERN_CLASS
  6
Continuous
 62
     4
100
AcDbLine
 10
0.9799936074724656
 20
6.774858404821657
 30
0.0
 11
0.9424936059823494
 21
6.812358406311773
 31
0.0
  0
TEXT
  5
263
330
255
100
AcDbEntity
  8
PATTERN_CLASS
 62
     3
100
AcDbText
 10
0.9362436063548785
 20
4.680557855016073
 30
0.0
 40
0.0553571428571429
  1
4.05
 50
90.0
  7
STIL17
 72
     1
 11
0.9362436063548785
 21
4.768608405566624
 31
0.0
100
AcDbText
  0
LINE
  5
264
330
255
100
AcDbEntity
  8
PATTERN_CLASS
  6
Continuous
 62
     8
100
AcDbLine
 10
0.9362436063548785
 20
6.943608405566693
 30
0.0
 11
1.061243608217524
 21
6.943608405566693
 31
0.0
  0
LINE
  5
265
330
255
100
AcDbEntity
  8
PATTERN_CLASS
  6
Continuous
 62
     4
100
AcDbLine
 10
0.9799936074724656
 20
6.924858404821634
 30
0.0
 11
0.9424936059823494
 21
6.962358406311751
 31
0.0
  0
TEXT
  5
266
330
255
100
AcDbEntity
  8
PATTERN_CLASS
 62
     3
100
AcDbText
 10
0.9362436063548785
 20
6.813666856875212
 30
0.0
 40
0.0553571428571429
  1
15
 50
90.0
  7
STIL17
 72
     1
 11
0.9362436063548785
 21
6.868608405566761
 31
0.0
100
AcDbText
  0
ENDBLK
  5
257
330
255
100
AcDbEntity
  8
0
100
AcDbBlockEnd
  0
ENDSEC
  0
SECTION
  2
ENTITIES
  0
TEXT
  5
2C
330
1F
100
AcDbEntity
  8
PATTERN_CLASS
 62
     2
100
AcDbText
 10
7.930598318357625
 20
6.636987954575613
 30
0.0
 40
0.0597857142857134
  1
Zasklepiona od góry 
  7
STIL17
100
AcDbText
  0
TEXT
  5
2D
330
1F
100
AcDbEntity
  8
PATTERN_CLASS
 62
     2
100
AcDbText
 10
7.930598318357625
 20
6.721059139174672
 30
0.0
 40
0.0597857142857134
  1
grubo\U+015b\U+0107 \U+015bcianki 4 mm 
  7
STIL17
100
AcDbText
  0
TEXT
  5
2E
330
1F
100
AcDbEntity
  8
PATTERN_CLASS
 62
     2
100
AcDbText
 10
7.930598318357625
 20
6.809323333028917
 30
0.0
 40
0.0597857142857134
  1
o wymiarach 8 x 6 cm, 
  7
STIL17
100
AcDbText
  0
TEXT
  5
2F
330
1F
100
AcDbEntity
  8
PATTERN_CLASS
 62
     2
100
AcDbText
 10
7.930598318357625
 20
6.907147412252231
 30
0.0
 40
0.059785714285715
  1
Profil stalowy zimnogi\U+0119ty 
  7
STIL17
100
AcDbText
  0
TEXT
  5
32
330
1F
100
AcDbEntity
  8
BUDOWLE$I$BUDYNKI-5
 62
     7
100
AcDbText
 10
9.276215880517611
 20
0.6646759454424682
 30
0.0
 40
0.0590173010381118
  1
BOISKA TRENINGOWEGO
 50
90.0
 41
0.889999999990975
  7
STIL10
100
AcDbText
  0
TEXT
  5
33
330
1F
100
AcDbEntity
  8
BUDOWLE$I$BUDYNKI-5
 62
     7
100
AcDbText
 10
9.737339649142768
 20
0.1461737328822892
 30
0.0
 40
0.0499377162628271
  1
Opracowa\U+0142:
 50
90.0
  7
STIL10
100
AcDbText
  0
TEXT
  5
34
330
1F
100
AcDbEntity
  8
BUDOWLE$I$BUDYNKI-5
 62
     7
100
AcDbText
 10
9.738100296104221
 20
0.6481737328836061
 30
0.0
 40
0.0449439446367509
  1
Krystyna
 50
90.0
  7
STIL10
100
AcDbText
  0
TEXT
  5
35
330
1F
100
AcDbEntity
  8
BUDOWLE$I$BUDYNKI-5
 62
     7
100
AcDbText
 10
9.738100296104221
 20
0.9671737328842482
 30
0.0
 40
0.0449439446367509
  1
Kos-Augustyniak
 50
90.0
  7
STIL10
100
AcDbText
  0
TEXT
  5
36
330
1F
100
AcDbEntity
  8
BUDOWLE$I$BUDYNKI-5
 62
     7
100
AcDbText
 10
9.738100296104221
 20
1.488389267366074
 30
0.0
 40
0.0449439446367509
  1
arch.
 50
90.0
  7
STIL10
100
AcDbText
  0
TEXT
  5
37
330
1F
100
AcDbEntity
  8
BUDOWLE$I$BUDYNKI-5
 62
     7
100
AcDbText
 10
9.738100296104221
 20
1.885664187483599
 30
0.0
 40
0.0449439446367509
  1
-//-   -//-
 50
90.0
 41
0.9000000000091868
  7
STIL10
100
AcDbText
  0
TEXT
  5
38
330
1F
100
AcDbEntity
  8
BUDOWLE$I$BUDYNKI-5
 62
     7
100
AcDbText
 10
9.217808993721519
 20
2.8936279506961
 30
0.0
 40
0.061287197231933
  1
1:25
 50
90.0
 41
0.7999999999999999
  7
STIL10
100
AcDbText
  0
TEXT
  5
39
330
1F
100
AcDbEntity
  8
BUDOWLE$I$BUDYNKI-5
 62
     7
100
AcDbText
 10
9.490006315809524
 20
0.1461737328822892
 30
0.0
 40
0.0499377162630336
  1
Projektant:
 50
90.0
  7
STIL10
100
AcDbText
  0
TEXT
  5
3A
330
1F
100
AcDbEntity
  8
BUDOWLE$I$BUDYNKI-5
 62
     7
100
AcDbText
 10
9.215557124808584
 20
2.704100167260094
 30
0.0
 40
0.0499377162628271
  1
Skala:
 50
90.0
  7
STIL10
100
AcDbText
  0
TEXT
  5
3B
330
1F
100
AcDbEntity
  8
BUDOWLE$I$BUDYNKI-5
 62
     7
100
AcDbText
 10
9.199676909075151
 20
3.104249897593945
 30
0.0
 40
0.0499377162628271
  1
Nr rys.:
 50
90.0
  7
STIL10
100
AcDbText
  0
TEXT
  5
3C
330
1F
100
AcDbEntity
  8
BUDOWLE$I$BUDYNKI-5
 62
     7
100
AcDbText
 10
9.383339649142727
 20
3.104249897593945
 30
0.0
 40
0.0499377162628271
  1
Podpis:
 50
90.0
  7
STIL10
100
AcDbText
  0
TEXT
  5
3D
330
1F
100
AcDbEntity
  8
BUDOWLE$I$BUDYNKI-5
 62
     7
100
AcDbText
 10
9.383339649142727
 20
2.701749897593345
 30
0.0
 40
0.0499377162628271
  1
Data:
 50
90.0
  7
STIL10
100
AcDbText
  0
TEXT
  5
3E
330
1F
100
AcDbEntity
  8
BUDOWLE$I$BUDYNKI-5
 62
     7
100
AcDbText
 10
9.383339649142727
 20
1.819639267366711
 30
0.0
 40
0.0499377162628271
  1
Nr upr. bud.:
 50
90.0
  7
STIL10
100
AcDbText
  0
TEXT
  5
3F
330
1F
100
AcDbEntity
  8
BUDOWLE$I$BUDYNKI-5
 62
     7
100
AcDbText
 10
9.383339649142727
 20
1.488389267366074
 30
0.0
 40
0.0499377162628271
  1
Specjaln.:
 50
90.0
  7
STIL10
100
AcDbText
  0
TEXT
  5
40
330
1F
100
AcDbEntity
  8
BUDOWLE$I$BUDYNKI-5
 62
     7
100
AcDbText
 10
9.383339649142727
 20
0.9671737328842482
 30
0.0
 40
0.0499377162628271
  1
Nazwisko:
 50
90.0
  7
STIL10
100
AcDbText
  0
TEXT
  5
41
330
1F
100
AcDbEntity
  8
BUDOWLE$I$BUDYNKI-5
 62
     7
100
AcDbText
 10
9.383339649142727
 20
0.6481737328836061
 30
0.0
 40
0.0499377162628271
  1
Imi\U+0119:
 50
90.0
  7
STIL10
100
AcDbText
  0
TEXT
  5
42
330
1F
100
AcDbEntity
  8
BUDOWLE$I$BUDYNKI-5
 62
     7
100
AcDbText
 10
9.207673772716134
 20
3.361084929974388
 30
0.0
 40
0.0749065743946536
  1
10
 50
90.0
 41
0.8000000000066144
  7
STIL10
100
AcDbText
  0
TEXT
  5
43
330
1F
100
AcDbEntity
  8
BUDOWLE$I$BUDYNKI-5
 62
     7
100
AcDbText
 10
9.02033964914267
 20
0.1461737328822892
 30
0.0
 40
0.0499377162630336
  1
Adres obiektu:
 50
90.0
  7
STIL10
100
AcDbText
  0
TEXT
  5
44
330
1F
100
AcDbEntity
  8
BUDOWLE$I$BUDYNKI-5
 62
     7
100
AcDbText
 10
8.769006315809293
 20
0.1461737328822892
 30
0.0
 40
0.0499377162628271
  1
Nazwa obiektu:
 50
90.0
  7
STIL10
100
AcDbText
  0
TEXT
  5
45
330
1F
100
AcDbEntity
  8
BUDOWLE$I$BUDYNKI-5
 62
     7
100
AcDbText
 10
9.18871588051752
 20
0.6646759454424682
 30
0.0
 40
0.0590173010379054
  1
DETAL OGRODZENIA
 50
90.0
 41
0.8899999999940883
  7
STIL10
100
AcDbText
  0
TEXT
  5
46
330
1F
100
AcDbEntity
  8
BUDOWLE$I$BUDYNKI-5
 62
     7
100
AcDbText
 10
9.156006315809236
 20
0.1461737328822892
 30
0.0
 40
0.0499377162628271
  1
Przedmiot rys.:
 50
90.0
  7
STIL10
100
AcDbText
  0
TEXT
  5
47
330
1F
100
AcDbEntity
  8
BUDOWLE$I$BUDYNKI-5
 62
     7
100
AcDbText
 10
9.490766962770977
 20
0.6481737328836061
 30
0.0
 40
0.0449439446367509
  1
Aneta
 50
90.0
  7
STIL10
100
AcDbText
  0
TEXT
  5
48
330
1F
100
AcDbEntity
  8
BUDOWLE$I$BUDYNKI-5
 62
     7
100
AcDbText
 10
9.490766962770977
 20
0.9671737328842482
 30
0.0
 40
0.0449439446367509
  1
Szyc
 50
90.0
  7
STIL10
100
AcDbText
  0
TEXT
  5
49
330
1F
100
AcDbEntity
  8
BUDOWLE$I$BUDYNKI-5
 62
     7
100
AcDbText
 10
9.490766962770977
 20
1.488389267366074
 30
0.0
 40
0.0449439446367509
  1
arch.
 50
90.0
  7
STIL10
100
AcDbText
  0
TEXT
  5
4A
330
1F
100
AcDbEntity
  8
BUDOWLE$I$BUDYNKI-5
 62
     7
100
AcDbText
 10
9.490766962770977
 20
1.816889267366605
 30
0.0
 40
0.0449439446367509
  1
111/02
 50
90.0
 41
0.8999999999999999
  7
STIL10
100
AcDbText
  0
TEXT
  5
4B
330
1F
100
AcDbEntity
  8
BUDOWLE$I$BUDYNKI-5
 62
     7
100
AcDbText
 10
9.738100296104221
 20
2.701749897593345
 30
0.0
 40
0.0449439446367509
  1
03/2007
 50
90.0
  7
STIL10
100
AcDbText
  0
TEXT
  5
4C
330
1F
100
AcDbEntity
  8
BUDOWLE$I$BUDYNKI-5
 62
     7
100
AcDbText
 10
9.490766962770977
 20
2.701749897593345
 30
0.0
 40
0.0449439446367509
  1
03/2007
 50
90.0
  7
STIL10
100
AcDbText
  0
TEXT
  5
4D
330
1F
100
AcDbEntity
  8
BUDOWLE$I$BUDYNKI-5
 62
     7
100
AcDbText
 10
9.0530492138505
 20
0.6757145139017666
 30
0.0
 40
0.0635570934249284
  1
UL.CZ\U+0118STOCHOWSKA 3 K\U+0141OMNICE nr. dz. 549/7, 547/3
 50
90.0
 41
0.8928571428699037
  7
STIL10
100
AcDbText
  0
TEXT
  5
4E
330
1F
100
AcDbEntity
  8
BUDOWLE$I$BUDYNKI-5
 62
     7
100
AcDbText
 10
8.801715880517349
 20
0.6757145139017666
 30
0.0
 40
0.0635570934255477
  1
ZESPÓL BOISK PI\U+0141KARSKO-SZKOLENIOWYCH
 50
90.0
 41
0.8928571428612031
  7
STIL10
100
AcDbText
  0
TEXT
  5
4F
330
1F
100
AcDbEntity
  8
BUDOWLE$I$BUDYNKI-5
 62
     7
100
AcDbText
 10
8.896715880517604
 20
0.6757145139017666
 30
0.0
 40
0.0635570934257542
  1
LKS POGO\U+0143 K\U+0141OMNICE
 50
90.0
 41
0.892857142858303
  7
STIL10
100
AcDbText
  0
TEXT
  5
50
330
1F
100
AcDbEntity
  8
BUDOWLE$I$BUDYNKI-5
 62
     7
100
AcDbText
 10
9.609006315809438
 20
0.1461737328822892
 30
0.0
 40
0.0499377162628271
  1
Projektant:
 50
90.0
  7
STIL10
100
AcDbText
  0
TEXT
  5
51
330
1F
100
AcDbEntity
  8
BUDOWLE$I$BUDYNKI-5
 62
     7
100
AcDbText
 10
9.609766962770891
 20
0.6481737328836061
 30
0.0
 40
0.0449439446367509
  1
Marzena
 50
90.0
  7
STIL10
100
AcDbText
  0
TEXT
  5
52
330
1F
100
AcDbEntity
  8
BUDOWLE$I$BUDYNKI-5
 62
     7
100
AcDbText
 10
9.609766962770891
 20
0.9671737328842482
 30
0.0
 40
0.0449439446367509
  1
Kopera
 50
90.0
  7
STIL10
100
AcDbText
  0
TEXT
  5
53
330
1F
100
AcDbEntity
  8
BUDOWLE$I$BUDYNKI-5
 62
     7
100
AcDbText
 10
9.609766962770891
 20
1.488389267366074
 30
0.0
 40
0.0449439446367509
  1
konstr.
 50
90.0
  7
STIL10
100
AcDbText
  0
TEXT
  5
54
330
1F
100
AcDbEntity
  8
BUDOWLE$I$BUDYNKI-5
 62
     7
100
AcDbText
 10
9.609766962770891
 20
1.816889267366605
 30
0.0
 40
0.0449439446367509
  1
UAN-VIII/8386/151/88UW CZ-WA
 50
90.0
 41
0.8999999999999999
  7
STIL10
100
AcDbText
  0
TEXT
  5
55
330
1F
100
AcDbEntity
  8
BUDOWLE$I$BUDYNKI-5
 62
     7
100
AcDbText
 10
9.609766962770891
 20
2.701749897593345
 30
0.0
 40
0.0449439446367509
  1
03/2007
 50
90.0
  7
STIL10
100
AcDbText
  0
LINE
  5
56
330
1F
100
AcDbEntity
  8
BUDOWLE$I$BUDYNKI-5
  6
Continuous
 62
     2
100
AcDbLine
 10
9.780035128805821
 20
1.471168058294552
 30
0.0
 11
9.312701795472094
 21
1.471168058294552
 31
0.0
  0
LINE
  5
57
330
1F
100
AcDbEntity
  8
BUDOWLE$I$BUDYNKI-5
  6
Continuous
 62
     2
100
AcDbLine
 10
9.52336846213916
 20
0.1289525238105398
 30
0.0
 11
9.52336846213916
 21
3.473112097726317
 31
0.0
  0
LINE
  5
58
330
1F
100
AcDbEntity
  8
BUDOWLE$I$BUDYNKI-5
  6
Continuous
 62
     2
100
AcDbLine
 10
9.780035128805821
 20
1.805168058294839
 30
0.0
 11
9.312701795472094
 21
1.805168058294839
 31
0.0
  0
LINE
  5
59
330
1F
100
AcDbEntity
  8
BUDOWLE$I$BUDYNKI-5
  6
Continuous
 62
     2
100
AcDbLine
 10
9.780035128805821
 20
0.949952523811362
 30
0.0
 11
9.312701795472094
 21
0.949952523811362
 31
0.0
  0
LINE
  5
5A
330
1F
100
AcDbEntity
  8
BUDOWLE$I$BUDYNKI-5
  6
Continuous
 62
     2
100
AcDbLine
 10
9.780035128805821
 20
3.087028688522878
 30
0.0
 11
9.085368462138604
 21
3.087028688522878
 31
0.0
  0
LINE
  5
5B
330
1F
100
AcDbEntity
  8
BUDOWLE$I$BUDYNKI-5
  6
Continuous
 62
     2
100
AcDbLine
 10
9.780035128805821
 20
2.684528688522278
 30
0.0
 11
9.085368462138604
 21
2.684528688522278
 31
0.0
  0
LINE
  5
5C
330
1F
100
AcDbEntity
  8
BUDOWLE$I$BUDYNKI-5
  6
Continuous
 62
     2
100
AcDbLine
 10
9.780035128805821
 20
0.6309525238118567
 30
0.0
 11
8.698368462138888
 21
0.6309525238118567
 31
0.0
  0
LINE
  5
5D
330
1F
100
AcDbEntity
  8
BUDOWLE$I$BUDYNKI-5
  6
Continuous
 62
     2
100
AcDbLine
 10
9.404368462139018
 20
0.1289525238105398
 30
0.0
 11
9.404368462139018
 21
3.473112097726317
 31
0.0
  0
LINE
  5
5E
330
1F
100
AcDbEntity
  8
BUDOWLE$I$BUDYNKI-5
  6
Continuous
 62
     2
100
AcDbLine
 10
9.312701795472094
 20
0.1289525238105398
 30
0.0
 11
9.312701795472094
 21
3.473112097726317
 31
0.0
  0
LINE
  5
5F
330
1F
100
AcDbEntity
  8
BUDOWLE$I$BUDYNKI-5
  6
Continuous
 62
     2
100
AcDbLine
 10
9.085368462138604
 20
0.1289525238105398
 30
0.0
 11
9.085368462138604
 21
3.473112097726317
 31
0.0
  0
LINE
  5
60
330
1F
100
AcDbEntity
  8
BUDOWLE$I$BUDYNKI-5
  6
Continuous
 62
     2
100
AcDbLine
 10
8.949701795472038
 20
0.1289525238105398
 30
0.0
 11
8.949701795472038
 21
3.473112097726317
 31
0.0
  0
LWPOLYLINE
  5
61
330
1F
100
AcDbEntity
  8
BUDOWLE$I$BUDYNKI-5
  6
Continuous
 62
     3
100
AcDbPolyline
 90
        4
 70
     1
 43
0.0
 10
9.780035128805821
 20
3.473112097726317
 10
9.780035128805821
 20
0.1289525238105398
 10
8.698368462138888
 20
0.1289525238105398
 10
8.698368462138888
 20
3.473112097726317
  0
LINE
  5
62
330
1F
100
AcDbEntity
  8
BUDOWLE$I$BUDYNKI-5
  6
Continuous
 62
     2
100
AcDbLine
 10
9.651701795472718
 20
0.1289525238105398
 30
0.0
 11
9.651701795472718
 21
3.473112097726317
 31
0.0
  0
LINE
  5
64
330
1F
100
AcDbEntity
  8
Siatka
  6
Continuous
 62
     2
100
AcDbLine
 10
5.13707259953161
 20
4.839490632318501
 30
0.0
 11
5.863802420346553
 21
1.573422199999917
 31
0.0
  0
TEXT
  5
65
330
1F
100
AcDbEntity
  8
PATTERN_CLASS
 62
     2
100
AcDbText
 10
4.550930019812586
 20
1.334927834262364
 30
0.0
 40
0.0597857142857142
  1
Zasklepiona od góry 
  7
STIL17
100
AcDbText
  0
TEXT
  5
66
330
1F
100
AcDbEntity
  8
PATTERN_CLASS
 62
     2
100
AcDbText
 10
4.550930019812586
 20
1.418999018861423
 30
0.0
 40
0.0597857142857142
  1
grubo\U+015b\U+0107 \U+015bcianki 4 mm 
  7
STIL17
100
AcDbText
  0
LINE
  5
67
330
1F
100
AcDbEntity
  8
PATTERN_CLASS
  6
Continuous
 62
     2
100
AcDbLine
 10
5.863802420346553
 20
1.573422199999917
 30
0.0
 11
5.56582454648212
 21
1.879715618857994
 31
0.0
  0
LWPOLYLINE
  5
68
330
1F
100
AcDbEntity
  8
PATTERN_CLASS
  6
Continuous
 62
     2
100
AcDbPolyline
 90
        3
 70
     0
 43
0.0
 10
5.863802420346553
 20
1.573422199999917
 10
4.820832314938145
 20
1.573422199999917
 10
4.477134252871253
 20
1.573422199999917
  0
TEXT
  5
69
330
1F
100
AcDbEntity
  8
PATTERN_CLASS
 62
     2
100
AcDbText
 10
4.550930019812586
 20
1.507263212715669
 30
0.0
 40
0.0597857142857142
  1
o wymiarach 8 x 6 cm, 
  7
STIL17
100
AcDbText
  0
TEXT
  5
6A
330
1F
100
AcDbEntity
  8
PATTERN_CLASS
 62
     2
100
AcDbText
 10
4.550930019812586
 20
1.605087291938983
 30
0.0
 40
0.0597857142857142
  1
Profil stalowy zimnogi\U+0119ty 
  7
STIL17
100
AcDbText
  0
TEXT
  5
6B
330
1F
100
AcDbEntity
  8
Siatka
 62
     2
100
AcDbText
 10
2.095626190670388
 20
0.8871663681380493
 30
0.0
 40
0.0597857142857142
  1
CO 20
  7
STIL17
100
AcDbText
  0
TEXT
  5
6C
330
1F
100
AcDbEntity
  8
Siatka
 62
     2
100
AcDbText
 10
2.089829750626262
 20
1.014688049108836
 30
0.0
 40
0.0597857142857142
  1
4 o10
  7
STIL17
100
AcDbText
  0
TEXT
  5
6D
330
1F
100
AcDbEntity
  8
Siatka
 62
     2
100
AcDbText
 10
3.809357405887009
 20
1.042141166028664
 30
0.0
 40
0.0597857142857142
  1
4 o10
  7
STIL17
100
AcDbText
  0
TEXT
  5
6E
330
1F
100
AcDbEntity
  8
Siatka
 62
     2
100
AcDbText
 10
0.4425560257973665
 20
2.148490866911648
 30
0.0
 40
0.0597857142857143
  1
4 o 6/20
 50
90.0
  7
STIL17
100
AcDbText
  0
LWPOLYLINE
  5
6F
330
1F
100
AcDbEntity
  8
Siatka
  6
Continuous
 62
    15
100
AcDbPolyline
 90
        4
 70
     0
 43
0.0
 10
0.5855557532742696
 20
1.992811663273653
 10
0.5394681544634356
 20
1.861639266658203
 10
0.5394681544634356
 20
2.602586047540072
 10
0.4791997560184987
 20
2.545862849003662
  0
LINE
  5
70
330
1F
100
AcDbEntity
  8
Siatka
  6
Continuous
 62
     2
100
AcDbLine
 10
5.277063207885113
 20
1.086628777155288
 30
0.0
 11
4.78094047113995
 21
0.5681066070155145
 31
0.0
  0
LINE
  5
71
330
1F
100
AcDbEntity
  8
Siatka
  6
Continuous
 62
     2
100
AcDbLine
 10
5.277063207885113
 20
1.086628777155288
 30
0.0
 11
5.102738165916451
 21
0.5681066070155145
 31
0.0
  0
LINE
  5
72
330
1F
100
AcDbEntity
  8
Siatka
  6
Continuous
 62
     2
100
AcDbLine
 10
5.277063207885113
 20
1.086628777155288
 30
0.0
 11
5.093630683988813
 21
0.8899043017920155
 31
0.0
  0
LINE
  5
73
330
1F
100
AcDbEntity
  8
Siatka
  6
Continuous
 62
     2
100
AcDbLine
 10
5.277063207885113
 20
1.086628777155288
 30
0.0
 11
4.793083780376799
 21
0.9050834383380769
 31
0.0
  0
LINE
  5
74
330
1F
100
AcDbEntity
  8
Siatka
  6
Continuous
 62
     2
100
AcDbLine
 10
5.528196772993836
 20
1.086628777155288
 30
0.0
 11
5.277063207885113
 21
1.086628777155288
 31
0.0
  0
MTEXT
  5
75
330
1F
100
AcDbEntity
  8
Siatka
 62
     2
100
AcDbMText
 10
5.280741023861562
 20
1.146181148780123
 30
0.0
 40
0.0459890109890108
 41
5.0
 71
     1
 72
     1
  1
4 M 12
  7
STIL17
 73
     1
 44
1.0
  0
LINE
  5
76
330
1F
100
AcDbEntity
  8
Siatka
  6
Continuous
 62
     2
100
AcDbLine
 10
3.230806361350011
 20
1.079440405734858
 30
0.0
 11
3.381531268847863
 21
0.7936911019368462
 31
0.0
  0
CIRCLE
  5
77
330
1F
100
AcDbEntity
  8
Siatka
  6
Continuous
 62
     2
100
AcDbCircle
 10
3.216415094731843
 20
1.103765379919501
 30
0.0
 40
0.0499999999999998
  0
MTEXT
  5
78
330
1F
100
AcDbEntity
  8
Siatka
 62
     2
100
AcDbMText
 10
3.198076946589961
 20
1.128659988702156
 30
0.0
 40
0.045989010989011
 41
5.0
 71
     1
 72
     1
  1
3
  7
STIL17
 73
     1
 44
1.0
  0
LINE
  5
79
330
1F
100
AcDbEntity
  8
Siatka
  6
Continuous
 62
     2
100
AcDbLine
 10
3.856426293665386
 20
1.008205460428708
 30
0.0
 11
3.360303556920223
 21
0.5681066070155145
 31
0.0
  0
LINE
  5
7A
330
1F
100
AcDbEntity
  8
Siatka
  6
Continuous
 62
     2
100
AcDbLine
 10
3.856426293665386
 20
1.008205460428708
 30
0.0
 11
3.682101251696724
 21
0.5681066070155145
 31
0.0
  0
LINE
  5
7B
330
1F
100
AcDbEntity
  8
Siatka
  6
Continuous
 62
     2
100
AcDbLine
 10
3.856426293665386
 20
1.008205460428708
 30
0.0
 11
3.672993769769087
 21
0.8899043017920155
 31
0.0
  0
LINE
  5
7C
330
1F
100
AcDbEntity
  8
Siatka
  6
Continuous
 62
     2
100
AcDbLine
 10
3.856426293665386
 20
1.008205460428708
 30
0.0
 11
3.372446866157072
 21
0.9050834383380769
 31
0.0
  0
LINE
  5
7D
330
1F
100
AcDbEntity
  8
Siatka
  6
Continuous
 62
     2
100
AcDbLine
 10
4.107559858774109
 20
1.008205460428708
 30
0.0
 11
3.856426293665386
 21
1.008205460428708
 31
0.0
  0
CIRCLE
  5
7E
330
1F
100
AcDbEntity
  8
Siatka
  6
Continuous
 62
     2
100
AcDbCircle
 10
4.126000462206804
 20
1.041363223270889
 30
0.0
 40
0.0499999999999998
  0
MTEXT
  5
7F
330
1F
100
AcDbEntity
  8
Siatka
 62
     2
100
AcDbMText
 10
4.107662314064922
 20
1.067007832053543
 30
0.0
 40
0.0459890109890108
 41
5.0
 71
     1
 72
     1
  1
2
  7
STIL17
 73
     1
 44
1.0
  0
LINE
  5
80
330
1F
100
AcDbEntity
  8
Siatka
  6
Continuous
 62
     2
100
AcDbLine
 10
2.108502113312092
 20
0.9914010404185849
 30
0.0
 11
1.053284817243023
 21
1.589385055795603
 31
0.0
  0
LINE
  5
81
330
1F
100
AcDbEntity
  8
Siatka
  6
Continuous
 62
     2
100
AcDbLine
 10
2.108502113312092
 20
0.9914010404185849
 30
0.0
 11
1.361461401498094
 21
1.589385055795603
 31
0.0
  0
LINE
  5
82
330
1F
100
AcDbEntity
  8
Siatka
  6
Continuous
 62
     2
100
AcDbLine
 10
2.108502113312092
 20
0.9914010404185849
 30
0.0
 11
1.676125913842745
 21
1.586141091750813
 31
0.0
  0
LINE
  5
83
330
1F
100
AcDbEntity
  8
Siatka
  6
Continuous
 62
     2
100
AcDbLine
 10
2.359635678420815
 20
0.9914010404185849
 30
0.0
 11
2.108502113312092
 21
0.9914010404185849
 31
0.0
  0
CIRCLE
  5
84
330
1F
100
AcDbEntity
  8
Siatka
  6
Continuous
 62
     2
100
AcDbCircle
 10
2.37807628185351
 20
1.024558803260766
 30
0.0
 40
0.0499999999999998
  0
MTEXT
  5
85
330
1F
100
AcDbEntity
  8
Siatka
 62
     2
100
AcDbMText
 10
2.359738133711628
 20
1.049453412043421
 30
0.0
 40
0.045989010989011
 41
5.000000000000009
 71
     1
 72
     1
  1
1
  7
STIL17
 73
     1
 44
1.0
  0
LINE
  5
86
330
1F
100
AcDbEntity
  8
Siatka
  6
Continuous
 62
     2
100
AcDbLine
 10
1.808751853541011
 20
1.946973093918453
 30
0.0
 11
1.557618288432288
 21
1.568661240371999
 31
0.0
  0
CIRCLE
  5
87
330
1F
100
AcDbEntity
  8
Siatka
  6
Continuous
 62
     2
100
AcDbCircle
 10
1.827192456973705
 20
1.980130856760634
 30
0.0
 40
0.0499999999999998
  0
MTEXT
  5
88
330
1F
100
AcDbEntity
  8
Siatka
 62
     2
100
AcDbMText
 10
1.808854308831824
 20
2.005025465543289
 30
0.0
 40
0.045989010989011
 41
5.000000000000004
 71
     1
 72
     1
  1
1
  7
STIL17
 73
     1
 44
1.0
  0
CIRCLE
  5
89
330
1F
100
AcDbEntity
  8
Siatka
  6
Continuous
 62
     2
100
AcDbCircle
 10
0.40702900695842
 20
2.071443309461869
 30
0.0
 40
0.0499999999999998
  0
MTEXT
  5
8A
330
1F
100
AcDbEntity
  8
Siatka
 62
     2
100
AcDbMText
 10
0.3821343981757656
 20
2.053105161319987
 30
0.0
 40
0.045989010989011
 41
4.999999999999991
 71
     1
 72
     1
  1
3
  7
STIL17
 11
0.0
 21
1.0
 31
0.0
 73
     1
 44
1.0
  0
LINE
  5
8B
330
1F
100
AcDbEntity
  8
Siatka
  6
Continuous
 62
     2
100
AcDbLine
 10
7.465873895749562
 20
0.6941722562241257
 30
0.0
 11
7.723478864432484
 21
1.850468580849944
 31
0.0
  0
TEXT
  5
8C
330
1F
100
AcDbEntity
  8
PATTERN_CLASS
 62
     2
100
AcDbText
 10
6.153001495215595
 20
0.4556778904865733
 30
0.0
 40
0.0597857142857142
  1
Zasklepiona od góry 
  7
STIL17
100
AcDbText
  0
TEXT
  5
8D
330
1F
100
AcDbEntity
  8
PATTERN_CLASS
 62
     2
100
AcDbText
 10
6.153001495215595
 20
0.5397490750856326
 30
0.0
 40
0.0597857142857142
  1
grubo\U+015b\U+0107 \U+015bcianki 4 mm 
  7
STIL17
100
AcDbText
  0
LINE
  5
8E
330
1F
100
AcDbEntity
  8
PATTERN_CLASS
  6
Continuous
 62
     2
100
AcDbLine
 10
7.465873895749562
 20
0.6941722562241257
 30
0.0
 11
6.33343844438308
 21
1.87192941761433
 31
0.0
  0
LWPOLYLINE
  5
8F
330
1F
100
AcDbEntity
  8
PATTERN_CLASS
  6
Continuous
 62
     2
100
AcDbPolyline
 90
        3
 70
     0
 43
0.0
 10
7.465873895749562
 20
0.6941722562241257
 10
6.422903790341154
 20
0.6941722562241257
 10
6.079205728274262
 20
0.6941722562241257
  0
TEXT
  5
90
330
1F
100
AcDbEntity
  8
PATTERN_CLASS
 62
     2
100
AcDbText
 10
6.153001495215595
 20
0.6280132689398779
 30
0.0
 40
0.0597857142857142
  1
o wymiarach 12 x 8  cm, 
  7
STIL17
100
AcDbText
  0
TEXT
  5
91
330
1F
100
AcDbEntity
  8
PATTERN_CLASS
 62
     2
100
AcDbText
 10
6.153001495215595
 20
0.7258373481631921
 30
0.0
 40
0.0597857142857142
  1
Profil stalowy zimnogi\U+0119ty 
  7
STIL17
100
AcDbText
  0
LINE
  5
92
330
1F
100
AcDbEntity
  8
PATTERN_CLASS
  6
Continuous
 62
     2
100
AcDbLine
 10
3.999549206395622
 20
2.338751799115014
 30
0.0
 11
3.879097028144495
 21
1.944107904874369
 31
0.0
  0
LINE
  5
93
330
1F
100
AcDbEntity
  8
PATTERN_CLASS
  6
Continuous
 62
     2
100
AcDbLine
 10
7.913694235420586
 20
5.51161493736252
 30
0.0
 11
7.35989077436941
 21
4.674867547126349
 31
0.0
  0
TEXT
  5
94
330
1F
100
AcDbEntity
  8
PATTERN_CLASS
 62
     2
100
AcDbText
 10
7.921744261489636
 20
5.439020677616471
 30
0.0
 40
0.0597857142857142
  1
jest odbiciem symetrycznym detalu furtki 
  7
STIL17
100
AcDbText
  0
LWPOLYLINE
  5
95
330
1F
100
AcDbEntity
  8
PATTERN_CLASS
  6
Continuous
 62
     2
100
AcDbPolyline
 90
        3
 70
     0
 43
0.0
 10
9.258768207617703
 20
5.51161493736252
 10
8.079039248144039
 20
5.51161493736252
 10
7.913694235420586
 20
5.51161493736252
  0
TEXT
  5
96
330
1F
100
AcDbEntity
  8
PATTERN_CLASS
 62
     2
100
AcDbText
 10
7.921744261489636
 20
5.536363215101975
 30
0.0
 40
0.0597857142857142
  1
Wej\U+015bcie z przeciwnego naro\U+017cnika 
  7
STIL17
100
AcDbText
  0
TEXT
  5
97
330
1F
100
AcDbEntity
  8
PATTERN_CLASS
 62
     2
100
AcDbText
 10
1.684669441430783
 20
6.583621463576911
 30
0.0
 40
0.0597857142857142
  1
Zasklepiona od góry 
  7
STIL17
100
AcDbText
  0
TEXT
  5
98
330
1F
100
AcDbEntity
  8
PATTERN_CLASS
 62
     2
100
AcDbText
 10
4.037599232464673
 20
2.266157539368965
 30
0.0
 40
0.0597857142857142
  1
o oczku 50 x 200 mm,  drut - o 5 mm 
  7
STIL17
100
AcDbText
  0
TEXT
  5
99
330
1F
100
AcDbEntity
  8
PATTERN_CLASS
 62
     2
100
AcDbText
 10
4.037599232464673
 20
2.36350007685447
 30
0.0
 40
0.0597857142857142
  1
Siatka zgrzewana  ocynkowana
  7
STIL17
100
AcDbText
  0
LWPOLYLINE
  5
9A
330
1F
100
AcDbEntity
  8
PATTERN_CLASS
  6
Continuous
 62
     2
100
AcDbPolyline
 90
        3
 70
     0
 43
0.0
 10
2.55661829113411
 20
3.107221152409067
 10
2.085938623104005
 20
3.107221152409067
 10
1.780961532869882
 20
2.568028642406543
  0
TEXT
  5
9B
330
1F
100
AcDbEntity
  8
PATTERN_CLASS
 62
     2
100
AcDbText
 10
2.10300719708016
 20
3.136037717256524
 30
0.0
 40
0.0597857142857142
  1
Ubity grunt 
  7
STIL17
100
AcDbText
  0
LINE
  5
9C
330
1F
100
AcDbEntity
  8
PATTERN_CLASS
  6
Continuous
 62
     2
100
AcDbLine
 10
6.647887404064083
 20
2.354324911749628
 30
0.0
 11
6.467134209802653
 21
2.869482190484499
 31
0.0
  0
TEXT
  5
9D
330
1F
100
AcDbEntity
  8
PATTERN_CLASS
 62
     2
100
AcDbText
 10
6.655937430133133
 20
2.281730652003579
 30
0.0
 40
0.0597857142857138
  1
zimnogi\U+0119tego  8x4  cm, grubo\U+015b\U+0107 \U+015bcianki 2 mm 
  7
STIL17
100
AcDbText
  0
LWPOLYLINE
  5
9E
330
1F
100
AcDbEntity
  8
PATTERN_CLASS
  6
Continuous
 62
     2
100
AcDbPolyline
 90
        3
 70
     0
 43
0.0
 10
7.992961376261201
 20
2.354324911749628
 10
6.813232416787534
 20
2.354324911749628
 10
6.647887404064083
 20
2.354324911749628
  0
TEXT
  5
9F
330
1F
100
AcDbEntity
  8
PATTERN_CLASS
 62
     2
100
AcDbText
 10
6.655937430133133
 20
2.379073189489083
 30
0.0
 40
0.0597857142857142
  1
Ramka z kszta\U+0142townika stalowego 
  7
STIL17
100
AcDbText
  0
LINE
  5
A0
330
1F
100
AcDbEntity
  8
PATTERN_CLASS
  6
Continuous
 62
     2
100
AcDbLine
 10
7.856802551416293
 20
6.875482320313165
 30
0.0
 11
6.90406395303526
 21
5.200623778427193
 31
0.0
  0
LWPOLYLINE
  5
A1
330
1F
100
AcDbEntity
  8
PATTERN_CLASS
  6
Continuous
 62
     2
100
AcDbPolyline
 90
        3
 70
     0
 43
0.0
 10
8.885842626803179
 20
6.875482320313165
 10
8.022147564139743
 20
6.875482320313165
 10
7.856802551416293
 20
6.875482320313165
  0
LINE
  5
A2
330
1F
100
AcDbEntity
  8
PATTERN_CLASS
  6
Continuous
 62
     2
100
AcDbLine
 10
3.999549206395622
 20
2.338751799115014
 30
0.0
 11
3.722143059106032
 21
3.247632351066618
 31
0.0
  0
LWPOLYLINE
  5
A3
330
1F
100
AcDbEntity
  8
PATTERN_CLASS
  6
Continuous
 62
     2
100
AcDbPolyline
 90
        3
 70
     0
 43
0.0
 10
5.344623178592739
 20
2.338751799115014
 10
4.164894219119073
 20
2.338751799115014
 10
3.999549206395622
 20
2.338751799115014
  0
TEXT
  5
A4
330
1F
100
AcDbEntity
  8
PATTERN_CLASS
 62
     2
100
AcDbText
 10
1.844952841570834
 20
5.275886618032433
 30
0.0
 40
0.0597857142857142
  1
Pionowe 
  7
STIL17
100
AcDbText
  0
TEXT
  5
A5
330
1F
100
AcDbEntity
  8
PATTERN_CLASS
 62
     2
100
AcDbText
 10
1.684669441430783
 20
6.66769264817597
 30
0.0
 40
0.0597857142857142
  1
grubo\U+015b\U+0107 \U+015bcianki 4 mm 
  7
STIL17
100
AcDbText
  0
LINE
  5
A6
330
1F
100
AcDbEntity
  8
PATTERN_CLASS
  6
Continuous
 62
     2
100
AcDbLine
 10
3.0891714560268
 20
5.157569801439665
 30
0.0
 11
3.561658909342407
 21
4.945533686254302
 31
0.0
  0
LINE
  5
A7
330
1F
100
AcDbEntity
  8
PATTERN_CLASS
  6
Continuous
 62
     2
100
AcDbLine
 10
3.0891714560268
 20
5.157569801439665
 30
0.0
 11
3.576205172838304
 21
5.537081735087475
 31
0.0
  0
LINE
  5
A8
330
1F
100
AcDbEntity
  8
PATTERN_CLASS
  6
Continuous
 62
     2
100
AcDbLine
 10
1.828276981816863
 20
5.157569801439665
 30
0.0
 11
1.391364830124352
 21
6.478969344698772
 31
0.0
  0
LINE
  5
A9
330
1F
100
AcDbEntity
  8
PATTERN_CLASS
  6
Continuous
 62
     2
100
AcDbLine
 10
1.828276981816863
 20
5.157569801439665
 30
0.0
 11
1.381624829489567
 21
6.73922617048619
 31
0.0
  0
LWPOLYLINE
  5
AA
330
1F
100
AcDbEntity
  8
PATTERN_CLASS
  6
Continuous
 62
     2
100
AcDbPolyline
 90
        3
 70
     0
 43
0.0
 10
3.0891714560268
 20
5.157569801439665
 10
1.892678857686522
 20
5.157569801439665
 10
1.828276981816863
 20
5.157569801439665
  0
TEXT
  5
AB
330
1F
100
AcDbEntity
  8
PATTERN_CLASS
 62
     2
100
AcDbText
 10
1.844952841570834
 20
5.080990455141177
 30
0.0
 40
0.0597857142857142
  1
wed\U+0142ug zalese\U+0144 systemowych 
  7
STIL17
100
AcDbText
  0
TEXT
  5
AC
330
1F
100
AcDbEntity
  8
PATTERN_CLASS
 62
     2
100
AcDbText
 10
1.844952841570834
 20
5.187769838791055
 30
0.0
 40
0.0597857142857142
  1
Mocowanie siatki 
  7
STIL17
100
AcDbText
  0
LINE
  5
AD
330
1F
100
AcDbEntity
  8
PATTERN_CLASS
  6
Continuous
 62
     2
100
AcDbLine
 10
2.780495854400119
 20
6.822115829314464
 30
0.0
 11
3.537494989779149
 21
5.980762530141123
 31
0.0
  0
INSERT
  5
BD
330
1F
100
AcDbEntity
  8
Siatka
100
AcDbBlockReference
  2
*U1
 10
0.9837515022961725
 20
2.724858404821589
 30
0.0
  0
INSERT
  5
C7
330
1F
100
AcDbEntity
  8
PATTERN_CLASS
100
AcDbBlockReference
  2
*U2
 10
5.766183739318535
 20
1.403941491127512
 30
0.0
  0
INSERT
  5
D7
330
1F
100
AcDbEntity
  8
PATTERN_CLASS
100
AcDbBlockReference
  2
*U3
 10
5.669635058886722
 20
2.724858404821589
 30
0.0
  0
INSERT
  5
ED
330
1F
100
AcDbEntity
  8
Siatka
100
AcDbBlockReference
  2
*U4
 10
5.237795890182156
 20
0.4944898853628956
 30
0.0
  0
INSERT
  5
FD
330
1F
100
AcDbEntity
  8
Siatka
100
AcDbBlockReference
  2
*U5
 10
5.386584600260335
 20
0.4944898853628956
 30
0.0
  0
INSERT
  5
10D
330
1F
100
AcDbEntity
  8
Siatka
100
AcDbBlockReference
  2
*U6
 10
4.68775090898987
 20
0.2477850139604243
 30
0.0
  0
INSERT
  5
117
330
1F
100
AcDbEntity
  8
Siatka
100
AcDbBlockReference
  2
*U7
 10
4.403171676764866
 20
0.4944898853628956
 30
0.0
  0
INSERT
  5
121
330
1F
100
AcDbEntity
  8
Siatka
100
AcDbBlockReference
  2
*U8
 10
4.68775090898987
 20
0.1406913717974021
 30
0.0
  0
INSERT
  5
12B
330
1F
100
AcDbEntity
  8
Siatka
100
AcDbBlockReference
  2
*U9
 10
3.286183739318972
 20
0.2582683377365811
 30
0.0
  0
INSERT
  5
135
330
1F
100
AcDbEntity
  8
Siatka
100
AcDbBlockReference
  2
*U10
 10
3.001604507093969
 20
0.4944898853628956
 30
0.0
  0
INSERT
  5
145
330
1F
100
AcDbEntity
  8
PATTERN_CLASS
100
AcDbBlockReference
  2
*U11
 10
5.54356460122555
 20
2.724858404821589
 30
0.0
  0
INSERT
  5
14F
330
1F
100
AcDbEntity
  8
PATTERN_CLASS
100
AcDbBlockReference
  2
*U12
 10
1.118632714961791
 20
0.2827557890930166
 30
0.0
  0
INSERT
  5
159
330
1F
100
AcDbEntity
  8
Siatka
100
AcDbBlockReference
  2
*U13
 10
0.9002347069496567
 20
0.6794898853629547
 30
0.0
  0
INSERT
  5
163
330
1F
100
AcDbEntity
  8
Siatka
100
AcDbBlockReference
  2
*U14
 10
1.283632714961868
 20
0.9860033778362549
 30
0.0
  0
INSERT
  5
182
330
1F
100
AcDbEntity
  8
PATTERN_CLASS
100
AcDbBlockReference
  2
*U15
 10
6.669282812347888
 20
2.724858404821589
 30
0.0
  0
INSERT
  5
192
330
1F
100
AcDbEntity
  8
PATTERN_CLASS
100
AcDbBlockReference
  2
*U16
 10
6.508517105530927
 20
2.724858404821589
 30
0.0
  0
INSERT
  5
19C
330
1F
100
AcDbEntity
  8
PATTERN_CLASS
100
AcDbBlockReference
  2
*U17
 10
1.679609801606944
 20
0.4944898853628956
 30
0.0
  0
INSERT
  5
1A6
330
1F
100
AcDbEntity
  8
PATTERN_CLASS
100
AcDbBlockReference
  2
*U18
 10
1.283632714961641
 20
6.917138408026517
 30
0.0
  0
INSERT
  5
1B3
330
1F
100
AcDbEntity
  8
PATTERN_CLASS
100
AcDbBlockReference
  2
*U19
 10
3.531183739318749
 20
2.448042198801886
 30
0.0
  0
INSERT
  5
1C9
330
1F
100
AcDbEntity
  8
PATTERN_CLASS
100
AcDbBlockReference
  2
*U20
 10
3.491183739318785
 20
2.556753247615006
 30
0.0
  0
INSERT
  5
1D3
330
1F
100
AcDbEntity
  8
PATTERN_CLASS
100
AcDbBlockReference
  2
*U21
 10
3.306183739318726
 20
1.403941491127512
 30
0.0
  0
INSERT
  5
1E3
330
1F
100
AcDbEntity
  8
PATTERN_CLASS
100
AcDbBlockReference
  2
*U22
 10
3.181183739318726
 20
1.298847542925614
 30
0.0
  0
INSERT
  5
1ED
330
1F
100
AcDbEntity
  8
PATTERN_CLASS
100
AcDbBlockReference
  2
*U23
 10
7.127459450521883
 20
1.403941491127512
 30
0.0
  0
INSERT
  5
1FD
330
1F
100
AcDbEntity
  8
PATTERN_CLASS
100
AcDbBlockReference
  2
*U24
 10
7.002459450521883
 20
1.298847542925614
 30
0.0
  0
INSERT
  5
20D
330
1F
100
AcDbEntity
  8
PATTERN_CLASS
100
AcDbBlockReference
  2
*U25
 10
5.641183739318763
 20
1.298847542925614
 30
0.0
  0
INSERT
  5
21D
330
1F
100
AcDbEntity
  8
PATTERN_CLASS
100
AcDbBlockReference
  2
*U26
 10
0.993632714961791
 20
0.1509148473691084
 30
0.0
  0
INSERT
  5
22D
330
1F
100
AcDbEntity
  8
PATTERN_CLASS
100
AcDbBlockReference
  2
*U27
 10
1.826893156376286
 20
0.3694898853628956
 30
0.0
  0
INSERT
  5
237
330
1F
100
AcDbEntity
  8
PATTERN_CLASS
100
AcDbBlockReference
  2
*U28
 10
0.9936327149616773
 20
1.233395784835921
 30
0.0
  0
INSERT
  5
247
330
1F
100
AcDbEntity
  8
PATTERN_CLASS
100
AcDbBlockReference
  2
*U29
 10
0.9936327149616773
 20
1.358474479035181
 30
0.0
  0
INSERT
  5
254
330
1F
100
AcDbEntity
  8
PATTERN_CLASS
100
AcDbBlockReference
  2
*U30
 10
0.7546384997338395
 20
1.524858404821657
 30
0.0
  0
INSERT
  5
267
330
1F
100
AcDbEntity
  8
PATTERN_CLASS
100
AcDbBlockReference
  2
*U31
 10
0.8635654813548784
 20
1.524858404821657
 30
0.0
  0
LINE
  5
268
330
1F
100
AcDbEntity
  8
PATTERN_CLASS
  6
Continuous
 62
     3
100
AcDbLine
 10
1.30520776994581
 20
2.737492435274589
 30
0.0
 11
1.30520776994581
 21
2.643608405566624
 31
0.0
  0
LINE
  5
269
330
1F
100
AcDbEntity
  8
Siatka
  6
Continuous
 62
     7
100
AcDbLine
 10
1.422382715706817
 20
2.743608405566647
 30
0.0
 11
8.186174099272307
 21
2.743608405566647
 31
0.0
  0
LWPOLYLINE
  5
26A
330
1F
100
AcDbEntity
  8
Siatka
  6
Continuous
 62
     1
100
AcDbPolyline
 90
        4
 70
     1
 43
0.0
 10
1.312633238476337
 20
4.883608405566633
 10
1.372633238476283
 20
4.883608405566633
 10
1.372633238476283
 20
4.803608405566592
 10
1.312633238476337
 20
4.803608405566592
  0
LINE
  5
26B
330
1F
100
AcDbEntity
  8
Siatka
  6
Continuous
 62
     8
100
AcDbLine
 10
6.049933740063921
 20
1.857508668082915
 30
0.0
 11
7.331209451267
 21
1.857508668082915
 31
0.0
  0
LWPOLYLINE
  5
26C
330
1F
100
AcDbEntity
  8
PATTERN_CLASS
  6
Continuous
 62
     3
100
AcDbPolyline
 90
        4
 70
     1
 43
0.0
 10
5.784933740063593
 20
1.663357985457651
 10
5.784933740063593
 20
2.113357985457697
 10
6.234933740063639
 20
2.113357985457697
 10
6.234933740063639
 20
1.663357985457651
  0
LINE
  5
26D
330
1F
100
AcDbEntity
  8
Siatka
  6
Continuous
 62
     8
100
AcDbLine
 10
3.589933740063884
 20
1.857508668082915
 30
0.0
 11
5.96993374006388
 21
1.857508668082915
 31
0.0
  0
LINE
  5
26E
330
1F
100
AcDbEntity
  8
Siatka
  6
Continuous
 62
     5
100
AcDbLine
 10
3.549933740064034
 20
1.888357985457901
 30
0.0
 11
3.549933740064034
 21
1.961537230602062
 31
0.0
  0
LINE
  5
26F
330
1F
100
AcDbEntity
  8
Siatka
  6
Continuous
 62
     5
100
AcDbLine
 10
7.371209451266964
 20
1.888357985457674
 30
0.0
 11
7.371209451266964
 21
1.995893667504902
 31
0.0
  0
LINE
  5
270
330
1F
100
AcDbEntity
  8
Siatka
  6
Continuous
 62
     5
100
AcDbLine
 10
6.009933740063957
 20
1.88835798545756
 30
0.0
 11
6.009933740063957
 21
2.018875354547618
 31
0.0
  0
LINE
  5
271
330
1F
100
AcDbEntity
  8
Siatka
  6
Continuous
 62
     8
100
AcDbLine
 10
7.411209451267041
 20
1.857508668082915
 30
0.0
 11
7.411209451267041
 21
1.857508668082915
 31
0.0
  0
LINE
  5
272
330
1F
100
AcDbEntity
  8
Siatka
  6
Continuous
 62
     8
100
AcDbLine
 10
6.049933740063921
 20
1.91750866808286
 30
0.0
 11
7.146209451266941
 21
1.91750866808286
 31
0.0
  0
LINE
  5
273
330
1F
100
AcDbEntity
  8
Siatka
  6
Continuous
 62
     8
100
AcDbLine
 10
3.589933740063884
 20
1.91750866808286
 30
0.0
 11
5.96993374006388
 21
1.91750866808286
 31
0.0
  0
LINE
  5
275
330
1F
100
AcDbEntity
  8
Siatka
  6
GESTRICHELT
 62
     5
100
AcDbLine
 10
3.529933740064166
 20
0.9632398861079992
 30
0.0
 11
3.529933740064166
 21
-0.448363186025591
 31
0.0
  0
LINE
  5
276
330
1F
100
AcDbEntity
  8
Siatka
  6
Continuous
 62
     8
100
AcDbLine
 10
2.442181615880372
 20
1.857508668082915
 30
0.0
 11
3.509084422689057
 21
1.857508668082915
 31
0.0
  0
LINE
  5
277
330
1F
100
AcDbEntity
  8
PATTERN_CLASS
  6
GESTRICHELT
 62
    16
100
AcDbLine
 10
3.549933740063807
 20
1.91750866808286
 30
0.0
 11
3.549933740063807
 21
2.832502449903473
 31
0.0
  0
LINE
  5
278
330
1F
100
AcDbEntity
  8
Siatka
  6
Continuous
 62
    15
100
AcDbLine
 10
3.589933740063771
 20
4.803608405566706
 30
0.0
 11
5.96993374006388
 21
4.803608405566706
 31
0.0
  0
LINE
  5
279
330
1F
100
AcDbEntity
  8
Siatka
  6
Continuous
 62
     5
100
AcDbLine
 10
3.589933740063771
 20
4.84360840556667
 30
0.0
 11
5.96993374006388
 21
4.84360840556667
 31
0.0
  0
LINE
  5
27A
330
1F
100
AcDbEntity
  8
Siatka
  6
Continuous
 62
    15
100
AcDbLine
 10
3.589933740063771
 20
4.883608405566633
 30
0.0
 11
5.96993374006388
 21
4.883608405566633
 31
0.0
  0
LINE
  5
27B
330
1F
100
AcDbEntity
  8
Siatka
  6
Continuous
 62
    15
100
AcDbLine
 10
2.968562604326621
 20
4.803608405566706
 30
0.0
 11
3.509933740063843
 21
4.803608405566706
 31
0.0
  0
LINE
  5
27C
330
1F
100
AcDbEntity
  8
Siatka
  6
Continuous
 62
     5
100
AcDbLine
 10
3.307488596642315
 20
4.84360840556667
 30
0.0
 11
3.509933740063843
 21
4.84360840556667
 31
0.0
  0
LINE
  5
27D
330
1F
100
AcDbEntity
  8
Siatka
  6
Continuous
 62
    15
100
AcDbLine
 10
3.23604654160863
 20
4.883608405566633
 30
0.0
 11
3.509933740063843
 21
4.883608405566633
 31
0.0
  0
LINE
  5
27E
330
1F
100
AcDbEntity
  8
Siatka
  6
Continuous
 62
    15
100
AcDbLine
 10
7.411209451267041
 20
1.91750866808286
 30
0.0
 11
7.411209451267041
 21
1.91750866808286
 31
0.0
  0
LINE
  5
27F
330
1F
100
AcDbEntity
  8
Siatka
  6
Continuous
 62
    15
100
AcDbLine
 10
6.049933740063921
 20
1.91750866808286
 30
0.0
 11
7.331209451267
 21
1.91750866808286
 31
0.0
  0
LINE
  5
280
330
1F
100
AcDbEntity
  8
Siatka
  6
Continuous
 62
    15
100
AcDbLine
 10
2.442181615880372
 20
1.91750866808286
 30
0.0
 11
3.509933740063843
 21
1.91750866808286
 31
0.0
  0
LINE
  5
281
330
1F
100
AcDbEntity
  8
Siatka
  6
Continuous
 62
    15
100
AcDbLine
 10
3.589933740063884
 20
1.91750866808286
 30
0.0
 11
5.96993374006388
 21
1.91750866808286
 31
0.0
  0
LWPOLYLINE
  5
282
330
1F
100
AcDbEntity
  8
Siatka
  6
Continuous
 62
     2
100
AcDbPolyline
 90
        4
 70
     1
 43
0.0
 10
4.98950090973517
 20
0.776239886108101
 10
4.98950090973517
 20
0.7002398861079655
 10
4.873500909735071
 20
0.7002398861079655
 10
4.873500909735071
 20
0.776239886108101
  0
LINE
  5
283
330
1F
100
AcDbEntity
  8
Siatka
  6
Continuous
 62
     5
100
AcDbLine
 10
4.871500909735119
 20
0.7782398861080537
 30
0.0
 11
4.991500909735123
 21
0.6982398861080128
 31
0.0
  0
LINE
  5
284
330
1F
100
AcDbEntity
  8
Siatka
  6
Continuous
 62
     5
100
AcDbLine
 10
4.871500909735119
 20
0.6982398861080128
 30
0.0
 11
4.991500909735123
 21
0.7782398861080537
 31
0.0
  0
LWPOLYLINE
  5
285
330
1F
100
AcDbEntity
  8
Siatka
  6
Continuous
 62
     1
100
AcDbPolyline
 90
        4
 70
     1
 43
0.0
 10
4.871500909735119
 20
0.6982398861080128
 10
4.871500909735119
 20
0.7782398861080537
 10
4.991500909735123
 20
0.7782398861080537
 10
4.991500909735123
 20
0.6982398861080128
  0
LINE
  5
286
330
1F
100
AcDbEntity
  8
Siatka
  6
GESTRICHELT
 62
     8
100
AcDbLine
 10
1.417382715706822
 20
6.943608405566693
 30
0.0
 11
1.417382715706822
 21
2.762805452069188
 31
0.0
  0
LINE
  5
287
330
1F
100
AcDbEntity
  8
Siatka
  6
GESTRICHELT
 62
     8
100
AcDbLine
 10
1.307382715706694
 20
2.762805452069188
 30
0.0
 11
1.307382715706694
 21
6.943608405566693
 31
0.0
  0
LINE
  5
289
330
1F
100
AcDbEntity
  8
Siatka
  6
STRICHPUNKT
 62
     8
100
AcDbLine
 10
5.025142611316028
 20
0.6382398861079537
 30
0.0
 11
5.31088970549024
 21
0.6382398861079537
 31
0.0
  0
LINE
  5
28A
330
1F
100
AcDbEntity
  8
Siatka
  6
STRICHPUNKT
 62
     8
100
AcDbLine
 10
5.035142611316019
 20
0.8382398861079992
 30
0.0
 11
5.287571010799184
 21
0.8382398861079992
 31
0.0
  0
LINE
  5
28B
330
1F
100
AcDbEntity
  8
Siatka
  6
STRICHPUNKT
 62
     8
100
AcDbLine
 10
4.781500909734973
 20
0.9156943744070532
 30
0.0
 11
4.781500909734973
 21
0.1936053880206146
 31
0.0
  0
LINE
  5
28C
330
1F
100
AcDbEntity
  8
Siatka
  6
STRICHPUNKT
 62
     8
100
AcDbLine
 10
5.081500909734928
 20
0.9156943744070532
 30
0.0
 11
5.081500909734928
 21
0.1936053880206146
 31
0.0
  0
LINE
  5
28D
330
1F
100
AcDbEntity
  8
Siatka
  6
STRICHPUNKT
 62
     8
100
AcDbLine
 10
4.744945710270258
 20
0.8882398861079537
 30
0.0
 11
5.546652621924977
 21
0.8882398861079537
 31
0.0
  0
LINE
  5
28E
330
1F
100
AcDbEntity
  8
Siatka
  6
STRICHPUNKT
 62
     8
100
AcDbLine
 10
4.744945710270258
 20
0.5882398861079992
 30
0.0
 11
5.546652621924977
 21
0.5882398861079992
 31
0.0
  0
LINE
  5
28F
330
1F
100
AcDbEntity
  8
Siatka
  6
STRICHPUNKT
 62
     8
100
AcDbLine
 10
4.279686895735949
 20
0.7382398861080901
 30
0.0
 11
5.803120604312994
 21
0.7382398861080901
 31
0.0
  0
LINE
  5
290
330
1F
100
AcDbEntity
  8
Siatka
  6
STRICHPUNKT
 62
     8
100
AcDbLine
 10
4.93150090973495
 20
1.390053900107091
 30
0.0
 11
4.93150090973495
 21
-0.1333798084699538
 31
0.0
  0
LWPOLYLINE
  5
291
330
1F
100
AcDbEntity
  8
Siatka
  6
Continuous
 62
     1
100
AcDbPolyline
 90
        4
 70
     1
 43
0.0
 10
4.781500909734973
 20
0.8882398861079537
 10
5.081500909734928
 20
0.8882398861079537
 10
5.081500909734928
 20
0.5882398861079992
 10
4.781500909734973
 20
0.5882398861079992
  0
CIRCLE
  5
292
330
1F
100
AcDbEntity
  8
Siatka
  6
Continuous
 62
     1
100
AcDbCircle
 10
5.035142611316019
 20
0.8382398861079992
 30
0.0
 40
0.0099999999999909
  0
CIRCLE
  5
293
330
1F
100
AcDbEntity
  8
Siatka
  6
Continuous
 62
     1
100
AcDbCircle
 10
4.827859208154109
 20
0.8382398861079992
 30
0.0
 40
0.0099999999999909
  0
CIRCLE
  5
294
330
1F
100
AcDbEntity
  8
Siatka
  6
Continuous
 62
     1
100
AcDbCircle
 10
5.035142611316019
 20
0.6382398861079537
 30
0.0
 40
0.0099999999999909
  0
CIRCLE
  5
295
330
1F
100
AcDbEntity
  8
Siatka
  6
Continuous
 62
     1
100
AcDbCircle
 10
4.827859208154109
 20
0.6382398861079537
 30
0.0
 40
0.0099999999999909
  0
LWPOLYLINE
  5
296
330
1F
100
AcDbEntity
  8
PATTERN_CLASS
  6
Continuous
 62
     3
100
AcDbPolyline
 90
        4
 70
     1
 43
0.0
 10
5.156500909734973
 20
0.5132398861079537
 10
4.706500909734928
 20
0.5132398861079537
 10
4.706500909734928
 20
0.9632398861079992
 10
5.156500909734973
 20
0.9632398861079992
  0
CIRCLE
  5
297
330
1F
100
AcDbEntity
  8
Siatka
  6
Continuous
 62
     7
100
AcDbCircle
 10
3.683575441645075
 20
0.8907898719724017
 30
0.0
 40
0.0099999999999909
  0
CIRCLE
  5
298
330
1F
100
AcDbEntity
  8
Siatka
  6
Continuous
 62
     7
100
AcDbCircle
 10
3.376292038483257
 20
0.8907898719724017
 30
0.0
 40
0.0099999999999909
  0
CIRCLE
  5
299
330
1F
100
AcDbEntity
  8
Siatka
  6
Continuous
 62
     7
100
AcDbCircle
 10
3.683575441645075
 20
0.5856899002437785
 30
0.0
 40
0.0099999999999909
  0
CIRCLE
  5
29A
330
1F
100
AcDbEntity
  8
Siatka
  6
Continuous
 62
     7
100
AcDbCircle
 10
3.376292038483257
 20
0.5856899002437785
 30
0.0
 40
0.0099999999999909
  0
LINE
  5
29B
330
1F
100
AcDbEntity
  8
Siatka
  6
Continuous
 62
     7
100
AcDbLine
 10
3.364933740063975
 20
0.9032398861080537
 30
0.0
 11
3.416484973970228
 21
0.8362029718070971
 31
0.0
  0
LWPOLYLINE
  5
29C
330
1F
100
AcDbEntity
  8
Siatka
  6
Continuous
 62
     7
100
AcDbPolyline
 90
        4
 70
     1
 43
0.0
 10
3.364933740063975
 20
0.9032398861080537
 10
3.69493374006413
 20
0.9032398861080537
 10
3.69493374006413
 20
0.5732398861078991
 10
3.364933740063975
 20
0.5732398861078991
  0
LWPOLYLINE
  5
29D
330
1F
100
AcDbEntity
  8
PATTERN_CLASS
  6
Continuous
 62
     3
100
AcDbPolyline
 90
        4
 70
     1
 43
0.0
 10
3.754933740064075
 20
0.5132398861079537
 10
3.30493374006403
 20
0.5132398861079537
 10
3.30493374006403
 20
0.9632398861079992
 10
3.754933740064075
 20
0.9632398861079992
  0
LINE
  5
29E
330
1F
100
AcDbEntity
  8
Siatka
  6
GESTRICHELT
 62
     5
100
AcDbLine
 10
1.362382715706758
 20
0.7382398861080901
 30
0.0
 11
9.202049844512819
 21
0.7382398861080901
 31
0.0
  0
LWPOLYLINE
  5
29F
330
1F
100
AcDbEntity
  8
PATTERN_CLASS
  6
Continuous
 62
     1
100
AcDbPolyline
 90
        4
 70
     0
 43
0.0
 10
1.302382715706699
 20
2.762805452069188
 10
1.302382715706699
 20
6.943608405566693
 10
1.422382715706817
 20
6.943608405566693
 10
1.422382715706817
 20
2.762805452069188
  0
LWPOLYLINE
  5
2A0
330
1F
100
AcDbEntity
  8
Siatka
  6
Continuous
 62
     1
100
AcDbPolyline
 90
        3
 70
     0
 43
0.0
 10
1.546569351347898
 20
2.742245439891349
 10
1.546569351347898
 20
2.762805452069188
 10
1.36538424403102
 20
2.762805452069188
  0
LWPOLYLINE
  5
2A1
330
1F
100
AcDbEntity
  8
Siatka
  6
Continuous
 62
     1
100
AcDbPolyline
 90
        3
 70
     0
 43
0.0
 10
1.184199136714142
 20
2.742245439891349
 10
1.184199136714142
 20
2.762805452069188
 10
1.36538424403102
 20
2.762805452069188
  0
CIRCLE
  5
2A2
330
1F
100
AcDbEntity
  8
Siatka
  6
Continuous
 62
     7
100
AcDbCircle
 10
1.675738030087018
 20
1.591171762193085
 30
0.0
 40
0.0099999999999909
  0
CIRCLE
  5
2A3
330
1F
100
AcDbEntity
  8
Siatka
  6
Continuous
 62
     7
100
AcDbCircle
 10
1.362382715706758
 20
1.591171762193085
 30
0.0
 40
0.0099999999999909
  0
CIRCLE
  5
2A4
330
1F
100
AcDbEntity
  8
Siatka
  6
Continuous
 62
     7
100
AcDbCircle
 10
1.049027401326498
 20
1.591171762193085
 30
0.0
 40
0.0099999999999909
  0
LINE
  5
2A5
330
1F
100
AcDbEntity
  8
Siatka
  6
Continuous
 62
     7
100
AcDbLine
 10
1.042618106484724
 20
1.581000109145521
 30
0.0
 11
1.672958983434342
 21
1.581000109145521
 31
0.0
  0
LINE
  5
2A6
330
1F
100
AcDbEntity
  8
Siatka
  6
Continuous
 62
     7
100
AcDbLine
 10
1.208954787469452
 20
2.353608405566661
 30
0.0
 11
1.549335152358708
 21
2.353608405566661
 31
0.0
  0
LINE
  5
2A7
330
1F
100
AcDbEntity
  8
Siatka
  6
Continuous
 62
     7
100
AcDbLine
 10
1.208954787469452
 20
2.123608405566529
 30
0.0
 11
1.549335152358708
 21
2.123608405566529
 31
0.0
  0
LINE
  5
2A8
330
1F
100
AcDbEntity
  8
Siatka
  6
Continuous
 62
     7
100
AcDbLine
 10
1.208954787469452
 20
1.893608405566624
 30
0.0
 11
1.549335152358708
 21
1.893608405566624
 31
0.0
  0
LINE
  5
2A9
330
1F
100
AcDbEntity
  8
Siatka
  6
Continuous
 62
     7
100
AcDbLine
 10
1.208954787469452
 20
2.583608405566679
 30
0.0
 11
1.549335152358708
 21
2.583608405566679
 31
0.0
  0
LINE
  5
2AA
330
1F
100
AcDbEntity
  8
Siatka
  6
Continuous
 62
     7
100
AcDbLine
 10
1.527382715706835
 20
1.633608405566633
 30
0.0
 11
1.527382715706835
 21
2.643608405566624
 31
0.0
  0
LINE
  5
2AB
330
1F
100
AcDbEntity
  8
Siatka
  6
Continuous
 62
     7
100
AcDbLine
 10
1.197382715706681
 20
1.633608405566633
 30
0.0
 11
1.197382715706681
 21
2.643608405566624
 31
0.0
  0
LINE
  5
2AC
330
1F
100
AcDbEntity
  8
PATTERN_CLASS
  6
Continuous
 62
     1
100
AcDbLine
 10
1.587382715706781
 20
1.843608405566783
 30
0.0
 11
1.587382715706781
 21
2.643608405566624
 31
0.0
  0
LINE
  5
2AD
330
1F
100
AcDbEntity
  8
PATTERN_CLASS
  6
Continuous
 62
     1
100
AcDbLine
 10
1.137382715706735
 20
1.843608405566783
 30
0.0
 11
1.137382715706735
 21
2.643608405566624
 31
0.0
  0
LWPOLYLINE
  5
2AE
330
1F
100
AcDbEntity
  8
PATTERN_CLASS
  6
GESTRICHELT
 62
     5
100
AcDbPolyline
 90
        2
 70
     0
 43
0.0
 10
0.2746305915233052
 20
-0.448363186025591
 10
0.2746305915233052
 20
1.660069495153152
  0
LWPOLYLINE
  5
2AF
330
1F
100
AcDbEntity
  8
PATTERN_CLASS
  6
GESTRICHELT
 62
     5
100
AcDbPolyline
 90
        3
 70
     0
 43
0.0
 10
1.712382715706781
 20
1.660069495153152
 10
2.393323285749261
 20
1.660069495153152
 10
2.393323285749261
 20
-0.448363186025591
  0
LINE
  5
2B0
330
1F
100
AcDbEntity
  8
PATTERN_CLASS
  6
GESTRICHELT
 62
     5
100
AcDbLine
 10
0.2746305915233052
 20
1.660069495153152
 30
0.0
 11
1.362382715706758
 21
1.660069495153152
 31
0.0
  0
LINE
  5
2B1
330
1F
100
AcDbEntity
  8
Siatka
  6
Continuous
 62
    16
100
AcDbLine
 10
1.378521948229604
 20
0.4482398861080128
 30
0.0
 11
1.427071475799153
 21
0.4482398861080128
 31
0.0
  0
LINE
  5
2B2
330
1F
100
AcDbEntity
  8
Siatka
  6
Continuous
 62
    16
100
AcDbLine
 10
1.378521948229604
 20
0.498239886108081
 30
0.0
 11
1.427071475799153
 21
0.498239886108081
 31
0.0
  0
LINE
  5
2B3
330
1F
100
AcDbEntity
  8
Siatka
  6
Continuous
 62
    16
100
AcDbLine
 10
1.378521948229604
 20
0.5482398861080355
 30
0.0
 11
1.427071475799153
 21
0.5482398861080355
 31
0.0
  0
LINE
  5
2B4
330
1F
100
AcDbEntity
  8
Siatka
  6
Continuous
 62
    16
100
AcDbLine
 10
1.378521948229604
 20
0.5982398861081038
 30
0.0
 11
1.427071475799153
 21
0.5982398861081038
 31
0.0
  0
LINE
  5
2B5
330
1F
100
AcDbEntity
  8
Siatka
  6
Continuous
 62
    16
100
AcDbLine
 10
1.378521948229604
 20
0.6482398861080583
 30
0.0
 11
1.427071475799153
 21
0.6482398861080583
 31
0.0
  0
LINE
  5
2B6
330
1F
100
AcDbEntity
  8
Siatka
  6
Continuous
 62
    16
100
AcDbLine
 10
1.378521948229604
 20
1.053239886107804
 30
0.0
 11
1.427071475799153
 21
1.053239886107804
 31
0.0
  0
LINE
  5
2B7
330
1F
100
AcDbEntity
  8
Siatka
  6
Continuous
 62
    16
100
AcDbLine
 10
1.378521948229604
 20
0.9782398861078718
 30
0.0
 11
1.427071475799153
 21
0.9782398861078718
 31
0.0
  0
LINE
  5
2B8
330
1F
100
AcDbEntity
  8
Siatka
  6
Continuous
 62
    16
100
AcDbLine
 10
1.378521948229604
 20
0.9282398861079173
 30
0.0
 11
1.427071475799153
 21
0.9282398861079173
 31
0.0
  0
LINE
  5
2B9
330
1F
100
AcDbEntity
  8
Siatka
  6
Continuous
 62
    16
100
AcDbLine
 10
1.378521948229604
 20
0.8782398861079628
 30
0.0
 11
1.427071475799153
 21
0.8782398861079628
 31
0.0
  0
LINE
  5
2BA
330
1F
100
AcDbEntity
  8
Siatka
  6
Continuous
 62
    16
100
AcDbLine
 10
1.378521948229604
 20
0.8282398861080083
 30
0.0
 11
1.427071475799153
 21
0.8282398861080083
 31
0.0
  0
LINE
  5
2BB
330
1F
100
AcDbEntity
  8
PATTERN_CLASS
  6
Continuous
 62
     1
100
AcDbLine
 10
1.427071475799153
 20
1.088239886107999
 30
0.0
 11
1.427071475799153
 21
0.3882398861079537
 31
0.0
  0
LINE
  5
2BC
330
1F
100
AcDbEntity
  8
PATTERN_CLASS
  6
Continuous
 62
     1
100
AcDbLine
 10
1.378521948229604
 20
0.6982398861080128
 30
0.0
 11
1.378521948229604
 21
0.3882398861079537
 31
0.0
  0
LINE
  5
2BD
330
1F
100
AcDbEntity
  8
PATTERN_CLASS
  6
Continuous
 62
     7
100
AcDbLine
 10
1.385725285181479
 20
0.6982398861080128
 30
0.0
 11
1.385725285181479
 21
0.3882398861079537
 31
0.0
  0
LINE
  5
2BE
330
1F
100
AcDbEntity
  8
PATTERN_CLASS
  6
Continuous
 62
     7
100
AcDbLine
 10
1.385725285181479
 20
1.088239886107999
 30
0.0
 11
1.385725285181479
 21
0.7782398861080537
 31
0.0
  0
LINE
  5
2BF
330
1F
100
AcDbEntity
  8
PATTERN_CLASS
  6
Continuous
 62
     1
100
AcDbLine
 10
1.378521948229604
 20
1.088239886107999
 30
0.0
 11
1.378521948229604
 21
0.7782398861080537
 31
0.0
  0
LINE
  5
2C0
330
1F
100
AcDbEntity
  8
PATTERN_CLASS
  6
Continuous
 62
     3
100
AcDbLine
 10
2.442181615880372
 20
1.927508668082851
 30
0.0
 11
3.509933740063843
 21
1.927508668082851
 31
0.0
  0
LINE
  5
2C1
330
1F
100
AcDbEntity
  8
PATTERN_CLASS
  6
Continuous
 62
     3
100
AcDbLine
 10
2.442181615880372
 20
1.934712005034726
 30
0.0
 11
3.509933740063843
 21
1.934712005034726
 31
0.0
  0
LWPOLYLINE
  5
2C2
330
1F
100
AcDbEntity
  8
Siatka
  6
Continuous
 62
     7
100
AcDbPolyline
 90
       24
 70
     0
 43
0.0
 10
1.393620024988081
 20
6.793608405566715
 10
1.393620024988081
 20
6.768608405566738
 10
1.42880763475182
 20
6.718608405566783
 10
1.393620024988081
 20
6.668608405566829
 10
1.393620024988081
 20
6.068608405566693
 10
1.42880763475182
 20
6.018608405566738
 10
1.393620024988081
 20
5.968608405566783
 10
1.393620024988081
 20
5.568608405566693
 10
1.42880763475182
 20
5.518608405566738
 10
1.393620024988081
 20
5.468608405566783
 10
1.393620024988081
 20
4.893608405566624
 10
1.393620024988081
 20
4.868608405566647
 10
1.42880763475182
 20
4.818608405566693
 10
1.393620024988081
 20
4.768608405566738
 10
1.393620024988081
 20
4.168608405566602
 10
1.42880763475182
 20
4.118608405566647
 10
1.393620024988081
 20
4.068608405566693
 10
1.393620024988081
 20
3.668608405566602
 10
1.42880763475182
 20
3.618608405566647
 10
1.393620024988081
 20
3.568608405566693
 10
1.393620024988081
 20
2.968608405566556
 10
1.42880763475182
 20
2.918608405566602
 10
1.393620024988081
 20
2.868608405566647
 10
1.393620024988081
 20
2.84360840556667
  0
LINE
  5
2C3
330
1F
100
AcDbEntity
  8
Siatka
  6
Continuous
 62
    18
100
AcDbLine
 10
1.41162002498811
 20
6.268608405566738
 30
0.0
 11
1.393620024988081
 21
6.268608405566738
 31
0.0
  0
LINE
  5
2C4
330
1F
100
AcDbEntity
  8
Siatka
  6
Continuous
 62
    18
100
AcDbLine
 10
1.42880763475182
 20
4.118608405566647
 30
0.0
 11
1.376251966513223
 21
4.118608405566647
 31
0.0
  0
LINE
  5
2C5
330
1F
100
AcDbEntity
  8
Siatka
  6
Continuous
 62
    18
100
AcDbLine
 10
1.443620024988036
 20
2.918608405566602
 30
0.0
 11
1.376251966513223
 21
2.918608405566602
 31
0.0
  0
LINE
  5
2C6
330
1F
100
AcDbEntity
  8
Siatka
  6
Continuous
 62
    18
100
AcDbLine
 10
1.443620024988036
 20
3.618608405566647
 30
0.0
 11
1.376251966513223
 21
3.618608405566647
 31
0.0
  0
LINE
  5
2C7
330
1F
100
AcDbEntity
  8
Siatka
  6
Continuous
 62
    18
100
AcDbLine
 10
1.443620024988036
 20
4.818608405566693
 30
0.0
 11
1.376251966513223
 21
4.818608405566693
 31
0.0
  0
LINE
  5
2C8
330
1F
100
AcDbEntity
  8
Siatka
  6
Continuous
 62
    18
100
AcDbLine
 10
1.443620024988036
 20
5.518608405566738
 30
0.0
 11
1.376251966513223
 21
5.518608405566738
 31
0.0
  0
LINE
  5
2C9
330
1F
100
AcDbEntity
  8
Siatka
  6
Continuous
 62
    18
100
AcDbLine
 10
1.443620024988036
 20
6.018608405566738
 30
0.0
 11
1.376251966513223
 21
6.018608405566738
 31
0.0
  0
LINE
  5
2CA
330
1F
100
AcDbEntity
  8
Siatka
  6
Continuous
 62
    18
100
AcDbLine
 10
1.443620024988036
 20
6.718608405566783
 30
0.0
 11
1.376251966513223
 21
6.718608405566783
 31
0.0
  0
LINE
  5
2CB
330
1F
100
AcDbEntity
  8
Siatka
  6
Continuous
 62
    18
100
AcDbLine
 10
1.42880763475182
 20
6.792233436927859
 30
0.0
 11
1.42880763475182
 21
2.827759462244103
 31
0.0
  0
LINE
  5
2CC
330
1F
100
AcDbEntity
  8
Siatka
  6
Continuous
 62
    18
100
AcDbLine
 10
1.386620024988133
 20
6.793608405566715
 30
0.0
 11
1.386620024988133
 21
2.84360840556667
 31
0.0
  0
LINE
  5
2CD
330
1F
100
AcDbEntity
  8
Siatka
  6
Continuous
 62
    18
100
AcDbLine
 10
1.41162002498811
 20
6.668608405566829
 30
0.0
 11
1.376251966513223
 21
6.668608405566829
 31
0.0
  0
LINE
  5
2CE
330
1F
100
AcDbEntity
  8
Siatka
  6
Continuous
 62
    18
100
AcDbLine
 10
1.41162002498811
 20
6.468608405566783
 30
0.0
 11
1.376251966513223
 21
6.468608405566783
 31
0.0
  0
LINE
  5
2CF
330
1F
100
AcDbEntity
  8
Siatka
  6
Continuous
 62
    18
100
AcDbLine
 10
1.41162002498811
 20
6.768608405566738
 30
0.0
 11
1.376251966513223
 21
6.768608405566738
 31
0.0
  0
LINE
  5
2D0
330
1F
100
AcDbEntity
  8
Siatka
  6
GESTRICHELT
 62
    19
100
AcDbLine
 10
1.41162002498811
 20
6.793608405566715
 30
0.0
 11
1.376251966513223
 21
6.793608405566715
 31
0.0
  0
LINE
  5
2D1
330
1F
100
AcDbEntity
  8
Siatka
  6
GESTRICHELT
 62
    19
100
AcDbLine
 10
1.41162002498811
 20
4.743608405566761
 30
0.0
 11
1.376251966513223
 21
4.743608405566761
 31
0.0
  0
LINE
  5
2D2
330
1F
100
AcDbEntity
  8
Siatka
  6
Continuous
 62
    18
100
AcDbLine
 10
1.41162002498811
 20
6.068608405566693
 30
0.0
 11
1.376251966513223
 21
6.068608405566693
 31
0.0
  0
LINE
  5
2D3
330
1F
100
AcDbEntity
  8
Siatka
  6
Continuous
 62
    18
100
AcDbLine
 10
1.41162002498811
 20
5.968608405566783
 30
0.0
 11
1.376251966513223
 21
5.968608405566783
 31
0.0
  0
LINE
  5
2D4
330
1F
100
AcDbEntity
  8
Siatka
  6
Continuous
 62
    18
100
AcDbLine
 10
1.41162002498811
 20
5.768608405566738
 30
0.0
 11
1.376251966513223
 21
5.768608405566738
 31
0.0
  0
LINE
  5
2D5
330
1F
100
AcDbEntity
  8
Siatka
  6
Continuous
 62
    18
100
AcDbLine
 10
1.41162002498811
 20
5.568608405566693
 30
0.0
 11
1.376251966513223
 21
5.568608405566693
 31
0.0
  0
LINE
  5
2D6
330
1F
100
AcDbEntity
  8
Siatka
  6
Continuous
 62
    18
100
AcDbLine
 10
1.41162002498811
 20
5.468608405566783
 30
0.0
 11
1.376251966513223
 21
5.468608405566783
 31
0.0
  0
LINE
  5
2D7
330
1F
100
AcDbEntity
  8
Siatka
  6
Continuous
 62
    18
100
AcDbLine
 10
1.41162002498811
 20
5.268608405566738
 30
0.0
 11
1.376251966513223
 21
5.268608405566738
 31
0.0
  0
LINE
  5
2D8
330
1F
100
AcDbEntity
  8
Siatka
  6
Continuous
 62
    18
100
AcDbLine
 10
1.41162002498811
 20
5.068608405566693
 30
0.0
 11
1.376251966513223
 21
5.068608405566693
 31
0.0
  0
LINE
  5
2D9
330
1F
100
AcDbEntity
  8
Siatka
  6
GESTRICHELT
 62
    19
100
AcDbLine
 10
1.41162002498811
 20
4.893608405566624
 30
0.0
 11
1.376251966513223
 21
4.893608405566624
 31
0.0
  0
LINE
  5
2DA
330
1F
100
AcDbEntity
  8
Siatka
  6
Continuous
 62
    18
100
AcDbLine
 10
1.41162002498811
 20
4.868608405566647
 30
0.0
 11
1.376251966513223
 21
4.868608405566647
 31
0.0
  0
LINE
  5
2DB
330
1F
100
AcDbEntity
  8
Siatka
  6
Continuous
 62
    18
100
AcDbLine
 10
1.41162002498811
 20
4.768608405566738
 30
0.0
 11
1.376251966513223
 21
4.768608405566738
 31
0.0
  0
LINE
  5
2DC
330
1F
100
AcDbEntity
  8
Siatka
  6
Continuous
 62
    18
100
AcDbLine
 10
1.41162002498811
 20
4.768608405566738
 30
0.0
 11
1.376251966513223
 21
4.768608405566738
 31
0.0
  0
LINE
  5
2DD
330
1F
100
AcDbEntity
  8
Siatka
  6
Continuous
 62
    18
100
AcDbLine
 10
1.41162002498811
 20
4.568608405566693
 30
0.0
 11
1.376251966513223
 21
4.568608405566693
 31
0.0
  0
LINE
  5
2DE
330
1F
100
AcDbEntity
  8
Siatka
  6
Continuous
 62
    18
100
AcDbLine
 10
1.41162002498811
 20
4.368608405566647
 30
0.0
 11
1.376251966513223
 21
4.368608405566647
 31
0.0
  0
LINE
  5
2DF
330
1F
100
AcDbEntity
  8
Siatka
  6
Continuous
 62
    18
100
AcDbLine
 10
1.41162002498811
 20
4.168608405566602
 30
0.0
 11
1.376251966513223
 21
4.168608405566602
 31
0.0
  0
LINE
  5
2E0
330
1F
100
AcDbEntity
  8
Siatka
  6
Continuous
 62
    18
100
AcDbLine
 10
1.41162002498811
 20
4.068608405566693
 30
0.0
 11
1.376251966513223
 21
4.068608405566693
 31
0.0
  0
LINE
  5
2E1
330
1F
100
AcDbEntity
  8
Siatka
  6
Continuous
 62
    18
100
AcDbLine
 10
1.41162002498811
 20
3.868608405566647
 30
0.0
 11
1.376251966513223
 21
3.868608405566647
 31
0.0
  0
LINE
  5
2E2
330
1F
100
AcDbEntity
  8
Siatka
  6
Continuous
 62
    18
100
AcDbLine
 10
1.41162002498811
 20
3.668608405566602
 30
0.0
 11
1.376251966513223
 21
3.668608405566602
 31
0.0
  0
LINE
  5
2E3
330
1F
100
AcDbEntity
  8
Siatka
  6
Continuous
 62
    18
100
AcDbLine
 10
1.41162002498811
 20
3.568608405566693
 30
0.0
 11
1.376251966513223
 21
3.568608405566693
 31
0.0
  0
LINE
  5
2E4
330
1F
100
AcDbEntity
  8
Siatka
  6
Continuous
 62
    18
100
AcDbLine
 10
1.41162002498811
 20
3.368608405566647
 30
0.0
 11
1.376251966513223
 21
3.368608405566647
 31
0.0
  0
LINE
  5
2E5
330
1F
100
AcDbEntity
  8
Siatka
  6
Continuous
 62
    18
100
AcDbLine
 10
1.41162002498811
 20
3.168608405566602
 30
0.0
 11
1.376251966513223
 21
3.168608405566602
 31
0.0
  0
LINE
  5
2E6
330
1F
100
AcDbEntity
  8
Siatka
  6
Continuous
 62
    18
100
AcDbLine
 10
1.41162002498811
 20
2.968608405566556
 30
0.0
 11
1.376251966513223
 21
2.968608405566556
 31
0.0
  0
LINE
  5
2E7
330
1F
100
AcDbEntity
  8
Siatka
  6
Continuous
 62
    18
100
AcDbLine
 10
1.41162002498811
 20
2.868608405566647
 30
0.0
 11
1.376251966513223
 21
2.868608405566647
 31
0.0
  0
LINE
  5
2E8
330
1F
100
AcDbEntity
  8
PATTERN_CLASS
  6
GESTRICHELT
 62
    19
100
AcDbLine
 10
1.41162002498811
 20
2.84360840556667
 30
0.0
 11
1.376251966513223
 21
2.84360840556667
 31
0.0
  0
LINE
  5
2E9
330
1F
100
AcDbEntity
  8
Siatka
  6
GESTRICHELT
 62
    17
100
AcDbLine
 10
3.509933740063843
 20
6.793608405566715
 30
0.0
 11
3.134933740063957
 21
6.793608405566715
 31
0.0
  0
LINE
  5
2EA
330
1F
100
AcDbEntity
  8
PATTERN_CLASS
  6
Continuous
 62
     3
100
AcDbLine
 10
1.393620024988081
 20
6.793608405566715
 30
0.0
 11
1.393620024988081
 21
2.829134430882959
 31
0.0
  0
LINE
  5
2EB
330
1F
100
AcDbEntity
  8
PATTERN_CLASS
  6
Continuous
 62
     3
100
AcDbLine
 10
1.386620024988133
 20
6.793608405566715
 30
0.0
 11
1.386620024988133
 21
2.829134430882959
 31
0.0
  0
LINE
  5
2EC
330
1F
100
AcDbEntity
  8
Siatka
  6
Continuous
 62
    17
100
AcDbLine
 10
3.614933740063748
 20
6.793608405566715
 30
0.0
 11
3.614933740063748
 21
2.84360840556667
 31
0.0
  0
LINE
  5
2ED
330
1F
100
AcDbEntity
  8
Siatka
  6
Continuous
 62
    17
100
AcDbLine
 10
7.211209451266996
 20
4.438608405566697
 30
0.0
 11
6.17475472382182
 21
4.438608405566697
 31
0.0
  0
LINE
  5
2EE
330
1F
100
AcDbEntity
  8
Siatka
  6
Continuous
 62
    17
100
AcDbLine
 10
7.211209451266996
 20
4.938608405566697
 30
0.0
 11
6.17475472382182
 21
4.938608405566697
 31
0.0
  0
LINE
  5
2EF
330
1F
100
AcDbEntity
  8
Siatka
  6
Continuous
 62
    17
100
AcDbLine
 10
7.211209451266996
 20
4.888608405566743
 30
0.0
 11
6.17475472382182
 21
4.888608405566743
 31
0.0
  0
LINE
  5
2F0
330
1F
100
AcDbEntity
  8
Siatka
  6
Continuous
 62
    17
100
AcDbLine
 10
7.211209451266996
 20
4.838608405566788
 30
0.0
 11
6.17475472382182
 21
4.838608405566788
 31
0.0
  0
LINE
  5
2F1
330
1F
100
AcDbEntity
  8
Siatka
  6
Continuous
 62
    17
100
AcDbLine
 10
7.211209451266996
 20
4.638608405566743
 30
0.0
 11
6.17475472382182
 21
4.638608405566743
 31
0.0
  0
LINE
  5
2F2
330
1F
100
AcDbEntity
  8
Siatka
  6
Continuous
 62
    17
100
AcDbLine
 10
7.211209451266996
 20
4.248608405566642
 30
0.0
 11
6.17475472382182
 21
4.248608405566642
 31
0.0
  0
LINE
  5
2F3
330
1F
100
AcDbEntity
  8
Siatka
  6
Continuous
 62
    17
100
AcDbLine
 10
7.211209451266996
 20
4.198608405566688
 30
0.0
 11
6.17475472382182
 21
4.198608405566688
 31
0.0
  0
LINE
  5
2F4
330
1F
100
AcDbEntity
  8
Siatka
  6
Continuous
 62
    17
100
AcDbLine
 10
7.211209451266996
 20
4.148608405566733
 30
0.0
 11
6.17475472382182
 21
4.148608405566733
 31
0.0
  0
LINE
  5
2F5
330
1F
100
AcDbEntity
  8
Siatka
  6
Continuous
 62
    17
100
AcDbLine
 10
7.211209451266996
 20
3.948608405566688
 30
0.0
 11
6.17475472382182
 21
3.948608405566688
 31
0.0
  0
LINE
  5
2F6
330
1F
100
AcDbEntity
  8
Siatka
  6
Continuous
 62
    17
100
AcDbLine
 10
7.211209451266996
 20
3.748608405566642
 30
0.0
 11
6.17475472382182
 21
3.748608405566642
 31
0.0
  0
LINE
  5
2F7
330
1F
100
AcDbEntity
  8
Siatka
  6
Continuous
 62
    17
100
AcDbLine
 10
7.211209451266996
 20
3.698608405566688
 30
0.0
 11
6.17475472382182
 21
3.698608405566688
 31
0.0
  0
LINE
  5
2F8
330
1F
100
AcDbEntity
  8
Siatka
  6
Continuous
 62
    17
100
AcDbLine
 10
7.211209451266996
 20
3.648608405566733
 30
0.0
 11
6.17475472382182
 21
3.648608405566733
 31
0.0
  0
LINE
  5
2F9
330
1F
100
AcDbEntity
  8
Siatka
  6
Continuous
 62
    17
100
AcDbLine
 10
7.211209451266996
 20
3.448608405566688
 30
0.0
 11
6.17475472382182
 21
3.448608405566688
 31
0.0
  0
LINE
  5
2FA
330
1F
100
AcDbEntity
  8
Siatka
  6
Continuous
 62
    17
100
AcDbLine
 10
7.211209451266996
 20
3.248608405566642
 30
0.0
 11
6.17475472382182
 21
3.248608405566642
 31
0.0
  0
LINE
  5
2FB
330
1F
100
AcDbEntity
  8
Siatka
  6
Continuous
 62
    17
100
AcDbLine
 10
7.211209451266996
 20
3.048608405566597
 30
0.0
 11
6.17475472382182
 21
3.048608405566597
 31
0.0
  0
LINE
  5
2FC
330
1F
100
AcDbEntity
  8
Siatka
  6
Continuous
 62
    17
100
AcDbLine
 10
7.211209451266996
 20
2.998608405566642
 30
0.0
 11
6.17475472382182
 21
2.998608405566642
 31
0.0
  0
LINE
  5
2FD
330
1F
100
AcDbEntity
  8
Siatka
  6
Continuous
 62
    17
100
AcDbLine
 10
7.211209451266996
 20
2.948608405566688
 30
0.0
 11
6.17475472382182
 21
2.948608405566688
 31
0.0
  0
LINE
  5
2FE
330
1F
100
AcDbEntity
  8
Siatka
  6
Continuous
 62
    17
100
AcDbLine
 10
7.167933740063859
 20
4.963608405566674
 30
0.0
 11
7.167933740063859
 21
2.923608405566711
 31
0.0
  0
LINE
  5
2FF
330
1F
100
AcDbEntity
  8
Siatka
  6
Continuous
 62
    17
100
AcDbLine
 10
7.117933740063904
 20
4.963608405566674
 30
0.0
 11
7.117933740063904
 21
2.923608405566711
 31
0.0
  0
LINE
  5
300
330
1F
100
AcDbEntity
  8
Siatka
  6
Continuous
 62
    17
100
AcDbLine
 10
7.067933740063836
 20
4.963608405566674
 30
0.0
 11
7.067933740063836
 21
2.923608405566711
 31
0.0
  0
LINE
  5
301
330
1F
100
AcDbEntity
  8
Siatka
  6
Continuous
 62
    17
100
AcDbLine
 10
7.017933740063882
 20
4.963608405566674
 30
0.0
 11
7.017933740063882
 21
2.923608405566711
 31
0.0
  0
LINE
  5
302
330
1F
100
AcDbEntity
  8
Siatka
  6
Continuous
 62
    17
100
AcDbLine
 10
6.967933740063813
 20
4.963608405566674
 30
0.0
 11
6.967933740063813
 21
2.923608405566711
 31
0.0
  0
LINE
  5
303
330
1F
100
AcDbEntity
  8
Siatka
  6
Continuous
 62
    17
100
AcDbLine
 10
6.917933740063859
 20
4.963608405566674
 30
0.0
 11
6.917933740063859
 21
2.923608405566711
 31
0.0
  0
LINE
  5
304
330
1F
100
AcDbEntity
  8
Siatka
  6
Continuous
 62
    17
100
AcDbLine
 10
6.867933740063904
 20
4.963608405566674
 30
0.0
 11
6.867933740063904
 21
2.923608405566711
 31
0.0
  0
LINE
  5
305
330
1F
100
AcDbEntity
  8
Siatka
  6
Continuous
 62
    17
100
AcDbLine
 10
6.817933740063836
 20
4.963608405566674
 30
0.0
 11
6.817933740063836
 21
2.923608405566711
 31
0.0
  0
LINE
  5
306
330
1F
100
AcDbEntity
  8
Siatka
  6
Continuous
 62
    17
100
AcDbLine
 10
6.767933740063882
 20
4.963608405566674
 30
0.0
 11
6.767933740063882
 21
2.923608405566711
 31
0.0
  0
LINE
  5
307
330
1F
100
AcDbEntity
  8
Siatka
  6
Continuous
 62
    17
100
AcDbLine
 10
6.717933740063813
 20
4.963608405566674
 30
0.0
 11
6.717933740063813
 21
2.923608405566711
 31
0.0
  0
LINE
  5
308
330
1F
100
AcDbEntity
  8
Siatka
  6
Continuous
 62
    17
100
AcDbLine
 10
6.667933740063859
 20
4.963608405566674
 30
0.0
 11
6.667933740063859
 21
2.923608405566711
 31
0.0
  0
LINE
  5
309
330
1F
100
AcDbEntity
  8
Siatka
  6
Continuous
 62
    17
100
AcDbLine
 10
6.617933740063904
 20
4.963608405566674
 30
0.0
 11
6.617933740063904
 21
2.923608405566711
 31
0.0
  0
LINE
  5
30A
330
1F
100
AcDbEntity
  8
Siatka
  6
Continuous
 62
    17
100
AcDbLine
 10
6.567933740063836
 20
4.963608405566674
 30
0.0
 11
6.567933740063836
 21
2.923608405566711
 31
0.0
  0
LINE
  5
30B
330
1F
100
AcDbEntity
  8
Siatka
  6
Continuous
 62
    17
100
AcDbLine
 10
6.517933740063882
 20
4.963608405566674
 30
0.0
 11
6.517933740063882
 21
2.923608405566711
 31
0.0
  0
LINE
  5
30C
330
1F
100
AcDbEntity
  8
Siatka
  6
Continuous
 62
    17
100
AcDbLine
 10
6.467933740063813
 20
4.963608405566674
 30
0.0
 11
6.467933740063813
 21
2.923608405566711
 31
0.0
  0
LINE
  5
30D
330
1F
100
AcDbEntity
  8
Siatka
  6
Continuous
 62
    17
100
AcDbLine
 10
6.417933740063859
 20
4.963608405566674
 30
0.0
 11
6.417933740063859
 21
2.923608405566711
 31
0.0
  0
LINE
  5
30E
330
1F
100
AcDbEntity
  8
Siatka
  6
Continuous
 62
    17
100
AcDbLine
 10
6.367933740063904
 20
4.963608405566674
 30
0.0
 11
6.367933740063904
 21
2.923608405566711
 31
0.0
  0
LINE
  5
30F
330
1F
100
AcDbEntity
  8
Siatka
  6
Continuous
 62
    17
100
AcDbLine
 10
6.317933740063836
 20
4.963608405566674
 30
0.0
 11
6.317933740063836
 21
2.923608405566711
 31
0.0
  0
LINE
  5
310
330
1F
100
AcDbEntity
  8
Siatka
  6
Continuous
 62
    17
100
AcDbLine
 10
6.267933740063882
 20
4.963608405566674
 30
0.0
 11
6.267933740063882
 21
2.923608405566711
 31
0.0
  0
LINE
  5
311
330
1F
100
AcDbEntity
  8
Siatka
  6
Continuous
 62
    17
100
AcDbLine
 10
6.217933740063813
 20
4.963608405566674
 30
0.0
 11
6.217933740063813
 21
2.923608405566711
 31
0.0
  0
LINE
  5
312
330
1F
100
AcDbEntity
  8
Siatka
  6
Continuous
 62
     1
100
AcDbLine
 10
6.167933740063859
 20
4.963608405566674
 30
0.0
 11
6.167933740063859
 21
2.923608405566711
 31
0.0
  0
LINE
  5
313
330
1F
100
AcDbEntity
  8
Siatka
  6
Continuous
 62
     1
100
AcDbLine
 10
7.291209451267037
 20
5.043608405566715
 30
0.0
 11
7.291209451267037
 21
2.84360840556667
 31
0.0
  0
LINE
  5
314
330
1F
100
AcDbEntity
  8
Siatka
  6
Continuous
 62
     1
100
AcDbLine
 10
7.211209451266996
 20
4.963608405566674
 30
0.0
 11
7.211209451266996
 21
2.923608405566711
 31
0.0
  0
LINE
  5
315
330
1F
100
AcDbEntity
  8
PATTERN_CLASS
  6
Continuous
 62
     1
100
AcDbLine
 10
7.211209451266996
 20
2.923608405566711
 30
0.0
 11
6.17475472382182
 21
2.923608405566711
 31
0.0
  0
LINE
  5
316
330
1F
100
AcDbEntity
  8
PATTERN_CLASS
  6
Continuous
 62
     1
100
AcDbLine
 10
7.291209451267037
 20
2.84360840556667
 30
0.0
 11
6.094754723821779
 21
2.84360840556667
 31
0.0
  0
LINE
  5
317
330
1F
100
AcDbEntity
  8
PATTERN_CLASS
  6
Continuous
 62
     1
100
AcDbLine
 10
6.087933740063818
 20
5.043608405566715
 30
0.0
 11
7.291209451267037
 21
5.043608405566715
 31
0.0
  0
LINE
  5
318
330
1F
100
AcDbEntity
  8
PATTERN_CLASS
  6
Continuous
 62
     1
100
AcDbLine
 10
6.167933740063859
 20
4.963608405566674
 30
0.0
 11
7.211209451266996
 21
4.963608405566674
 31
0.0
  0
LWPOLYLINE
  5
319
330
1F
100
AcDbEntity
  8
Siatka
  6
Continuous
 62
     1
100
AcDbPolyline
 90
        3
 70
     0
 43
0.0
 10
6.087933740063818
 20
5.043608405566715
 10
6.087933740063818
 20
2.84360840556667
 10
6.094754723821779
 20
2.84360840556667
  0
LINE
  5
31A
330
1F
100
AcDbEntity
  8
Siatka
  6
Continuous
 62
    17
100
AcDbLine
 10
3.284933740063934
 20
6.793608405566715
 30
0.0
 11
3.284933740063934
 21
4.856236741393673
 31
0.0
  0
LINE
  5
31B
330
1F
100
AcDbEntity
  8
Siatka
  6
Continuous
 62
    17
100
AcDbLine
 10
3.284933740063934
 20
4.832226217204607
 30
0.0
 11
3.284933740063934
 21
2.84360840556667
 31
0.0
  0
LINE
  5
31C
330
1F
100
AcDbEntity
  8
Siatka
  6
Continuous
 62
    17
100
AcDbLine
 10
3.234933740063866
 20
6.793608405566715
 30
0.0
 11
3.234933740063866
 21
4.884231456818043
 31
0.0
  0
LINE
  5
31D
330
1F
100
AcDbEntity
  8
Siatka
  6
Continuous
 62
    17
100
AcDbLine
 10
3.234933740063866
 20
4.82770339441754
 30
0.0
 11
3.234933740063866
 21
2.84360840556667
 31
0.0
  0
LINE
  5
31E
330
1F
100
AcDbEntity
  8
Siatka
  6
Continuous
 62
    17
100
AcDbLine
 10
3.184933740063912
 20
6.793608405566715
 30
0.0
 11
3.184933740063912
 21
4.912226172242299
 31
0.0
  0
LINE
  5
31F
330
1F
100
AcDbEntity
  8
Siatka
  6
Continuous
 62
    17
100
AcDbLine
 10
3.184933740063912
 20
4.82318057163036
 30
0.0
 11
3.184933740063912
 21
2.84360840556667
 31
0.0
  0
LINE
  5
320
330
1F
100
AcDbEntity
  8
Siatka
  6
Continuous
 62
    17
100
AcDbLine
 10
3.134933740063957
 20
6.793608405566715
 30
0.0
 11
3.134933740063957
 21
4.940220887666669
 31
0.0
  0
LINE
  5
321
330
1F
100
AcDbEntity
  8
Siatka
  6
Continuous
 62
    17
100
AcDbLine
 10
3.134933740063957
 20
4.818657748843293
 30
0.0
 11
3.134933740063957
 21
2.84360840556667
 31
0.0
  0
LINE
  5
322
330
1F
100
AcDbEntity
  8
PATTERN_CLASS
  6
Continuous
 62
    17
100
AcDbLine
 10
3.134933740063957
 20
4.940220887666669
 30
0.0
 11
3.321853084992313
 21
4.835565810295179
 31
0.0
  0
LINE
  5
323
330
1F
100
AcDbEntity
  8
PATTERN_CLASS
  6
Continuous
 62
    18
100
AcDbLine
 10
3.321853084992313
 20
4.835565810295179
 30
0.0
 11
2.888608234832532
 21
4.796376016681165
 31
0.0
  0
LINE
  5
324
330
1F
100
AcDbEntity
  8
PATTERN_CLASS
  6
Continuous
 62
    18
100
AcDbLine
 10
2.888608234832532
 20
4.796376016681165
 30
0.0
 11
3.04384876163715
 21
4.631038993660923
 31
0.0
  0
LINE
  5
325
330
1F
100
AcDbEntity
  8
PATTERN_CLASS
  6
Continuous
 62
    17
100
AcDbLine
 10
3.04384876163715
 20
4.631038993660923
 30
0.0
 11
3.04384876163715
 21
2.660392806661093
 31
0.0
  0
LINE
  5
326
330
1F
100
AcDbEntity
  8
PATTERN_CLASS
  6
Continuous
 62
    17
100
AcDbLine
 10
3.135199792183471
 20
6.743608405566647
 30
0.0
 11
3.135199792183471
 21
4.940071926599217
 31
0.0
  0
LINE
  5
327
330
1F
100
AcDbEntity
  8
Siatka
  6
Continuous
 62
    17
100
AcDbLine
 10
2.934933740063912
 20
4.800566457694913
 30
0.0
 11
2.934933740063912
 21
4.747037604331467
 31
0.0
  0
LINE
  5
328
330
1F
100
AcDbEntity
  8
Siatka
  6
Continuous
 62
    17
100
AcDbLine
 10
2.98493374006398
 20
4.80508928048198
 30
0.0
 11
2.98493374006398
 21
4.693785716302159
 31
0.0
  0
LINE
  5
329
330
1F
100
AcDbEntity
  8
Siatka
  6
Continuous
 62
    17
100
AcDbLine
 10
3.034933740063934
 20
4.809612103269046
 30
0.0
 11
3.034933740063934
 21
4.640533828272851
 31
0.0
  0
LINE
  5
32A
330
1F
100
AcDbEntity
  8
Siatka
  6
Continuous
 62
    17
100
AcDbLine
 10
3.084933740064002
 20
4.814134926056227
 30
0.0
 11
3.084933740064002
 21
2.84360840556667
 31
0.0
  0
LINE
  5
32B
330
1F
100
AcDbEntity
  8
Siatka
  6
Continuous
 62
    17
100
AcDbLine
 10
3.509933740063843
 20
4.768608405566738
 30
0.0
 11
2.914680184712665
 21
4.768608405566738
 31
0.0
  0
LINE
  5
32C
330
1F
100
AcDbEntity
  8
Siatka
  6
Continuous
 62
    17
100
AcDbLine
 10
3.509933740063843
 20
4.568608405566693
 30
0.0
 11
3.04384876163715
 21
4.568608405566693
 31
0.0
  0
LINE
  5
32D
330
1F
100
AcDbEntity
  8
Siatka
  6
GESTRICHELT
 62
    17
100
AcDbLine
 10
3.509933740063843
 20
4.743608405566761
 30
0.0
 11
2.938153530846648
 21
4.743608405566761
 31
0.0
  0
LINE
  5
32E
330
1F
100
AcDbEntity
  8
Siatka
  6
Continuous
 62
    17
100
AcDbLine
 10
3.509933740063843
 20
4.818608405566693
 30
0.0
 11
3.13438824802347
 21
4.818608405566693
 31
0.0
  0
LINE
  5
32F
330
1F
100
AcDbEntity
  8
Siatka
  6
Continuous
 62
    17
100
AcDbLine
 10
3.509933740063843
 20
4.868608405566647
 30
0.0
 11
3.262837312246234
 21
4.868608405566647
 31
0.0
  0
LINE
  5
330
330
1F
100
AcDbEntity
  8
Siatka
  6
GESTRICHELT
 62
    17
100
AcDbLine
 10
3.509933740063843
 20
4.893608405566624
 30
0.0
 11
3.218186027850265
 21
4.893608405566624
 31
0.0
  0
LINE
  5
331
330
1F
100
AcDbEntity
  8
Siatka
  6
Continuous
 62
    17
100
AcDbLine
 10
3.334933740063889
 20
6.793608405566715
 30
0.0
 11
3.334933740063889
 21
2.84360840556667
 31
0.0
  0
LINE
  5
332
330
1F
100
AcDbEntity
  8
Siatka
  6
Continuous
 62
    17
100
AcDbLine
 10
3.384933740063957
 20
6.793608405566715
 30
0.0
 11
3.384933740063957
 21
2.84360840556667
 31
0.0
  0
LINE
  5
333
330
1F
100
AcDbEntity
  8
Siatka
  6
Continuous
 62
    17
100
AcDbLine
 10
3.434933740063912
 20
6.793608405566715
 30
0.0
 11
3.434933740063912
 21
2.84360840556667
 31
0.0
  0
LINE
  5
334
330
1F
100
AcDbEntity
  8
Siatka
  6
Continuous
 62
    17
100
AcDbLine
 10
3.484933740063866
 20
6.793608405566715
 30
0.0
 11
3.484933740063866
 21
2.84360840556667
 31
0.0
  0
LINE
  5
335
330
1F
100
AcDbEntity
  8
Siatka
  6
Continuous
 62
    17
100
AcDbLine
 10
3.509933740063843
 20
6.668608405566829
 30
0.0
 11
3.134933740063957
 21
6.668608405566829
 31
0.0
  0
LINE
  5
336
330
1F
100
AcDbEntity
  8
Siatka
  6
Continuous
 62
    17
100
AcDbLine
 10
3.509933740063843
 20
6.718608405566783
 30
0.0
 11
3.134933740063957
 21
6.718608405566783
 31
0.0
  0
LINE
  5
337
330
1F
100
AcDbEntity
  8
Siatka
  6
Continuous
 62
    17
100
AcDbLine
 10
3.509933740063843
 20
6.768608405566738
 30
0.0
 11
3.134933740063957
 21
6.768608405566738
 31
0.0
  0
LINE
  5
338
330
1F
100
AcDbEntity
  8
Siatka
  6
Continuous
 62
    17
100
AcDbLine
 10
3.509933740063843
 20
6.268608405566738
 30
0.0
 11
3.134933740063957
 21
6.268608405566738
 31
0.0
  0
LINE
  5
339
330
1F
100
AcDbEntity
  8
Siatka
  6
Continuous
 62
    17
100
AcDbLine
 10
3.509933740063843
 20
6.068608405566693
 30
0.0
 11
3.134933740063957
 21
6.068608405566693
 31
0.0
  0
LINE
  5
33A
330
1F
100
AcDbEntity
  8
Siatka
  6
Continuous
 62
    17
100
AcDbLine
 10
3.509933740063843
 20
6.018608405566738
 30
0.0
 11
3.134933740063957
 21
6.018608405566738
 31
0.0
  0
LINE
  5
33B
330
1F
100
AcDbEntity
  8
Siatka
  6
Continuous
 62
    17
100
AcDbLine
 10
3.509933740063843
 20
5.968608405566783
 30
0.0
 11
3.134933740063957
 21
5.968608405566783
 31
0.0
  0
LINE
  5
33C
330
1F
100
AcDbEntity
  8
Siatka
  6
Continuous
 62
    17
100
AcDbLine
 10
3.509933740063843
 20
5.768608405566738
 30
0.0
 11
3.134933740063957
 21
5.768608405566738
 31
0.0
  0
LINE
  5
33D
330
1F
100
AcDbEntity
  8
Siatka
  6
Continuous
 62
    17
100
AcDbLine
 10
3.509933740063843
 20
5.568608405566693
 30
0.0
 11
3.134933740063957
 21
5.568608405566693
 31
0.0
  0
LINE
  5
33E
330
1F
100
AcDbEntity
  8
Siatka
  6
Continuous
 62
    17
100
AcDbLine
 10
3.509933740063843
 20
5.518608405566738
 30
0.0
 11
3.134933740063957
 21
5.518608405566738
 31
0.0
  0
LINE
  5
33F
330
1F
100
AcDbEntity
  8
Siatka
  6
Continuous
 62
    17
100
AcDbLine
 10
3.509933740063843
 20
5.468608405566783
 30
0.0
 11
3.134933740063957
 21
5.468608405566783
 31
0.0
  0
LINE
  5
340
330
1F
100
AcDbEntity
  8
Siatka
  6
Continuous
 62
    17
100
AcDbLine
 10
3.509933740063843
 20
5.268608405566738
 30
0.0
 11
3.134933740063957
 21
5.268608405566738
 31
0.0
  0
LINE
  5
341
330
1F
100
AcDbEntity
  8
Siatka
  6
Continuous
 62
    17
100
AcDbLine
 10
3.509933740063843
 20
5.068608405566693
 30
0.0
 11
3.134933740063957
 21
5.068608405566693
 31
0.0
  0
LINE
  5
342
330
1F
100
AcDbEntity
  8
Siatka
  6
Continuous
 62
    17
100
AcDbLine
 10
3.509933740063843
 20
4.368608405566647
 30
0.0
 11
3.04384876163715
 21
4.368608405566647
 31
0.0
  0
LINE
  5
343
330
1F
100
AcDbEntity
  8
Siatka
  6
Continuous
 62
    17
100
AcDbLine
 10
3.509933740063843
 20
4.168608405566602
 30
0.0
 11
3.04384876163715
 21
4.168608405566602
 31
0.0
  0
LINE
  5
344
330
1F
100
AcDbEntity
  8
Siatka
  6
Continuous
 62
    17
100
AcDbLine
 10
3.509933740063843
 20
4.118608405566647
 30
0.0
 11
3.04384876163715
 21
4.118608405566647
 31
0.0
  0
LINE
  5
345
330
1F
100
AcDbEntity
  8
Siatka
  6
Continuous
 62
    17
100
AcDbLine
 10
3.509933740063843
 20
4.068608405566693
 30
0.0
 11
3.04384876163715
 21
4.068608405566693
 31
0.0
  0
LINE
  5
346
330
1F
100
AcDbEntity
  8
Siatka
  6
Continuous
 62
    17
100
AcDbLine
 10
3.509933740063843
 20
3.868608405566647
 30
0.0
 11
3.04384876163715
 21
3.868608405566647
 31
0.0
  0
LINE
  5
347
330
1F
100
AcDbEntity
  8
Siatka
  6
Continuous
 62
    17
100
AcDbLine
 10
3.509933740063843
 20
3.668608405566602
 30
0.0
 11
3.04384876163715
 21
3.668608405566602
 31
0.0
  0
LINE
  5
348
330
1F
100
AcDbEntity
  8
Siatka
  6
Continuous
 62
    17
100
AcDbLine
 10
3.509933740063843
 20
3.618608405566647
 30
0.0
 11
3.04384876163715
 21
3.618608405566647
 31
0.0
  0
LINE
  5
349
330
1F
100
AcDbEntity
  8
Siatka
  6
Continuous
 62
    17
100
AcDbLine
 10
3.509933740063843
 20
3.568608405566693
 30
0.0
 11
3.04384876163715
 21
3.568608405566693
 31
0.0
  0
LINE
  5
34A
330
1F
100
AcDbEntity
  8
Siatka
  6
Continuous
 62
    17
100
AcDbLine
 10
3.509933740063843
 20
3.368608405566647
 30
0.0
 11
3.04384876163715
 21
3.368608405566647
 31
0.0
  0
LINE
  5
34B
330
1F
100
AcDbEntity
  8
Siatka
  6
Continuous
 62
    17
100
AcDbLine
 10
3.509933740063843
 20
3.168608405566602
 30
0.0
 11
3.04384876163715
 21
3.168608405566602
 31
0.0
  0
LINE
  5
34C
330
1F
100
AcDbEntity
  8
Siatka
  6
Continuous
 62
    17
100
AcDbLine
 10
3.509933740063843
 20
2.968608405566556
 30
0.0
 11
3.04384876163715
 21
2.968608405566556
 31
0.0
  0
LINE
  5
34D
330
1F
100
AcDbEntity
  8
Siatka
  6
Continuous
 62
    17
100
AcDbLine
 10
3.509933740063843
 20
2.918608405566602
 30
0.0
 11
3.04384876163715
 21
2.918608405566602
 31
0.0
  0
LINE
  5
34E
330
1F
100
AcDbEntity
  8
Siatka
  6
Continuous
 62
    17
100
AcDbLine
 10
3.509933740063843
 20
2.868608405566647
 30
0.0
 11
3.04384876163715
 21
2.868608405566647
 31
0.0
  0
LINE
  5
34F
330
1F
100
AcDbEntity
  8
PATTERN_CLASS
  6
GESTRICHELT
 62
    17
100
AcDbLine
 10
3.509933740063843
 20
2.84360840556667
 30
0.0
 11
3.04384876163715
 21
2.84360840556667
 31
0.0
  0
LINE
  5
350
330
1F
100
AcDbEntity
  8
PATTERN_CLASS
  6
Continuous
 62
     8
100
AcDbLine
 10
3.509933740063843
 20
2.84360840556667
 30
0.0
 11
3.04384876163715
 21
2.84360840556667
 31
0.0
  0
LINE
  5
351
330
1F
100
AcDbEntity
  8
Siatka
  6
Continuous
 62
    17
100
AcDbLine
 10
7.324933740063784
 20
6.793608405566715
 30
0.0
 11
7.324933740063784
 21
5.243608405566647
 31
0.0
  0
LINE
  5
352
330
1F
100
AcDbEntity
  8
Siatka
  6
Continuous
 62
    17
100
AcDbLine
 10
7.264933740063839
 20
6.793608405566715
 30
0.0
 11
7.264933740063839
 21
5.243608405566647
 31
0.0
  0
LINE
  5
353
330
1F
100
AcDbEntity
  8
Siatka
  6
Continuous
 62
    17
100
AcDbLine
 10
7.214933740063771
 20
6.793608405566715
 30
0.0
 11
7.214933740063771
 21
5.243608405566647
 31
0.0
  0
LINE
  5
354
330
1F
100
AcDbEntity
  8
Siatka
  6
Continuous
 62
    17
100
AcDbLine
 10
7.164933740063816
 20
6.793608405566715
 30
0.0
 11
7.164933740063816
 21
5.243608405566647
 31
0.0
  0
LINE
  5
355
330
1F
100
AcDbEntity
  8
Siatka
  6
Continuous
 62
    17
100
AcDbLine
 10
7.114933740063748
 20
6.793608405566715
 30
0.0
 11
7.114933740063748
 21
5.243608405566647
 31
0.0
  0
LINE
  5
356
330
1F
100
AcDbEntity
  8
Siatka
  6
Continuous
 62
    17
100
AcDbLine
 10
7.064933740063793
 20
6.793608405566715
 30
0.0
 11
7.064933740063793
 21
5.243608405566647
 31
0.0
  0
LINE
  5
357
330
1F
100
AcDbEntity
  8
Siatka
  6
Continuous
 62
    17
100
AcDbLine
 10
7.014933740063839
 20
6.793608405566715
 30
0.0
 11
7.014933740063839
 21
5.243608405566647
 31
0.0
  0
LINE
  5
358
330
1F
100
AcDbEntity
  8
Siatka
  6
Continuous
 62
    17
100
AcDbLine
 10
6.964933740063771
 20
6.793608405566715
 30
0.0
 11
6.964933740063771
 21
5.243608405566647
 31
0.0
  0
LINE
  5
359
330
1F
100
AcDbEntity
  8
Siatka
  6
Continuous
 62
    17
100
AcDbLine
 10
6.914933740063816
 20
6.793608405566715
 30
0.0
 11
6.914933740063816
 21
5.243608405566647
 31
0.0
  0
LINE
  5
35A
330
1F
100
AcDbEntity
  8
Siatka
  6
Continuous
 62
    17
100
AcDbLine
 10
6.864933740063748
 20
6.793608405566715
 30
0.0
 11
6.864933740063748
 21
5.243608405566647
 31
0.0
  0
LINE
  5
35B
330
1F
100
AcDbEntity
  8
Siatka
  6
Continuous
 62
    17
100
AcDbLine
 10
6.814933740063793
 20
6.793608405566715
 30
0.0
 11
6.814933740063793
 21
5.243608405566647
 31
0.0
  0
LINE
  5
35C
330
1F
100
AcDbEntity
  8
Siatka
  6
Continuous
 62
    17
100
AcDbLine
 10
6.764933740063839
 20
6.793608405566715
 30
0.0
 11
6.764933740063839
 21
5.243608405566647
 31
0.0
  0
LINE
  5
35D
330
1F
100
AcDbEntity
  8
Siatka
  6
Continuous
 62
    17
100
AcDbLine
 10
6.714933740063771
 20
6.793608405566715
 30
0.0
 11
6.714933740063771
 21
5.243608405566647
 31
0.0
  0
LINE
  5
35E
330
1F
100
AcDbEntity
  8
Siatka
  6
Continuous
 62
    17
100
AcDbLine
 10
6.664933740063816
 20
6.793608405566715
 30
0.0
 11
6.664933740063816
 21
5.243608405566647
 31
0.0
  0
LINE
  5
35F
330
1F
100
AcDbEntity
  8
Siatka
  6
Continuous
 62
    17
100
AcDbLine
 10
6.614933740063748
 20
6.793608405566715
 30
0.0
 11
6.614933740063748
 21
5.243608405566647
 31
0.0
  0
LINE
  5
360
330
1F
100
AcDbEntity
  8
Siatka
  6
Continuous
 62
    17
100
AcDbLine
 10
6.564933740063793
 20
6.793608405566715
 30
0.0
 11
6.564933740063793
 21
5.243608405566647
 31
0.0
  0
LINE
  5
361
330
1F
100
AcDbEntity
  8
Siatka
  6
Continuous
 62
    17
100
AcDbLine
 10
6.514933740063839
 20
6.793608405566715
 30
0.0
 11
6.514933740063839
 21
5.243608405566647
 31
0.0
  0
LINE
  5
362
330
1F
100
AcDbEntity
  8
Siatka
  6
Continuous
 62
    17
100
AcDbLine
 10
6.464933740063771
 20
6.793608405566715
 30
0.0
 11
6.464933740063771
 21
5.243608405566647
 31
0.0
  0
LINE
  5
363
330
1F
100
AcDbEntity
  8
Siatka
  6
Continuous
 62
    17
100
AcDbLine
 10
6.414933740063816
 20
6.793608405566715
 30
0.0
 11
6.414933740063816
 21
5.243608405566647
 31
0.0
  0
LINE
  5
364
330
1F
100
AcDbEntity
  8
Siatka
  6
Continuous
 62
    17
100
AcDbLine
 10
6.364933740063748
 20
6.793608405566715
 30
0.0
 11
6.364933740063748
 21
5.243608405566647
 31
0.0
  0
LINE
  5
365
330
1F
100
AcDbEntity
  8
Siatka
  6
Continuous
 62
    17
100
AcDbLine
 10
6.314933740063793
 20
6.793608405566715
 30
0.0
 11
6.314933740063793
 21
5.243608405566647
 31
0.0
  0
LINE
  5
366
330
1F
100
AcDbEntity
  8
Siatka
  6
Continuous
 62
    17
100
AcDbLine
 10
6.264933740063839
 20
6.793608405566715
 30
0.0
 11
6.264933740063839
 21
5.243608405566647
 31
0.0
  0
LINE
  5
367
330
1F
100
AcDbEntity
  8
Siatka
  6
Continuous
 62
    17
100
AcDbLine
 10
6.214933740063771
 20
6.793608405566715
 30
0.0
 11
6.214933740063771
 21
5.243608405566647
 31
0.0
  0
LINE
  5
368
330
1F
100
AcDbEntity
  8
Siatka
  6
Continuous
 62
    17
100
AcDbLine
 10
6.164933740063816
 20
6.793608405566715
 30
0.0
 11
6.164933740063816
 21
5.243608405566647
 31
0.0
  0
LINE
  5
369
330
1F
100
AcDbEntity
  8
Siatka
  6
Continuous
 62
    17
100
AcDbLine
 10
6.114933740063748
 20
6.793608405566715
 30
0.0
 11
6.114933740063748
 21
5.243608405566647
 31
0.0
  0
LWPOLYLINE
  5
36A
330
1F
100
AcDbEntity
  8
PATTERN_CLASS
  6
Continuous
 62
     1
100
AcDbPolyline
 90
        4
 70
     0
 43
0.0
 10
7.331209451267
 20
5.163608405566606
 10
7.331209451267
 20
6.943608405566693
 10
7.411209451266927
 20
6.943608405566693
 10
7.411209451266927
 20
2.743608405566647
  0
LINE
  5
36B
330
1F
100
AcDbEntity
  8
Siatka
  6
Continuous
 62
    17
100
AcDbLine
 10
7.306209451267023
 20
5.243608405566647
 30
0.0
 11
7.306209451267023
 21
6.793608405566715
 31
0.0
  0
LINE
  5
36C
330
1F
100
AcDbEntity
  8
Siatka
  6
Continuous
 62
    17
100
AcDbLine
 10
6.064933740063793
 20
6.793608405566715
 30
0.0
 11
6.064933740063793
 21
5.243608405566647
 31
0.0
  0
LINE
  5
36D
330
1F
100
AcDbEntity
  8
Siatka
  6
Continuous
 62
    17
100
AcDbLine
 10
5.914933740063702
 20
6.793608405566715
 30
0.0
 11
5.914933740063702
 21
2.84360840556667
 31
0.0
  0
LINE
  5
36E
330
1F
100
AcDbEntity
  8
Siatka
  6
Continuous
 62
    17
100
AcDbLine
 10
5.864933740063748
 20
6.793608405566715
 30
0.0
 11
5.864933740063748
 21
2.84360840556667
 31
0.0
  0
LINE
  5
36F
330
1F
100
AcDbEntity
  8
Siatka
  6
Continuous
 62
    17
100
AcDbLine
 10
5.81493374006368
 20
6.793608405566715
 30
0.0
 11
5.81493374006368
 21
2.84360840556667
 31
0.0
  0
LINE
  5
370
330
1F
100
AcDbEntity
  8
Siatka
  6
Continuous
 62
    17
100
AcDbLine
 10
5.764933740063725
 20
6.793608405566715
 30
0.0
 11
5.764933740063725
 21
2.84360840556667
 31
0.0
  0
LINE
  5
371
330
1F
100
AcDbEntity
  8
Siatka
  6
Continuous
 62
    17
100
AcDbLine
 10
5.714933740063657
 20
6.793608405566715
 30
0.0
 11
5.714933740063657
 21
2.84360840556667
 31
0.0
  0
LINE
  5
372
330
1F
100
AcDbEntity
  8
Siatka
  6
Continuous
 62
    17
100
AcDbLine
 10
5.664933740063702
 20
6.793608405566715
 30
0.0
 11
5.664933740063702
 21
2.84360840556667
 31
0.0
  0
LINE
  5
373
330
1F
100
AcDbEntity
  8
Siatka
  6
Continuous
 62
    17
100
AcDbLine
 10
5.614933740063748
 20
6.793608405566715
 30
0.0
 11
5.614933740063748
 21
2.84360840556667
 31
0.0
  0
LINE
  5
374
330
1F
100
AcDbEntity
  8
Siatka
  6
Continuous
 62
    17
100
AcDbLine
 10
5.56493374006368
 20
6.793608405566715
 30
0.0
 11
5.56493374006368
 21
2.84360840556667
 31
0.0
  0
LINE
  5
375
330
1F
100
AcDbEntity
  8
Siatka
  6
Continuous
 62
    17
100
AcDbLine
 10
5.514933740063725
 20
6.793608405566715
 30
0.0
 11
5.514933740063725
 21
2.84360840556667
 31
0.0
  0
LINE
  5
376
330
1F
100
AcDbEntity
  8
Siatka
  6
Continuous
 62
    17
100
AcDbLine
 10
5.464933740063657
 20
6.793608405566715
 30
0.0
 11
5.464933740063657
 21
2.84360840556667
 31
0.0
  0
LINE
  5
377
330
1F
100
AcDbEntity
  8
Siatka
  6
Continuous
 62
    17
100
AcDbLine
 10
5.414933740063702
 20
6.793608405566715
 30
0.0
 11
5.414933740063702
 21
2.84360840556667
 31
0.0
  0
LINE
  5
378
330
1F
100
AcDbEntity
  8
Siatka
  6
Continuous
 62
    17
100
AcDbLine
 10
5.364933740063748
 20
6.793608405566715
 30
0.0
 11
5.364933740063748
 21
2.84360840556667
 31
0.0
  0
LINE
  5
379
330
1F
100
AcDbEntity
  8
Siatka
  6
Continuous
 62
    17
100
AcDbLine
 10
5.31493374006368
 20
6.793608405566715
 30
0.0
 11
5.31493374006368
 21
2.84360840556667
 31
0.0
  0
LINE
  5
37A
330
1F
100
AcDbEntity
  8
Siatka
  6
Continuous
 62
    17
100
AcDbLine
 10
5.264933740063725
 20
6.793608405566715
 30
0.0
 11
5.264933740063725
 21
2.84360840556667
 31
0.0
  0
LINE
  5
37B
330
1F
100
AcDbEntity
  8
Siatka
  6
Continuous
 62
    17
100
AcDbLine
 10
5.214933740063657
 20
6.793608405566715
 30
0.0
 11
5.214933740063657
 21
2.84360840556667
 31
0.0
  0
LINE
  5
37C
330
1F
100
AcDbEntity
  8
Siatka
  6
Continuous
 62
    17
100
AcDbLine
 10
5.164933740063702
 20
6.793608405566715
 30
0.0
 11
5.164933740063702
 21
2.84360840556667
 31
0.0
  0
LINE
  5
37D
330
1F
100
AcDbEntity
  8
Siatka
  6
Continuous
 62
    17
100
AcDbLine
 10
5.114933740063748
 20
6.793608405566715
 30
0.0
 11
5.114933740063748
 21
2.84360840556667
 31
0.0
  0
LINE
  5
37E
330
1F
100
AcDbEntity
  8
Siatka
  6
Continuous
 62
    17
100
AcDbLine
 10
5.06493374006368
 20
6.793608405566715
 30
0.0
 11
5.06493374006368
 21
2.84360840556667
 31
0.0
  0
LINE
  5
37F
330
1F
100
AcDbEntity
  8
Siatka
  6
Continuous
 62
    17
100
AcDbLine
 10
5.014933740063725
 20
6.793608405566715
 30
0.0
 11
5.014933740063725
 21
2.84360840556667
 31
0.0
  0
LINE
  5
380
330
1F
100
AcDbEntity
  8
Siatka
  6
Continuous
 62
    17
100
AcDbLine
 10
4.964933740063657
 20
6.793608405566715
 30
0.0
 11
4.964933740063657
 21
2.84360840556667
 31
0.0
  0
LINE
  5
381
330
1F
100
AcDbEntity
  8
Siatka
  6
Continuous
 62
    17
100
AcDbLine
 10
4.914933740063702
 20
6.793608405566715
 30
0.0
 11
4.914933740063702
 21
2.84360840556667
 31
0.0
  0
LINE
  5
382
330
1F
100
AcDbEntity
  8
Siatka
  6
Continuous
 62
    17
100
AcDbLine
 10
4.864933740063748
 20
6.793608405566715
 30
0.0
 11
4.864933740063748
 21
2.84360840556667
 31
0.0
  0
LINE
  5
383
330
1F
100
AcDbEntity
  8
Siatka
  6
Continuous
 62
    17
100
AcDbLine
 10
4.81493374006368
 20
6.793608405566715
 30
0.0
 11
4.81493374006368
 21
2.84360840556667
 31
0.0
  0
LINE
  5
384
330
1F
100
AcDbEntity
  8
Siatka
  6
Continuous
 62
    17
100
AcDbLine
 10
4.764933740063725
 20
6.793608405566715
 30
0.0
 11
4.764933740063725
 21
2.84360840556667
 31
0.0
  0
LINE
  5
385
330
1F
100
AcDbEntity
  8
Siatka
  6
Continuous
 62
    17
100
AcDbLine
 10
4.714933740063657
 20
6.793608405566715
 30
0.0
 11
4.714933740063657
 21
2.84360840556667
 31
0.0
  0
LINE
  5
386
330
1F
100
AcDbEntity
  8
Siatka
  6
Continuous
 62
    17
100
AcDbLine
 10
4.664933740063702
 20
6.793608405566715
 30
0.0
 11
4.664933740063702
 21
2.84360840556667
 31
0.0
  0
LINE
  5
387
330
1F
100
AcDbEntity
  8
Siatka
  6
Continuous
 62
    17
100
AcDbLine
 10
4.614933740063748
 20
6.793608405566715
 30
0.0
 11
4.614933740063748
 21
2.84360840556667
 31
0.0
  0
LINE
  5
388
330
1F
100
AcDbEntity
  8
Siatka
  6
Continuous
 62
    17
100
AcDbLine
 10
4.56493374006368
 20
6.793608405566715
 30
0.0
 11
4.56493374006368
 21
2.84360840556667
 31
0.0
  0
LINE
  5
389
330
1F
100
AcDbEntity
  8
Siatka
  6
Continuous
 62
    17
100
AcDbLine
 10
4.514933740063725
 20
6.793608405566715
 30
0.0
 11
4.514933740063725
 21
2.84360840556667
 31
0.0
  0
LINE
  5
38A
330
1F
100
AcDbEntity
  8
Siatka
  6
Continuous
 62
    17
100
AcDbLine
 10
4.464933740063657
 20
6.793608405566715
 30
0.0
 11
4.464933740063657
 21
2.84360840556667
 31
0.0
  0
LINE
  5
38B
330
1F
100
AcDbEntity
  8
Siatka
  6
Continuous
 62
    17
100
AcDbLine
 10
4.414933740063702
 20
6.793608405566715
 30
0.0
 11
4.414933740063702
 21
2.84360840556667
 31
0.0
  0
LINE
  5
38C
330
1F
100
AcDbEntity
  8
Siatka
  6
Continuous
 62
    17
100
AcDbLine
 10
4.364933740063748
 20
6.793608405566715
 30
0.0
 11
4.364933740063748
 21
2.84360840556667
 31
0.0
  0
LINE
  5
38D
330
1F
100
AcDbEntity
  8
Siatka
  6
Continuous
 62
    17
100
AcDbLine
 10
4.31493374006368
 20
6.793608405566715
 30
0.0
 11
4.31493374006368
 21
2.84360840556667
 31
0.0
  0
LINE
  5
38E
330
1F
100
AcDbEntity
  8
Siatka
  6
Continuous
 62
    17
100
AcDbLine
 10
4.264933740063725
 20
6.793608405566715
 30
0.0
 11
4.264933740063725
 21
2.84360840556667
 31
0.0
  0
LINE
  5
38F
330
1F
100
AcDbEntity
  8
Siatka
  6
Continuous
 62
    17
100
AcDbLine
 10
4.214933740063657
 20
6.793608405566715
 30
0.0
 11
4.214933740063657
 21
2.84360840556667
 31
0.0
  0
LINE
  5
390
330
1F
100
AcDbEntity
  8
Siatka
  6
Continuous
 62
    17
100
AcDbLine
 10
4.164933740063702
 20
6.793608405566715
 30
0.0
 11
4.164933740063702
 21
2.84360840556667
 31
0.0
  0
LINE
  5
391
330
1F
100
AcDbEntity
  8
Siatka
  6
Continuous
 62
    17
100
AcDbLine
 10
4.114933740063748
 20
6.793608405566715
 30
0.0
 11
4.114933740063748
 21
2.84360840556667
 31
0.0
  0
LINE
  5
392
330
1F
100
AcDbEntity
  8
Siatka
  6
Continuous
 62
    17
100
AcDbLine
 10
4.06493374006368
 20
6.793608405566715
 30
0.0
 11
4.06493374006368
 21
2.84360840556667
 31
0.0
  0
LINE
  5
393
330
1F
100
AcDbEntity
  8
Siatka
  6
Continuous
 62
    17
100
AcDbLine
 10
4.014933740063725
 20
6.793608405566715
 30
0.0
 11
4.014933740063725
 21
2.84360840556667
 31
0.0
  0
LINE
  5
394
330
1F
100
AcDbEntity
  8
Siatka
  6
Continuous
 62
    17
100
AcDbLine
 10
3.964933740063657
 20
6.793608405566715
 30
0.0
 11
3.964933740063657
 21
2.84360840556667
 31
0.0
  0
LINE
  5
395
330
1F
100
AcDbEntity
  8
Siatka
  6
Continuous
 62
    17
100
AcDbLine
 10
3.914933740063702
 20
6.793608405566715
 30
0.0
 11
3.914933740063702
 21
2.84360840556667
 31
0.0
  0
LINE
  5
396
330
1F
100
AcDbEntity
  8
Siatka
  6
Continuous
 62
    17
100
AcDbLine
 10
3.864933740063748
 20
6.793608405566715
 30
0.0
 11
3.864933740063748
 21
2.84360840556667
 31
0.0
  0
LINE
  5
397
330
1F
100
AcDbEntity
  8
Siatka
  6
Continuous
 62
    17
100
AcDbLine
 10
3.81493374006368
 20
6.793608405566715
 30
0.0
 11
3.81493374006368
 21
2.84360840556667
 31
0.0
  0
LINE
  5
398
330
1F
100
AcDbEntity
  8
Siatka
  6
Continuous
 62
    17
100
AcDbLine
 10
3.764933740063725
 20
6.793608405566715
 30
0.0
 11
3.764933740063725
 21
2.84360840556667
 31
0.0
  0
LINE
  5
399
330
1F
100
AcDbEntity
  8
Siatka
  6
Continuous
 62
    17
100
AcDbLine
 10
3.714933740063657
 20
6.793608405566715
 30
0.0
 11
3.714933740063657
 21
2.84360840556667
 31
0.0
  0
LINE
  5
39A
330
1F
100
AcDbEntity
  8
Siatka
  6
Continuous
 62
    17
100
AcDbLine
 10
3.664933740063702
 20
6.793608405566715
 30
0.0
 11
3.664933740063702
 21
2.84360840556667
 31
0.0
  0
LINE
  5
39B
330
1F
100
AcDbEntity
  8
Siatka
  6
Continuous
 62
    17
100
AcDbLine
 10
6.049933740063807
 20
5.268608405566738
 30
0.0
 11
7.331209451267
 21
5.268608405566738
 31
0.0
  0
LINE
  5
39C
330
1F
100
AcDbEntity
  8
Siatka
  6
Continuous
 62
    17
100
AcDbLine
 10
6.049933740063807
 20
5.318608405566693
 30
0.0
 11
7.331209451267
 21
5.318608405566693
 31
0.0
  0
LINE
  5
39D
330
1F
100
AcDbEntity
  8
Siatka
  6
Continuous
 62
    17
100
AcDbLine
 10
6.049933740063807
 20
5.368608405566647
 30
0.0
 11
7.331209451267
 21
5.368608405566647
 31
0.0
  0
LINE
  5
39E
330
1F
100
AcDbEntity
  8
Siatka
  6
Continuous
 62
    17
100
AcDbLine
 10
6.049933740063807
 20
5.568608405566693
 30
0.0
 11
7.331209451267
 21
5.568608405566693
 31
0.0
  0
LINE
  5
39F
330
1F
100
AcDbEntity
  8
Siatka
  6
Continuous
 62
    17
100
AcDbLine
 10
6.049933740063807
 20
5.768608405566738
 30
0.0
 11
7.331209451267
 21
5.768608405566738
 31
0.0
  0
LINE
  5
3A0
330
1F
100
AcDbEntity
  8
Siatka
  6
Continuous
 62
    17
100
AcDbLine
 10
6.049933740063807
 20
5.968608405566783
 30
0.0
 11
7.331209451267
 21
5.968608405566783
 31
0.0
  0
LINE
  5
3A1
330
1F
100
AcDbEntity
  8
Siatka
  6
Continuous
 62
    17
100
AcDbLine
 10
6.049933740063807
 20
6.018608405566738
 30
0.0
 11
7.331209451267
 21
6.018608405566738
 31
0.0
  0
LINE
  5
3A2
330
1F
100
AcDbEntity
  8
Siatka
  6
Continuous
 62
    17
100
AcDbLine
 10
6.049933740063807
 20
6.068608405566693
 30
0.0
 11
7.331209451267
 21
6.068608405566693
 31
0.0
  0
LINE
  5
3A3
330
1F
100
AcDbEntity
  8
Siatka
  6
Continuous
 62
    17
100
AcDbLine
 10
3.589933740063771
 20
6.668608405566829
 30
0.0
 11
5.96993374006388
 21
6.668608405566829
 31
0.0
  0
LINE
  5
3A4
330
1F
100
AcDbEntity
  8
Siatka
  6
Continuous
 62
    17
100
AcDbLine
 10
6.049933740063807
 20
6.668608405566829
 30
0.0
 11
7.331209451267
 21
6.668608405566829
 31
0.0
  0
LINE
  5
3A5
330
1F
100
AcDbEntity
  8
Siatka
  6
Continuous
 62
    17
100
AcDbLine
 10
6.049933740063807
 20
6.268608405566738
 30
0.0
 11
7.331209451267
 21
6.268608405566738
 31
0.0
  0
LINE
  5
3A6
330
1F
100
AcDbEntity
  8
Siatka
  6
Continuous
 62
    17
100
AcDbLine
 10
3.589933740063771
 20
6.468608405566783
 30
0.0
 11
6.009933740063843
 21
6.468608405566783
 31
0.0
  0
LINE
  5
3A7
330
1F
100
AcDbEntity
  8
Siatka
  6
Continuous
 62
    17
100
AcDbLine
 10
6.049933740063807
 20
6.468608405566783
 30
0.0
 11
7.331209451267
 21
6.468608405566783
 31
0.0
  0
LINE
  5
3A8
330
1F
100
AcDbEntity
  8
Siatka
  6
Continuous
 62
    17
100
AcDbLine
 10
3.589933740063771
 20
6.718608405566783
 30
0.0
 11
5.96993374006388
 21
6.718608405566783
 31
0.0
  0
LINE
  5
3A9
330
1F
100
AcDbEntity
  8
Siatka
  6
Continuous
 62
    17
100
AcDbLine
 10
6.049933740063807
 20
6.718608405566783
 30
0.0
 11
7.331209451267
 21
6.718608405566783
 31
0.0
  0
LINE
  5
3AA
330
1F
100
AcDbEntity
  8
Siatka
  6
Continuous
 62
    17
100
AcDbLine
 10
3.589933740063771
 20
6.768608405566738
 30
0.0
 11
5.96993374006388
 21
6.768608405566738
 31
0.0
  0
LINE
  5
3AB
330
1F
100
AcDbEntity
  8
Siatka
  6
Continuous
 62
    17
100
AcDbLine
 10
6.049933740063807
 20
6.768608405566738
 30
0.0
 11
7.331209451267
 21
6.768608405566738
 31
0.0
  0
LINE
  5
3AC
330
1F
100
AcDbEntity
  8
Siatka
  6
GESTRICHELT
 62
    17
100
AcDbLine
 10
3.589933740063771
 20
6.793608405566715
 30
0.0
 11
5.96993374006388
 21
6.793608405566715
 31
0.0
  0
LINE
  5
3AD
330
1F
100
AcDbEntity
  8
Siatka
  6
GESTRICHELT
 62
    17
100
AcDbLine
 10
6.049933740063807
 20
6.793608405566715
 30
0.0
 11
7.331209451267
 21
6.793608405566715
 31
0.0
  0
LINE
  5
3AE
330
1F
100
AcDbEntity
  8
Siatka
  6
GESTRICHELT
 62
    17
100
AcDbLine
 10
3.589933740063771
 20
4.743608405566761
 30
0.0
 11
5.96993374006388
 21
4.743608405566761
 31
0.0
  0
LINE
  5
3AF
330
1F
100
AcDbEntity
  8
Siatka
  6
Continuous
 62
    17
100
AcDbLine
 10
3.589933740063771
 20
6.268608405566738
 30
0.0
 11
5.96993374006388
 21
6.268608405566738
 31
0.0
  0
LINE
  5
3B0
330
1F
100
AcDbEntity
  8
Siatka
  6
Continuous
 62
    17
100
AcDbLine
 10
3.589933740063771
 20
6.068608405566693
 30
0.0
 11
5.96993374006388
 21
6.068608405566693
 31
0.0
  0
LINE
  5
3B1
330
1F
100
AcDbEntity
  8
Siatka
  6
Continuous
 62
    17
100
AcDbLine
 10
3.589933740063771
 20
6.018608405566738
 30
0.0
 11
5.96993374006388
 21
6.018608405566738
 31
0.0
  0
LINE
  5
3B2
330
1F
100
AcDbEntity
  8
Siatka
  6
Continuous
 62
    17
100
AcDbLine
 10
3.589933740063771
 20
5.968608405566783
 30
0.0
 11
5.96993374006388
 21
5.968608405566783
 31
0.0
  0
LINE
  5
3B3
330
1F
100
AcDbEntity
  8
Siatka
  6
Continuous
 62
    17
100
AcDbLine
 10
3.589933740063771
 20
5.768608405566738
 30
0.0
 11
5.96993374006388
 21
5.768608405566738
 31
0.0
  0
LINE
  5
3B4
330
1F
100
AcDbEntity
  8
Siatka
  6
Continuous
 62
    17
100
AcDbLine
 10
3.589933740063771
 20
5.568608405566693
 30
0.0
 11
5.96993374006388
 21
5.568608405566693
 31
0.0
  0
LINE
  5
3B5
330
1F
100
AcDbEntity
  8
Siatka
  6
Continuous
 62
    17
100
AcDbLine
 10
3.589933740063771
 20
5.518608405566738
 30
0.0
 11
5.96993374006388
 21
5.518608405566738
 31
0.0
  0
LINE
  5
3B6
330
1F
100
AcDbEntity
  8
Siatka
  6
Continuous
 62
    17
100
AcDbLine
 10
3.589933740063771
 20
5.468608405566783
 30
0.0
 11
5.96993374006388
 21
5.468608405566783
 31
0.0
  0
LINE
  5
3B7
330
1F
100
AcDbEntity
  8
Siatka
  6
Continuous
 62
    17
100
AcDbLine
 10
3.589933740063771
 20
5.268608405566738
 30
0.0
 11
5.96993374006388
 21
5.268608405566738
 31
0.0
  0
LINE
  5
3B8
330
1F
100
AcDbEntity
  8
Siatka
  6
Continuous
 62
    17
100
AcDbLine
 10
3.589933740063771
 20
5.068608405566693
 30
0.0
 11
5.96993374006388
 21
5.068608405566693
 31
0.0
  0
LINE
  5
3B9
330
1F
100
AcDbEntity
  8
Siatka
  6
GESTRICHELT
 62
    17
100
AcDbLine
 10
3.589933740063771
 20
4.893608405566624
 30
0.0
 11
5.96993374006388
 21
4.893608405566624
 31
0.0
  0
LINE
  5
3BA
330
1F
100
AcDbEntity
  8
Siatka
  6
Continuous
 62
    17
100
AcDbLine
 10
3.589933740063771
 20
4.868608405566647
 30
0.0
 11
5.96993374006388
 21
4.868608405566647
 31
0.0
  0
LINE
  5
3BB
330
1F
100
AcDbEntity
  8
Siatka
  6
Continuous
 62
    17
100
AcDbLine
 10
3.589933740063771
 20
4.818608405566693
 30
0.0
 11
5.96993374006388
 21
4.818608405566693
 31
0.0
  0
LINE
  5
3BC
330
1F
100
AcDbEntity
  8
Siatka
  6
Continuous
 62
    17
100
AcDbLine
 10
3.589933740063771
 20
4.768608405566738
 30
0.0
 11
5.96993374006388
 21
4.768608405566738
 31
0.0
  0
LINE
  5
3BD
330
1F
100
AcDbEntity
  8
Siatka
  6
Continuous
 62
    17
100
AcDbLine
 10
3.589933740063771
 20
4.768608405566738
 30
0.0
 11
5.96993374006388
 21
4.768608405566738
 31
0.0
  0
LINE
  5
3BE
330
1F
100
AcDbEntity
  8
Siatka
  6
Continuous
 62
    17
100
AcDbLine
 10
3.589933740063771
 20
4.568608405566693
 30
0.0
 11
5.96993374006388
 21
4.568608405566693
 31
0.0
  0
LINE
  5
3BF
330
1F
100
AcDbEntity
  8
Siatka
  6
Continuous
 62
    17
100
AcDbLine
 10
3.589933740063771
 20
4.368608405566647
 30
0.0
 11
5.96993374006388
 21
4.368608405566647
 31
0.0
  0
LINE
  5
3C0
330
1F
100
AcDbEntity
  8
Siatka
  6
Continuous
 62
    17
100
AcDbLine
 10
3.589933740063771
 20
4.168608405566602
 30
0.0
 11
5.96993374006388
 21
4.168608405566602
 31
0.0
  0
LINE
  5
3C1
330
1F
100
AcDbEntity
  8
Siatka
  6
Continuous
 62
    17
100
AcDbLine
 10
3.589933740063771
 20
4.118608405566647
 30
0.0
 11
5.96993374006388
 21
4.118608405566647
 31
0.0
  0
LINE
  5
3C2
330
1F
100
AcDbEntity
  8
Siatka
  6
Continuous
 62
    17
100
AcDbLine
 10
3.589933740063771
 20
4.068608405566693
 30
0.0
 11
5.96993374006388
 21
4.068608405566693
 31
0.0
  0
LINE
  5
3C3
330
1F
100
AcDbEntity
  8
Siatka
  6
Continuous
 62
    17
100
AcDbLine
 10
3.589933740063771
 20
3.868608405566647
 30
0.0
 11
5.96993374006388
 21
3.868608405566647
 31
0.0
  0
LINE
  5
3C4
330
1F
100
AcDbEntity
  8
Siatka
  6
Continuous
 62
    17
100
AcDbLine
 10
3.589933740063771
 20
3.668608405566602
 30
0.0
 11
5.96993374006388
 21
3.668608405566602
 31
0.0
  0
LINE
  5
3C5
330
1F
100
AcDbEntity
  8
Siatka
  6
Continuous
 62
    17
100
AcDbLine
 10
3.589933740063771
 20
3.618608405566647
 30
0.0
 11
5.96993374006388
 21
3.618608405566647
 31
0.0
  0
LINE
  5
3C6
330
1F
100
AcDbEntity
  8
Siatka
  6
Continuous
 62
    17
100
AcDbLine
 10
3.589933740063771
 20
3.568608405566693
 30
0.0
 11
5.96993374006388
 21
3.568608405566693
 31
0.0
  0
LINE
  5
3C7
330
1F
100
AcDbEntity
  8
Siatka
  6
Continuous
 62
    17
100
AcDbLine
 10
3.589933740063771
 20
3.368608405566647
 30
0.0
 11
5.96993374006388
 21
3.368608405566647
 31
0.0
  0
LINE
  5
3C8
330
1F
100
AcDbEntity
  8
Siatka
  6
Continuous
 62
    17
100
AcDbLine
 10
3.589933740063771
 20
3.168608405566602
 30
0.0
 11
5.96993374006388
 21
3.168608405566602
 31
0.0
  0
LINE
  5
3C9
330
1F
100
AcDbEntity
  8
Siatka
  6
Continuous
 62
    17
100
AcDbLine
 10
3.589933740063771
 20
2.968608405566556
 30
0.0
 11
5.96993374006388
 21
2.968608405566556
 31
0.0
  0
LINE
  5
3CA
330
1F
100
AcDbEntity
  8
Siatka
  6
Continuous
 62
    17
100
AcDbLine
 10
3.589933740063771
 20
2.918608405566602
 30
0.0
 11
5.96993374006388
 21
2.918608405566602
 31
0.0
  0
LINE
  5
3CB
330
1F
100
AcDbEntity
  8
Siatka
  6
Continuous
 62
    17
100
AcDbLine
 10
3.589933740063771
 20
2.868608405566647
 30
0.0
 11
5.96993374006388
 21
2.868608405566647
 31
0.0
  0
LINE
  5
3CC
330
1F
100
AcDbEntity
  8
PATTERN_CLASS
  6
Continuous
 62
     3
100
AcDbLine
 10
7.411209451267041
 20
1.927508668082851
 30
0.0
 11
7.411209451267041
 21
1.927508668082851
 31
0.0
  0
LINE
  5
3CD
330
1F
100
AcDbEntity
  8
PATTERN_CLASS
  6
Continuous
 62
     3
100
AcDbLine
 10
6.049933740063921
 20
1.927508668082851
 30
0.0
 11
7.331209451267
 21
1.927508668082851
 31
0.0
  0
LINE
  5
3CE
330
1F
100
AcDbEntity
  8
PATTERN_CLASS
  6
Continuous
 62
     3
100
AcDbLine
 10
7.411209451267041
 20
1.934712005034726
 30
0.0
 11
7.411209451267041
 21
1.934712005034726
 31
0.0
  0
LINE
  5
3CF
330
1F
100
AcDbEntity
  8
PATTERN_CLASS
  6
Continuous
 62
     3
100
AcDbLine
 10
6.049933740063921
 20
1.934712005034726
 30
0.0
 11
7.331209451267
 21
1.934712005034726
 31
0.0
  0
LINE
  5
3D0
330
1F
100
AcDbEntity
  8
PATTERN_CLASS
  6
Continuous
 62
     3
100
AcDbLine
 10
3.589933740063884
 20
1.927508668082851
 30
0.0
 11
5.96993374006388
 21
1.927508668082851
 31
0.0
  0
LINE
  5
3D1
330
1F
100
AcDbEntity
  8
PATTERN_CLASS
  6
Continuous
 62
     3
100
AcDbLine
 10
3.589933740063884
 20
1.934712005034726
 30
0.0
 11
5.96993374006388
 21
1.934712005034726
 31
0.0
  0
LINE
  5
3D2
330
1F
100
AcDbEntity
  8
PATTERN_CLASS
  6
Continuous
 62
     5
100
AcDbLine
 10
1.324382715706747
 20
0.776239886108101
 30
0.0
 11
1.137382715706849
 21
0.9632398861079992
 31
0.0
  0
LWPOLYLINE
  5
3D3
330
1F
100
AcDbEntity
  8
Siatka
  6
Continuous
 62
     2
100
AcDbPolyline
 90
        4
 70
     1
 43
0.0
 10
7.409209451267088
 20
1.830357985457567
 10
7.333209451266953
 20
1.830357985457567
 10
7.333209451266953
 20
1.946357985457667
 10
7.409209451267088
 20
1.946357985457667
  0
LWPOLYLINE
  5
3D4
330
1F
100
AcDbEntity
  8
Siatka
  6
Continuous
 62
     1
100
AcDbPolyline
 90
        4
 70
     1
 43
0.0
 10
7.331209451267
 20
1.948357985457619
 10
7.411209451267041
 20
1.948357985457619
 10
7.411209451267041
 20
1.828357985457615
 10
7.331209451267
 20
1.828357985457615
  0
LWPOLYLINE
  5
3D5
330
1F
100
AcDbEntity
  8
Siatka
  6
Continuous
 62
     2
100
AcDbPolyline
 90
        4
 70
     1
 43
0.0
 10
6.047933740063968
 20
1.830357985457567
 10
5.971933740063832
 20
1.830357985457567
 10
5.971933740063832
 20
1.946357985457667
 10
6.047933740063968
 20
1.946357985457667
  0
LINE
  5
3D6
330
1F
100
AcDbEntity
  8
Siatka
  6
Continuous
 62
     5
100
AcDbLine
 10
6.049933740063921
 20
1.948357985457619
 30
0.0
 11
5.96993374006388
 21
1.828357985457615
 31
0.0
  0
LINE
  5
3D7
330
1F
100
AcDbEntity
  8
Siatka
  6
Continuous
 62
     5
100
AcDbLine
 10
5.96993374006388
 20
1.948357985457619
 30
0.0
 11
6.049933740063921
 21
1.828357985457615
 31
0.0
  0
LWPOLYLINE
  5
3D8
330
1F
100
AcDbEntity
  8
Siatka
  6
Continuous
 62
     1
100
AcDbPolyline
 90
        4
 70
     1
 43
0.0
 10
5.96993374006388
 20
1.948357985457619
 10
6.049933740063921
 20
1.948357985457619
 10
6.049933740063921
 20
1.828357985457615
 10
5.96993374006388
 20
1.828357985457615
  0
LWPOLYLINE
  5
3D9
330
1F
100
AcDbEntity
  8
Siatka
  6
Continuous
 62
     2
100
AcDbPolyline
 90
        4
 70
     1
 43
0.0
 10
3.587933740063932
 20
1.830357985457567
 10
3.511933740063796
 20
1.830357985457567
 10
3.511933740063796
 20
1.946357985457667
 10
3.587933740063932
 20
1.946357985457667
  0
LINE
  5
3DA
330
1F
100
AcDbEntity
  8
Siatka
  6
Continuous
 62
     5
100
AcDbLine
 10
3.589933740063884
 20
1.948357985457619
 30
0.0
 11
3.509933740063843
 21
1.828357985457615
 31
0.0
  0
LINE
  5
3DB
330
1F
100
AcDbEntity
  8
Siatka
  6
Continuous
 62
     5
100
AcDbLine
 10
3.509933740063843
 20
1.948357985457619
 30
0.0
 11
3.589933740063884
 21
1.828357985457615
 31
0.0
  0
LWPOLYLINE
  5
3DC
330
1F
100
AcDbEntity
  8
Siatka
  6
Continuous
 62
     1
100
AcDbPolyline
 90
        4
 70
     1
 43
0.0
 10
3.509933740063843
 20
1.948357985457619
 10
3.589933740063884
 20
1.948357985457619
 10
3.589933740063884
 20
1.828357985457615
 10
3.509933740063843
 20
1.828357985457615
  0
LWPOLYLINE
  5
3DD
330
1F
100
AcDbEntity
  8
Siatka
  6
Continuous
 62
     2
100
AcDbPolyline
 90
        4
 70
     1
 43
0.0
 10
1.420382715706978
 20
0.776239886108101
 10
1.420382715706978
 20
0.7002398861079655
 10
1.304382715706879
 20
0.7002398861079655
 10
1.304382715706879
 20
0.776239886108101
  0
LINE
  5
3DE
330
1F
100
AcDbEntity
  8
Siatka
  6
Continuous
 62
     5
100
AcDbLine
 10
1.302382715706926
 20
0.7782398861080537
 30
0.0
 11
1.422382715706931
 21
0.6982398861080128
 31
0.0
  0
LINE
  5
3DF
330
1F
100
AcDbEntity
  8
Siatka
  6
Continuous
 62
     5
100
AcDbLine
 10
1.302382715706926
 20
0.6982398861080128
 30
0.0
 11
1.422382715706931
 21
0.7782398861080537
 31
0.0
  0
LWPOLYLINE
  5
3E0
330
1F
100
AcDbEntity
  8
Siatka
  6
Continuous
 62
     1
100
AcDbPolyline
 90
        4
 70
     1
 43
0.0
 10
1.302382715706926
 20
0.6982398861080128
 10
1.302382715706926
 20
0.7782398861080537
 10
1.422382715706931
 20
0.7782398861080537
 10
1.422382715706931
 20
0.6982398861080128
  0
LINE
  5
3E1
330
1F
100
AcDbEntity
  8
PATTERN_CLASS
  6
Continuous
 62
     3
100
AcDbLine
 10
1.422382715706817
 20
2.643608405566624
 30
0.0
 11
2.465207769945778
 21
2.643608405566624
 31
0.0
  0
LINE
  5
3E2
330
1F
100
AcDbEntity
  8
PATTERN_CLASS
  6
GESTRICHELT
 62
     3
100
AcDbLine
 10
1.302382715706699
 20
2.643608405566624
 30
0.0
 11
1.422382715706817
 21
2.643608405566624
 31
0.0
  0
LINE
  5
3E3
330
1F
100
AcDbEntity
  8
PATTERN_CLASS
  6
GESTRICHELT
 62
     7
100
AcDbLine
 10
1.302382715706699
 20
2.743608405566647
 30
0.0
 11
1.422382715706817
 21
2.743608405566647
 31
0.0
  0
LWPOLYLINE
  5
3E4
330
1F
100
AcDbEntity
  8
PATTERN_CLASS
  6
Continuous
 62
     3
100
AcDbPolyline
 90
        4
 70
     0
 43
0.0
 10
1.302382715706699
 20
2.737492435274589
 10
0.2652077699458459
 20
2.737492435274589
 10
0.2652077699458459
 20
2.643608405566624
 10
1.302382715706699
 20
2.643608405566624
  0
LINE
  5
3E5
330
1F
100
AcDbEntity
  8
PATTERN_CLASS
  6
Continuous
 62
     7
100
AcDbLine
 10
0.0951639344262295
 20
2.743608405566647
 30
0.0
 11
1.302382715706699
 21
2.743608405566647
 31
0.0
  0
LINE
  5
3E6
330
1F
100
AcDbEntity
  8
PATTERN_CLASS
  6
GESTRICHELT
 62
     3
100
AcDbLine
 10
1.422382715706817
 20
2.737492435274589
 30
0.0
 11
1.302382715706699
 21
2.737492435274589
 31
0.0
  0
LINE
  5
3E7
330
1F
100
AcDbEntity
  8
PATTERN_CLASS
  6
Continuous
 62
     3
100
AcDbLine
 10
2.465207769945778
 20
2.737492435274589
 30
0.0
 11
1.422382715706817
 21
2.737492435274589
 31
0.0
  0
LINE
  5
3E8
330
1F
100
AcDbEntity
  8
PATTERN_CLASS
  6
Continuous
 62
     3
100
AcDbLine
 10
2.465207769945778
 20
2.737492435274589
 30
0.0
 11
2.465207769945778
 21
2.643608405566624
 31
0.0
  0
LINE
  5
3E9
330
1F
100
AcDbEntity
  8
PATTERN_CLASS
  6
Continuous
 62
     3
100
AcDbLine
 10
2.465207769945778
 20
2.737492435274589
 30
0.0
 11
2.465207769945778
 21
2.643608405566624
 31
0.0
  0
LINE
  5
3EA
330
1F
100
AcDbEntity
  8
PATTERN_CLASS
  6
Continuous
 62
     3
100
AcDbLine
 10
2.345207769945773
 20
2.737492435274589
 30
0.0
 11
2.345207769945773
 21
2.643608405566624
 31
0.0
  0
LINE
  5
3EB
330
1F
100
AcDbEntity
  8
PATTERN_CLASS
  6
Continuous
 62
     3
100
AcDbLine
 10
2.335207769945782
 20
2.737492435274589
 30
0.0
 11
2.335207769945782
 21
2.643608405566624
 31
0.0
  0
LINE
  5
3EC
330
1F
100
AcDbEntity
  8
PATTERN_CLASS
  6
Continuous
 62
     3
100
AcDbLine
 10
2.215207769945778
 20
2.737492435274589
 30
0.0
 11
2.215207769945778
 21
2.643608405566624
 31
0.0
  0
LINE
  5
3ED
330
1F
100
AcDbEntity
  8
PATTERN_CLASS
  6
Continuous
 62
     3
100
AcDbLine
 10
2.205207769945787
 20
2.737492435274589
 30
0.0
 11
2.205207769945787
 21
2.643608405566624
 31
0.0
  0
LINE
  5
3EE
330
1F
100
AcDbEntity
  8
PATTERN_CLASS
  6
Continuous
 62
     3
100
AcDbLine
 10
2.085207769945782
 20
2.737492435274589
 30
0.0
 11
2.085207769945782
 21
2.643608405566624
 31
0.0
  0
LINE
  5
3EF
330
1F
100
AcDbEntity
  8
PATTERN_CLASS
  6
Continuous
 62
     3
100
AcDbLine
 10
2.075207769945791
 20
2.737492435274589
 30
0.0
 11
2.075207769945791
 21
2.643608405566624
 31
0.0
  0
LINE
  5
3F0
330
1F
100
AcDbEntity
  8
PATTERN_CLASS
  6
Continuous
 62
     3
100
AcDbLine
 10
1.955207769945787
 20
2.737492435274589
 30
0.0
 11
1.955207769945787
 21
2.643608405566624
 31
0.0
  0
LINE
  5
3F1
330
1F
100
AcDbEntity
  8
PATTERN_CLASS
  6
Continuous
 62
     3
100
AcDbLine
 10
1.945207769945796
 20
2.737492435274589
 30
0.0
 11
1.945207769945796
 21
2.643608405566624
 31
0.0
  0
LINE
  5
3F2
330
1F
100
AcDbEntity
  8
PATTERN_CLASS
  6
Continuous
 62
     3
100
AcDbLine
 10
1.825207769945791
 20
2.737492435274589
 30
0.0
 11
1.825207769945791
 21
2.643608405566624
 31
0.0
  0
LINE
  5
3F3
330
1F
100
AcDbEntity
  8
PATTERN_CLASS
  6
Continuous
 62
     3
100
AcDbLine
 10
1.815207769945801
 20
2.737492435274589
 30
0.0
 11
1.815207769945801
 21
2.643608405566624
 31
0.0
  0
LINE
  5
3F4
330
1F
100
AcDbEntity
  8
PATTERN_CLASS
  6
Continuous
 62
     3
100
AcDbLine
 10
1.695207769945796
 20
2.737492435274589
 30
0.0
 11
1.695207769945796
 21
2.643608405566624
 31
0.0
  0
LINE
  5
3F5
330
1F
100
AcDbEntity
  8
PATTERN_CLASS
  6
Continuous
 62
     3
100
AcDbLine
 10
1.685207769945805
 20
2.737492435274589
 30
0.0
 11
1.685207769945805
 21
2.643608405566624
 31
0.0
  0
LINE
  5
3F6
330
1F
100
AcDbEntity
  8
PATTERN_CLASS
  6
Continuous
 62
     3
100
AcDbLine
 10
1.565207769945801
 20
2.737492435274589
 30
0.0
 11
1.565207769945801
 21
2.643608405566624
 31
0.0
  0
LINE
  5
3F7
330
1F
100
AcDbEntity
  8
PATTERN_CLASS
  6
Continuous
 62
     3
100
AcDbLine
 10
1.55520776994581
 20
2.737492435274589
 30
0.0
 11
1.55520776994581
 21
2.643608405566624
 31
0.0
  0
LINE
  5
3F8
330
1F
100
AcDbEntity
  8
PATTERN_CLASS
  6
Continuous
 62
     3
100
AcDbLine
 10
1.435207769945805
 20
2.737492435274589
 30
0.0
 11
1.435207769945805
 21
2.643608405566624
 31
0.0
  0
LINE
  5
3F9
330
1F
100
AcDbEntity
  8
PATTERN_CLASS
  6
Continuous
 62
     3
100
AcDbLine
 10
1.425207769945814
 20
2.737492435274589
 30
0.0
 11
1.425207769945814
 21
2.643608405566624
 31
0.0
  0
LINE
  5
3FA
330
1F
100
AcDbEntity
  8
PATTERN_CLASS
  6
Continuous
 62
     3
100
AcDbLine
 10
1.295207769945819
 20
2.737492435274589
 30
0.0
 11
1.295207769945819
 21
2.643608405566624
 31
0.0
  0
LINE
  5
3FB
330
1F
100
AcDbEntity
  8
PATTERN_CLASS
  6
Continuous
 62
     3
100
AcDbLine
 10
1.175207769945814
 20
2.737492435274589
 30
0.0
 11
1.175207769945814
 21
2.643608405566624
 31
0.0
  0
LINE
  5
3FC
330
1F
100
AcDbEntity
  8
PATTERN_CLASS
  6
Continuous
 62
     3
100
AcDbLine
 10
1.165207769945823
 20
2.737492435274589
 30
0.0
 11
1.165207769945823
 21
2.643608405566624
 31
0.0
  0
LINE
  5
3FD
330
1F
100
AcDbEntity
  8
PATTERN_CLASS
  6
Continuous
 62
     3
100
AcDbLine
 10
1.045207769945819
 20
2.737492435274589
 30
0.0
 11
1.045207769945819
 21
2.643608405566624
 31
0.0
  0
LINE
  5
3FE
330
1F
100
AcDbEntity
  8
PATTERN_CLASS
  6
Continuous
 62
     3
100
AcDbLine
 10
1.035207769945828
 20
2.737492435274589
 30
0.0
 11
1.035207769945828
 21
2.643608405566624
 31
0.0
  0
LINE
  5
3FF
330
1F
100
AcDbEntity
  8
PATTERN_CLASS
  6
Continuous
 62
     3
100
AcDbLine
 10
0.9152077699458232
 20
2.737492435274589
 30
0.0
 11
0.9152077699458232
 21
2.643608405566624
 31
0.0
  0
LINE
  5
400
330
1F
100
AcDbEntity
  8
PATTERN_CLASS
  6
Continuous
 62
     3
100
AcDbLine
 10
0.9052077699458323
 20
2.737492435274589
 30
0.0
 11
0.9052077699458323
 21
2.643608405566624
 31
0.0
  0
LINE
  5
401
330
1F
100
AcDbEntity
  8
PATTERN_CLASS
  6
Continuous
 62
     3
100
AcDbLine
 10
0.7852077699458278
 20
2.737492435274589
 30
0.0
 11
0.7852077699458278
 21
2.643608405566624
 31
0.0
  0
LINE
  5
402
330
1F
100
AcDbEntity
  8
PATTERN_CLASS
  6
Continuous
 62
     3
100
AcDbLine
 10
0.7752077699458368
 20
2.737492435274589
 30
0.0
 11
0.7752077699458368
 21
2.643608405566624
 31
0.0
  0
LINE
  5
403
330
1F
100
AcDbEntity
  8
PATTERN_CLASS
  6
Continuous
 62
     3
100
AcDbLine
 10
0.6552077699458323
 20
2.737492435274589
 30
0.0
 11
0.6552077699458323
 21
2.643608405566624
 31
0.0
  0
LINE
  5
404
330
1F
100
AcDbEntity
  8
PATTERN_CLASS
  6
Continuous
 62
     3
100
AcDbLine
 10
0.6452077699458414
 20
2.737492435274589
 30
0.0
 11
0.6452077699458414
 21
2.643608405566624
 31
0.0
  0
LINE
  5
405
330
1F
100
AcDbEntity
  8
PATTERN_CLASS
  6
Continuous
 62
     3
100
AcDbLine
 10
0.5252077699458368
 20
2.737492435274589
 30
0.0
 11
0.5252077699458368
 21
2.643608405566624
 31
0.0
  0
LINE
  5
406
330
1F
100
AcDbEntity
  8
PATTERN_CLASS
  6
Continuous
 62
     3
100
AcDbLine
 10
0.5152077699458459
 20
2.737492435274589
 30
0.0
 11
0.5152077699458459
 21
2.643608405566624
 31
0.0
  0
LINE
  5
407
330
1F
100
AcDbEntity
  8
PATTERN_CLASS
  6
Continuous
 62
     3
100
AcDbLine
 10
0.3952077699458414
 20
2.737492435274589
 30
0.0
 11
0.3952077699458414
 21
2.643608405566624
 31
0.0
  0
LINE
  5
408
330
1F
100
AcDbEntity
  8
PATTERN_CLASS
  6
Continuous
 62
     3
100
AcDbLine
 10
0.3852077699458505
 20
2.737492435274589
 30
0.0
 11
0.3852077699458505
 21
2.643608405566624
 31
0.0
  0
LINE
  5
409
330
1F
100
AcDbEntity
  8
PATTERN_CLASS
  6
Continuous
 62
     5
100
AcDbLine
 10
2.758193547370297
 20
2.233591362199149
 30
0.0
 11
2.758193547370297
 21
2.737492435274589
 31
0.0
  0
LWPOLYLINE
  5
40A
330
1F
100
AcDbEntity
  8
PATTERN_CLASS
  6
Continuous
 62
     5
100
AcDbPolyline
 90
        8
 70
     0
 43
0.0
 10
0.0951639344262295
 20
2.233591362199149
 10
0.6713964452742403
 20
2.233591362199149
 10
0.7760186016095076
 20
2.06013726741719
 10
0.7760186016095076
 20
1.243608405566761
 10
1.987382715706758
 20
1.243608405566761
 10
1.987382715706758
 20
2.124192079993236
 10
2.053368986139276
 20
2.233591362199149
 10
2.758193547370297
 20
2.233591362199149
  0
LWPOLYLINE
  5
40B
330
1F
100
AcDbEntity
  8
PATTERN_CLASS
  6
Continuous
 62
     5
100
AcDbPolyline
 90
        6
 70
     0
 43
0.0
 10
2.465207769945778
 20
2.643608405566624
 10
2.46544075057875
 20
2.533591362199104
 10
1.88397251247352
 20
2.533591362199104
 10
1.648746829804054
 20
2.143608405566738
 10
1.648746829804054
 20
1.993608405566874
 10
1.598746829804099
 20
1.993608405566874
  0
LWPOLYLINE
  5
40C
330
1F
100
AcDbEntity
  8
PATTERN_CLASS
  6
Continuous
 62
     5
100
AcDbPolyline
 90
        6
 70
     0
 43
0.0
 10
0.2652077699458459
 20
2.643608405566624
 10
0.2652077699458459
 20
2.533591362199104
 10
0.8407929189399965
 20
2.533591362199104
 10
1.076018601609462
 20
2.143608405566738
 10
1.076018601609462
 20
1.993608405566874
 10
1.126018601609417
 20
1.993608405566874
  0
LWPOLYLINE
  5
40D
330
1F
100
AcDbEntity
  8
PATTERN_CLASS
  6
GESTRICHELT
 62
    16
100
AcDbPolyline
 90
        3
 70
     0
 43
0.0
 10
6.167933740063859
 20
4.963608405566674
 10
7.211209451266996
 20
3.908608405566724
 10
6.17475472382182
 20
2.923608405566711
  0
LINE
  5
40E
330
1F
100
AcDbEntity
  8
PATTERN_CLASS
  6
GESTRICHELT
 62
    17
100
AcDbLine
 10
3.589933740063771
 20
2.84360840556667
 30
0.0
 11
5.96993374006388
 21
2.84360840556667
 31
0.0
  0
LINE
  5
40F
330
1F
100
AcDbEntity
  8
PATTERN_CLASS
  6
Continuous
 62
     1
100
AcDbLine
 10
7.331209451267
 20
2.743608405566647
 30
0.0
 11
7.331209451267
 21
5.163608405566606
 31
0.0
  0
LINE
  5
410
330
1F
100
AcDbEntity
  8
PATTERN_CLASS
  6
Continuous
 62
     1
100
AcDbLine
 10
6.049933740063807
 20
5.163608405566606
 30
0.0
 11
6.049933740063807
 21
2.743608405566647
 31
0.0
  0
LINE
  5
411
330
1F
100
AcDbEntity
  8
PATTERN_CLASS
  6
Continuous
 62
     1
100
AcDbLine
 10
6.049933740063807
 20
5.243608405566647
 30
0.0
 11
7.331209451267
 21
5.243608405566647
 31
0.0
  0
LINE
  5
412
330
1F
100
AcDbEntity
  8
PATTERN_CLASS
  6
Continuous
 62
     5
100
AcDbLine
 10
1.362382715706872
 20
0.7382398861079764
 30
0.0
 11
1.137382715706849
 21
0.5132398861079537
 31
0.0
  0
LINE
  5
413
330
1F
100
AcDbEntity
  8
PATTERN_CLASS
  6
GESTRICHELT
 62
     8
100
AcDbLine
 10
6.009933740063843
 20
7.107640515222442
 30
0.0
 11
6.009933740063843
 21
2.085291140949835
 31
0.0
  0
LWPOLYLINE
  5
414
330
1F
100
AcDbEntity
  8
PATTERN_CLASS
  6
Continuous
 62
     1
100
AcDbPolyline
 90
        4
 70
     1
 43
0.0
 10
5.979933740063871
 20
3.280170515999544
 10
6.102019627574123
 20
3.280170515999544
 10
6.102019627574123
 20
3.249820062062554
 10
5.979933740063871
 20
3.249820062062554
  0
LWPOLYLINE
  5
415
330
1F
100
AcDbEntity
  8
PATTERN_CLASS
  6
Continuous
 62
     1
100
AcDbPolyline
 90
        4
 70
     1
 43
0.0
 10
5.979933740063871
 20
4.54979488319475
 10
6.102019627574123
 20
4.54979488319475
 10
6.102019627574123
 20
4.51944442925776
 10
5.979933740063871
 20
4.51944442925776
  0
LINE
  5
416
330
1F
100
AcDbEntity
  8
PATTERN_CLASS
  6
Continuous
 62
     1
100
AcDbLine
 10
6.049933740063807
 20
5.163608405566606
 30
0.0
 11
7.331209451267
 21
5.163608405566606
 31
0.0
  0
LWPOLYLINE
  5
417
330
1F
100
AcDbEntity
  8
PATTERN_CLASS
  6
Continuous
 62
     1
100
AcDbPolyline
 90
        4
 70
     0
 43
0.0
 10
5.96993374006388
 20
2.743608405566647
 10
5.96993374006388
 20
6.943608405566693
 10
6.049933740063807
 20
6.943608405566693
 10
6.049933740063807
 20
5.163608405566606
  0
LWPOLYLINE
  5
418
330
1F
100
AcDbEntity
  8
PATTERN_CLASS
  6
Continuous
 62
     1
100
AcDbPolyline
 90
        4
 70
     0
 43
0.0
 10
3.509933740063843
 20
2.743608405566647
 10
3.509933740063843
 20
6.943608405566693
 10
3.589933740063771
 20
6.943608405566693
 10
3.589933740063771
 20
2.743608405566647
  0
LINE
  5
419
330
1F
100
AcDbEntity
  8
PATTERN_CLASS
  6
GESTRICHELT
 62
    16
100
AcDbLine
 10
7.371209451266964
 20
2.743608405566647
 30
0.0
 11
7.371209451266964
 21
7.107640515222442
 31
0.0
  0
LWPOLYLINE
  5
41A
330
1F
100
AcDbEntity
  8
PATTERN_CLASS
  6
GESTRICHELT
 62
     5
100
AcDbPolyline
 90
        4
 70
     1
 43
0.0
 10
2.442181615880372
 20
2.832502449903473
 10
4.560874310106328
 20
2.832502449903473
 10
4.560874310106328
 20
1.29949978595107
 10
2.442181615880372
 20
1.29949978595107
  0
LWPOLYLINE
  5
41B
330
1F
100
AcDbEntity
  8
PATTERN_CLASS
  6
GESTRICHELT
 62
    18
100
AcDbPolyline
 90
        4
 70
     1
 43
0.0
 10
3.199933740063784
 20
2.238357985457697
 10
3.89993374006383
 20
2.238357985457697
 10
3.89993374006383
 20
1.538357985457651
 10
3.199933740063784
 20
1.538357985457651
  0
LINE
  5
41C
330
1F
100
AcDbEntity
  8
PATTERN_CLASS
  6
Continuous
 62
     5
100
AcDbLine
 10
3.77493374006383
 20
1.663357985457651
 30
0.0
 11
3.324933740063784
 21
2.113357985457697
 31
0.0
  0
LINE
  5
41D
330
1F
100
AcDbEntity
  8
PATTERN_CLASS
  6
Continuous
 62
     5
100
AcDbLine
 10
3.324933740063784
 20
1.663357985457651
 30
0.0
 11
3.77493374006383
 21
2.113357985457697
 31
0.0
  0
LWPOLYLINE
  5
41E
330
1F
100
AcDbEntity
  8
PATTERN_CLASS
  6
Continuous
 62
     3
100
AcDbPolyline
 90
        4
 70
     1
 43
0.0
 10
3.324933740063784
 20
1.663357985457651
 10
3.324933740063784
 20
2.113357985457697
 10
3.77493374006383
 20
2.113357985457697
 10
3.77493374006383
 20
1.663357985457651
  0
LINE
  5
41F
330
1F
100
AcDbEntity
  8
PATTERN_CLASS
  6
GESTRICHELT
 62
    16
100
AcDbLine
 10
7.371209451266964
 20
1.29949978595107
 30
0.0
 11
7.371209451266964
 21
2.832502449903473
 31
0.0
  0
LWPOLYLINE
  5
420
330
1F
100
AcDbEntity
  8
PATTERN_CLASS
  6
GESTRICHELT
 62
    18
100
AcDbPolyline
 90
        4
 70
     1
 43
0.0
 10
7.021209451266941
 20
2.238357985457697
 10
7.721209451266986
 20
2.238357985457697
 10
7.721209451266986
 20
1.538357985457651
 10
7.021209451266941
 20
1.538357985457651
  0
LINE
  5
421
330
1F
100
AcDbEntity
  8
PATTERN_CLASS
  6
Continuous
 62
     5
100
AcDbLine
 10
7.596209451266986
 20
1.663357985457651
 30
0.0
 11
7.146209451266941
 21
2.113357985457697
 31
0.0
  0
LINE
  5
422
330
1F
100
AcDbEntity
  8
PATTERN_CLASS
  6
Continuous
 62
     5
100
AcDbLine
 10
7.146209451266941
 20
1.663357985457651
 30
0.0
 11
7.596209451266986
 21
2.113357985457697
 31
0.0
  0
LWPOLYLINE
  5
423
330
1F
100
AcDbEntity
  8
PATTERN_CLASS
  6
Continuous
 62
     3
100
AcDbPolyline
 90
        4
 70
     1
 43
0.0
 10
7.146209451266941
 20
1.663357985457651
 10
7.146209451266941
 20
2.113357985457697
 10
7.596209451266986
 20
2.113357985457697
 10
7.596209451266986
 20
1.663357985457651
  0
LINE
  5
424
330
1F
100
AcDbEntity
  8
PATTERN_CLASS
  6
GESTRICHELT
 62
    16
100
AcDbLine
 10
3.549933740063807
 20
1.660069495153152
 30
0.0
 11
3.549933740063807
 21
7.107640515222442
 31
0.0
  0
LWPOLYLINE
  5
425
330
1F
100
AcDbEntity
  8
PATTERN_CLASS
  6
Continuous
 62
     5
100
AcDbPolyline
 90
        3
 70
     0
 43
0.0
 10
0.1394028319743939
 20
-0.448363186025591
 10
0.1394028319743939
 20
7.098792735712777
 10
4.147693517017501
 20
7.098792735712777
  0
LINE
  5
426
330
1F
100
AcDbEntity
  8
PATTERN_CLASS
  6
GESTRICHELT
 62
    16
100
AcDbLine
 10
6.009933740063843
 20
1.29949978595107
 30
0.0
 11
6.009933740063843
 21
2.832502449903473
 31
0.0
  0
LWPOLYLINE
  5
427
330
1F
100
AcDbEntity
  8
PATTERN_CLASS
  6
GESTRICHELT
 62
     5
100
AcDbPolyline
 90
        4
 70
     1
 43
0.0
 10
5.244109695561519
 20
2.832502449903473
 10
8.186174099272307
 20
2.832502449903473
 10
8.186174099272307
 20
1.29949978595107
 10
5.244109695561519
 20
1.29949978595107
  0
LWPOLYLINE
  5
428
330
1F
100
AcDbEntity
  8
PATTERN_CLASS
  6
GESTRICHELT
 62
    18
100
AcDbPolyline
 90
        4
 70
     1
 43
0.0
 10
5.659933740063821
 20
2.238357985457697
 10
6.359933740063866
 20
2.238357985457697
 10
6.359933740063866
 20
1.538357985457651
 10
5.659933740063821
 20
1.538357985457651
  0
LINE
  5
429
330
1F
100
AcDbEntity
  8
PATTERN_CLASS
  6
Continuous
 62
     5
100
AcDbLine
 10
6.214933740063884
 20
1.663357985457651
 30
0.0
 11
5.804933740063802
 21
2.113357985457697
 31
0.0
  0
LINE
  5
42A
330
1F
100
AcDbEntity
  8
PATTERN_CLASS
  6
Continuous
 62
     5
100
AcDbLine
 10
5.804933740063802
 20
1.663357985457651
 30
0.0
 11
6.214933740063884
 21
2.113357985457697
 31
0.0
  0
LINE
  5
42B
330
1F
100
AcDbEntity
  8
PATTERN_CLASS
  6
GESTRICHELT
 62
    16
100
AcDbLine
 10
1.362382715706758
 20
-0.4260483306248943
 30
0.0
 11
1.362382715706758
 21
1.682384350553889
 31
0.0
  0
LWPOLYLINE
  5
42C
330
1F
100
AcDbEntity
  8
PATTERN_CLASS
  6
GESTRICHELT
 62
    18
100
AcDbPolyline
 90
        4
 70
     1
 43
0.0
 10
1.012382715706849
 20
0.3882398861079537
 10
1.012382715706849
 20
1.088239886107999
 10
1.712382715706895
 20
1.088239886107999
 10
1.712382715706895
 20
0.3882398861079537
  0
LWPOLYLINE
  5
42D
330
1F
100
AcDbEntity
  8
PATTERN_CLASS
  6
Continuous
 62
     3
100
AcDbPolyline
 90
        4
 70
     1
 43
0.0
 10
1.587382715706895
 20
0.5132398861079537
 10
1.137382715706849
 20
0.5132398861079537
 10
1.137382715706849
 20
0.9632398861079992
 10
1.587382715706895
 20
0.9632398861079992
  0
LWPOLYLINE
  5
42E
330
1F
100
AcDbEntity
  8
PATTERN_CLASS
  6
Continuous
 62
     1
100
AcDbPolyline
 90
        8
 70
     0
 43
0.0
 10
1.137382715706735
 20
1.843608405566783
 10
1.012382715706735
 20
1.843608405566783
 10
1.012382715706735
 20
1.543608405566715
 10
1.587382715706781
 20
1.543608405566715
 10
1.712382715706781
 20
1.543608405566715
 10
1.712382715706781
 20
1.693608405566693
 10
1.712382715706781
 20
1.843608405566783
 10
1.587382715706781
 20
1.843608405566783
  0
LINE
  5
42F
330
1F
100
AcDbEntity
  8
PATTERN_CLASS
  6
Continuous
 62
     2
100
AcDbLine
 10
1.74129717565637
 20
4.119353319420805
 30
0.0
 11
1.397668676890328
 21
4.162821954330917
 31
0.0
  0
TEXT
  5
430
330
1F
100
AcDbEntity
  8
PATTERN_CLASS
 62
     2
100
AcDbText
 10
1.779347201725422
 20
4.046759059674756
 30
0.0
 40
0.0597857142857142
  1
o oczku 50 x 200 mm,  drut - o 5 mm 
  7
STIL17
100
AcDbText
  0
LWPOLYLINE
  5
431
330
1F
100
AcDbEntity
  8
PATTERN_CLASS
  6
Continuous
 62
     2
100
AcDbPolyline
 90
        3
 70
     0
 43
0.0
 10
3.119516215849672
 20
4.119353319420805
 10
1.906642188379822
 20
4.119353319420805
 10
1.74129717565637
 20
4.119353319420805
  0
TEXT
  5
432
330
1F
100
AcDbEntity
  8
PATTERN_CLASS
 62
     2
100
AcDbText
 10
1.779347201725422
 20
4.14410159716026
 30
0.0
 40
0.0597857142857142
  1
Siatka zgrzewana  ocynkowana
  7
STIL17
100
AcDbText
  0
LWPOLYLINE
  5
433
330
1F
100
AcDbEntity
  8
PATTERN_CLASS
  6
Continuous
 62
     2
100
AcDbPolyline
 90
        3
 70
     0
 43
0.0
 10
2.635827290950847
 20
2.021771566030567
 10
2.165147622920742
 20
2.021771566030567
 10
1.677065222756665
 20
1.648490503430612
  0
TEXT
  5
434
330
1F
100
AcDbEntity
  8
PATTERN_CLASS
 62
     2
100
AcDbText
 10
2.182216196896897
 20
2.050588130878023
 30
0.0
 40
0.0597857142857142
  1
Beton B-20
  7
STIL17
100
AcDbText
  0
LWPOLYLINE
  5
435
330
1F
100
AcDbEntity
  8
PATTERN_CLASS
  6
Continuous
 62
     2
100
AcDbPolyline
 90
        3
 70
     0
 43
0.0
 10
0.139118253263513
 20
3.719000006618931
 10
0.139118253263513
 20
2.941191443887706
 10
1.400896588360834
 20
1.827881154910903
  0
TEXT
  5
436
330
1F
100
AcDbEntity
  8
PATTERN_CLASS
 62
     2
100
AcDbText
 10
0.1152231627971424
 20
2.966603451174109
 30
0.0
 40
0.0664285714285714
  1
Zakotwienie Rury 
 50
90.0
  7
STIL17
100
AcDbText
  0
LWPOLYLINE
  5
437
330
1F
100
AcDbEntity
  8
PATTERN_CLASS
  6
Continuous
 62
     2
100
AcDbPolyline
 90
        3
 70
     0
 43
0.0
 10
2.780495854400119
 20
6.822115829314464
 10
1.737525748991711
 20
6.822115829314464
 10
1.39382768692482
 20
6.822115829314464
  0
TEXT
  5
438
330
1F
100
AcDbEntity
  8
PATTERN_CLASS
 62
     2
100
AcDbText
 10
1.684669441430783
 20
6.755956842030216
 30
0.0
 40
0.0597857142857142
  1
o wymiarach 12 x 8  cm, 
  7
STIL17
100
AcDbText
  0
TEXT
  5
439
330
1F
100
AcDbEntity
  8
PATTERN_CLASS
 62
     2
100
AcDbText
 10
1.684669441430783
 20
6.85378092125353
 30
0.0
 40
0.0597857142857142
  1
Profil stalowy zimnogi\U+0119ty 
  7
STIL17
100
AcDbText
  0
ENDSEC
  0
SECTION
  2
OBJECTS
  0
DICTIONARY
  5
C
330
0
100
AcDbDictionary
281
     1
  3
ACAD_GROUP
350
D
  3
ACAD_LAYOUT
350
1A
  3
ACAD_MLINESTYLE
350
17
  3
ACAD_PLOTSETTINGS
350
19
  3
ACAD_PLOTSTYLENAME
350
E
  0
DICTIONARY
  5
D
102
{ACAD_REACTORS
330
C
102
}
330
C
100
AcDbDictionary
281
     1
  0
DICTIONARY
  5
1A
102
{ACAD_REACTORS
330
C
102
}
330
C
100
AcDbDictionary
281
     1
  3
Layout1
350
1E
  3
Layout2
350
26
  3
Model
350
22
  0
DICTIONARY
  5
17
102
{ACAD_REACTORS
330
C
102
}
330
C
100
AcDbDictionary
281
     1
  3
Standard
350
18
  0
DICTIONARY
  5
19
102
{ACAD_REACTORS
330
C
102
}
330
C
100
AcDbDictionary
281
     1
  0
ACDBDICTIONARYWDFLT
  5
E
102
{ACAD_REACTORS
330
C
102
}
330
C
100
AcDbDictionary
281
     1
  3
Normal
350
F
100
AcDbDictionaryWithDefault
340
F
  0
LAYOUT
  5
1E
102
{ACAD_REACTORS
330
1A
102
}
330
1A
100
AcDbPlotSettings
  1

  2

  4

  6

 40
0.0
 41
0.0
 42
0.0
 43
0.0
 44
0.0
 45
0.0
 46
0.0
 47
0.0
 48
0.0
 49
0.0
140
0.0
141
0.0
142
1.0
143
1.0
 70
   688
 72
     0
 73
     0
 74
     5
  7

 75
    16
147
1.0
148
0.0
149
0.0
100
AcDbLayout
  1
Layout1
 70
     1
 71
     1
 10
0.0
 20
0.0
 11
0.0
 21
0.0
 12
0.0
 22
0.0
 32
0.0
 14
0.0
 24
0.0
 34
0.0
 15
0.0
 25
0.0
 35
0.0
146
0.0
 13
0.0
 23
0.0
 33
0.0
 16
1.0
 26
0.0
 36
0.0
 17
0.0
 27
1.0
 37
0.0
 76
     0
330
1B
  0
LAYOUT
  5
26
102
{ACAD_REACTORS
330
1A
102
}
330
1A
100
AcDbPlotSettings
  1

  2

  4

  6

 40
0.0
 41
0.0
 42
0.0
 43
0.0
 44
0.0
 45
0.0
 46
0.0
 47
0.0
 48
0.0
 49
0.0
140
0.0
141
0.0
142
1.0
143
1.0
 70
   688
 72
     0
 73
     0
 74
     5
  7

 75
    16
147
1.0
148
0.0
149
0.0
100
AcDbLayout
  1
Layout2
 70
     1
 71
     2
 10
0.0
 20
0.0
 11
0.0
 21
0.0
 12
0.0
 22
0.0
 32
0.0
 14
0.0
 24
0.0
 34
0.0
 15
0.0
 25
0.0
 35
0.0
146
0.0
 13
0.0
 23
0.0
 33
0.0
 16
1.0
 26
0.0
 36
0.0
 17
0.0
 27
1.0
 37
0.0
 76
     0
330
23
  0
LAYOUT
  5
22
102
{ACAD_REACTORS
330
1A
102
}
330
1A
100
AcDbPlotSettings
  1

  2

  4
ISO A3 29,7 x 42 cm
  6

 40
0.0
 41
0.0
 42
0.0
 43
0.0
 44
840.0
 45
600.0
 46
0.0
 47
0.0
 48
0.0
 49
0.0
140
0.0
141
0.0
142
40.0
143
1.0
 70
  1696
 72
     1
 73
     0
 74
     0
  7
10Boisko DWG.ctb
 75
     0
147
1.0
148
0.0
149
0.0
100
AcDbLayout
  1
Model
 70
     1
 71
     0
 10
-0.3
 20
-0.125
 11
10.2
 21
7.3
 12
0.0
 22
0.0
 32
0.0
 14
0.0453368479108276
 24
-0.448363186025591
 34
0.0
 15
10.28074102386156
 25
7.107640515222442
 35
0.0
146
0.0
 13
0.0
 23
0.0
 33
0.0
 16
1.0
 26
0.0
 36
0.0
 17
0.0
 27
1.0
 37
0.0
 76
     0
330
1F
  0
MLINESTYLE
  5
18
102
{ACAD_REACTORS
330
17
102
}
330
17
100
AcDbMlineStyle
  2
Standard
 70
     0
  3

 62
   256
 51
90.0
 52
90.0
 71
     2
 49
0.5
 62
   256
  6
BYLAYER
 49
-0.5
 62
   256
  6
BYLAYER
  0
ACDBPLACEHOLDER
  5
F
102
{ACAD_REACTORS
330
E
102
}
330
E
  0
ENDSEC
  0
EOF
