  0
SECTION
  2
HEADER
  9
$ACADVER
  1
AC1004
  9
$EXTMIN
 10
0.0
 20
0.0
  9
$EXTMAX
 10
500.000000000000000
 20
270.000000000000000
  9
$LIMMIN
 10
0.0
 20
0.0
  9
$LIMMAX
 10
500.000000000000000
 20
270.000000000000000
  9
$CLAYER
  8
PT3-Grafika_wekt5
  0
ENDSEC
  0
SECTION
  2
TABLES
  0
TABLE
  2
LTYPE
 70
11
  0
LTYPE
  2
CONTINUOUS
 70
     0
  3
Solid line
 72
    65
 73
     0
 40
     0.0
  0
LTYPE
  2
GESTRICHELT
 70
     0
  3
__ __ __ __ __ __ __ __ __ __ __ __ __ __ __
 72
    65
 73
     2
 40
     0.75
 49
0.5
 49
-0.25
  0
LTYPE
  2
VERDECKT
 70
     0
  3
_ _ _ _ _ _ _ _ _ _ _ _ _ _ _ _ _ _ _ _ _ _
 72
    65
 73
     2
 40
     0.25
 49
0.125
 49
-0.125
  0
LTYPE
  2
MITTELLINIE
 70
     0
  3
____ _ ____ _ ____ _ ____ _ ____ _ ____ _ __
 72
    65
 73
     4
 40
     2.0
 49
1.25
 49
-0.25
 49
0.25
 49
-0.25
  0
LTYPE
  2
PHANTOM
 70
     0
  3
_____ _ _ _____ _ _ _____ _ _ _____ _ _ ____
 72
    65
 73
     6
 40
     2.5
 49
1.25
 49
-0.25
 49
0.25
 49
-0.25
 49
0.25
 49
-0.25
  0
LTYPE
  2
PUNKTIERT
 70
     0
  3
............................................
 72
    65
 73
     2
 40
     0.25
 49
0.0
 49
-0.25
  0
LTYPE
  2
STRICHPUNKTIERT
 70
     0
  3
__ . __ . __ . __ . __ . __ . __ . __ . __ .
 72
    65
 73
     4
 40
     1.0
 49
0.5
 49
-0.25
 49
0.0
 49
-0.25
  0
LTYPE
  2
RAND
 70
     0
  3
__ __ . __ __ . __ __ . __ __ . __ __ . __ _
 72
    65
 73
     6
 40
     1.75
 49
0.5
 49
-0.25
 49
0.5
 49
-0.25
 49
0.0
 49
-0.25
  0
LTYPE
  2
TRENNLINIE
 70
     0
  3
__ . . __ . . __ . . __ . . __ . . __ . . __
 72
    65
 73
     6
 40
     1.25
 49
0.5
 49
-0.25
 49
0.0
 49
-0.25
 49
0.0
 49
-0.25
  0
LTYPE
  2
ENG_PUNKTIERT
 70
     0
  3
Schließen
 72
    65
 73
     2
 40
     0.1
 49
0.05
 49
-0.05
  0
LTYPE
  2
CLOSE
 70
     0
  3

 72
    65
 73
     0
 40
     0.0
  0
ENDTAB
  0
TABLE
  2
LAYER
 70
   5
  0
LAYER
  2
PT1-Tabelka_rysu1
 70
     0
 62
     7
  6
CONTINUOUS
  0
LAYER
  2
PT2-Teren2
 70
     0
 62
     7
  6
CONTINUOUS
  0
LAYER
  2
PT2-Urządzenia_z3
 70
     0
 62
     7
  6
CONTINUOUS
  0
LAYER
  2
PT2-Tabelka_rysu4
 70
     0
 62
     7
  6
CONTINUOUS
  0
LAYER
  2
PT3-Grafika_wekt5
 70
     0
 62
     7
  6
CONTINUOUS
  0
ENDTAB
  0
TABLE
  2
STYLE
 70
    1
  0
STYLE
  2
STANDARD
 70
    0
 40
0.0
 41
1.0
 50
0.0
71
     0
 42
0.2
  3
txt
  4

  0
ENDTAB
  0
ENDSEC
  0
SECTION
  2
ENTITIES
  0
POLYLINE
  8
PT1-Tabelka_rysu1
  6
CONTINUOUS
 62
     7
 66
     1
 70
     1
  0
VERTEX
  8
PT1-Tabelka_rysu1
 10
473.9229
 20
8.835600000000000
  0
VERTEX
  8
PT1-Tabelka_rysu1
 10
474.9812
 20
8.835600000000000
  0
VERTEX
  8
PT1-Tabelka_rysu1
 10
474.9812
 20
69.866199999999992
  0
VERTEX
  8
PT1-Tabelka_rysu1
 10
473.9229
 20
69.866199999999992
  0
SEQEND
  8
PT1-Tabelka_rysu1
  0
LINE
  8
PT1-Tabelka_rysu1
  6
CONTINUOUS
 62
     7
 10
473.9229
 20
9.893899999999974
 11
473.9229
 21
70.924499999999995
  0
LINE
  8
PT1-Tabelka_rysu1
  6
CONTINUOUS
 62
     7
 10
473.9229
 20
70.924499999999995
 11
401.9562
 21
70.924499999999995
  0
LINE
  8
PT1-Tabelka_rysu1
  6
CONTINUOUS
 62
     7
 10
401.9562
 20
9.893899999999974
 11
401.9562
 21
70.924499999999995
  0
POLYLINE
  8
PT1-Tabelka_rysu1
  6
CONTINUOUS
 62
     7
 66
     1
 70
     1
  0
VERTEX
  8
PT1-Tabelka_rysu1
 10
402.8647
 20
8.906499999999994
  0
VERTEX
  8
PT1-Tabelka_rysu1
 10
474.8314
 20
8.906499999999994
  0
VERTEX
  8
PT1-Tabelka_rysu1
 10
474.8314
 20
9.964800000000025
  0
VERTEX
  8
PT1-Tabelka_rysu1
 10
402.8647
 20
9.964800000000025
  0
SEQEND
  8
PT1-Tabelka_rysu1
  0
LINE
  8
PT1-Tabelka_rysu1
  6
CONTINUOUS
 62
     7
 10
401.8064
 20
9.964699999999994
 11
473.7731
 21
9.964699999999994
  0
LINE
  8
PT1-Tabelka_rysu1
  6
CONTINUOUS
 62
     7
 10
402.5119
 20
10.670299999999997
 11
473.0675
 21
10.670299999999997
  0
LINE
  8
PT1-Tabelka_rysu1
  6
CONTINUOUS
 62
     7
 10
473.0675
 20
10.670299999999997
 11
473.0675
 21
55.825899999999990
  0
LINE
  8
PT1-Tabelka_rysu1
  6
CONTINUOUS
 62
     7
 10
473.0675
 20
55.825899999999990
 11
402.5119
 21
55.825899999999990
  0
LINE
  8
PT1-Tabelka_rysu1
  6
CONTINUOUS
 62
     7
 10
402.5119
 20
10.670299999999997
 11
402.5119
 21
55.825899999999990
  0
LINE
  8
PT1-Tabelka_rysu1
  6
CONTINUOUS
 62
     7
 10
402.5119
 20
27.603700000000003
 11
473.0675
 21
27.603700000000003
  0
TEXT
  8
PT1-Tabelka_rysu1
  6
CONTINUOUS
 62
     7
 10
403.217499999999970
 20
25.453300000000013
 40
1.797600000000000
  1
Skala:
  0
TEXT
  8
PT1-Tabelka_rysu1
  6
CONTINUOUS
 62
     7
 10
403.217499999999970
 20
25.453300000000013
 40
1.797600000000000
  1
1 : 100
  0
LINE
  8
PT1-Tabelka_rysu1
  6
CONTINUOUS
 62
     7
 10
425.7953
 20
27.603700000000003
 11
425.7953
 21
24.075899999999990
  0
TEXT
  8
PT1-Tabelka_rysu1
  6
CONTINUOUS
 62
     7
 10
426.500800000000030
 20
25.453300000000013
 40
1.797600000000000
  1
Data:
  0
TEXT
  8
PT1-Tabelka_rysu1
  6
CONTINUOUS
 62
     7
 10
426.500800000000030
 20
25.453300000000013
 40
1.797600000000000
  1
07.2004
  0
LINE
  8
PT1-Tabelka_rysu1
  6
CONTINUOUS
 62
     7
 10
449.0786
 20
27.603700000000003
 11
449.0786
 21
24.075899999999990
  0
TEXT
  8
PT1-Tabelka_rysu1
  6
CONTINUOUS
 62
     7
 10
450.083800000000000
 20
25.453300000000013
 40
1.797600000000000
  1
14-P-04/A
  0
LINE
  8
PT1-Tabelka_rysu1
  6
CONTINUOUS
 62
     7
 10
402.5119
 20
31.131400000000014
 11
473.0675
 21
31.131400000000014
  0
TEXT
  8
PT1-Tabelka_rysu1
  6
CONTINUOUS
 62
     7
 10
403.217499999999970
 20
28.981099999999998
 40
1.797600000000000
  1
Branża:  architektoniczna
  0
TEXT
  8
PT1-Tabelka_rysu1
  6
CONTINUOUS
 62
     7
 10
403.217499999999970
 20
53.322699999999998
 40
1.797600000000000
  1
Projekt: Rozbudowa Szkoły Podstawowej i Gimnazjum
  0
TEXT
  8
PT1-Tabelka_rysu1
  6
CONTINUOUS
 62
     7
 10
403.217499999999970
 20
50.626299999999986
 40
1.797600000000000
  1
              w Rzerzęczycach
  0
LINE
  8
PT1-Tabelka_rysu1
  6
CONTINUOUS
 62
     7
 10
402.5119
 20
47.711999999999989
 11
473.0675
 21
47.711999999999989
  0
TEXT
  8
PT1-Tabelka_rysu1
  6
CONTINUOUS
 62
     7
 10
403.367300000000000
 20
45.208800000000025
 40
1.797600000000000
  1
Inwestor: Urząd Gminy w Kłomnicach
  0
TEXT
  8
PT1-Tabelka_rysu1
  6
CONTINUOUS
 62
     7
 10
403.367300000000000
 20
42.512400000000014
 40
1.797600000000000
  1
                ul. Strażacka 20, 42-270 Kłomnice
  0
LINE
  8
PT1-Tabelka_rysu1
  6
CONTINUOUS
 62
     7
 10
402.5119
 20
39.598099999999988
 11
473.0675
 21
39.598099999999988
  0
TEXT
  8
PT1-Tabelka_rysu1
  6
CONTINUOUS
 62
     7
 10
403.217499999999970
 20
37.684500000000014
 40
1.797600000000000
  1
Projektował: Beata Król-Stroba UAB-VIII/83861/102/90
  0
TEXT
  8
PT1-Tabelka_rysu1
  6
CONTINUOUS
 62
     7
 10
414.859100000000010
 20
53.322699999999998
 40
1.797600000000000
  1

  0
TEXT
  8
PT1-Tabelka_rysu1
  6
CONTINUOUS
 62
     7
 10
414.859100000000010
 20
41.681100000000015
 40
1.797600000000000
  1
 
  0
LINE
  8
PT1-Tabelka_rysu1
  6
CONTINUOUS
 62
     7
 10
402.5119
 20
24.075899999999990
 11
473.0675
 21
24.075899999999990
  0
TEXT
  8
PT1-Tabelka_rysu1
  6
CONTINUOUS
 62
     7
 10
403.217499999999970
 20
21.219900000000024
 40
1.797600000000000
  1

  0
TEXT
  8
PT1-Tabelka_rysu1
  6
CONTINUOUS
 62
     7
 10
403.140800000000010
 20
34.789600000000007
 40
1.797600000000000
  1
Sprawdził: Witold Dominik   -  Decyzja Nr 65
  0
TEXT
  8
PT1-Tabelka_rysu1
  6
CONTINUOUS
 62
     7
 10
403.225100000000000
 20
32.010100000000023
 40
1.797600000000000
  1
Opracował: Michał Urbańczyk
  0
TEXT
  8
PT1-Tabelka_rysu1
  6
CONTINUOUS
 62
     7
 10
403.269000000000010
 20
21.697100000000006
 40
1.797600000000000
  1
Nazwa rysunku:
  0
TEXT
  8
PT1-Tabelka_rysu1
  6
CONTINUOUS
 62
     7
 10
403.537899999999980
 20
18.223000000000013
 40
3.000000000000000
  1
ELEWACJA FRONTOWA
  0
TEXT
  8
PT1-Tabelka_rysu1
  6
CONTINUOUS
 62
     7
 10
403.537899999999980
 20
13.723000000000013
 40
3.000000000000000
  1
(zachodnia)
  0
LINE
  8
PT3-Grafika_wekt5
  6
CONTINUOUS
 62
     7
 10
161.6938
 20
183.598500000000000
 11
161.6938
 21
184.199000000000010
  0
LINE
  8
PT3-Grafika_wekt5
  6
CONTINUOUS
 62
     7
 10
161.6938
 20
184.199000000000010
 11
179.701
 21
195.897699999999990
  0
LINE
  8
PT3-Grafika_wekt5
  6
CONTINUOUS
 62
     7
 10
179.701
 20
195.897699999999990
 11
179.701
 21
195.297200000000000
  0
LINE
  8
PT3-Grafika_wekt5
  6
CONTINUOUS
 62
     7
 10
179.701
 20
195.297200000000000
 11
161.6938
 21
183.598500000000000
  0
LINE
  8
PT3-Grafika_wekt5
  6
CONTINUOUS
 62
     7
 10
179.701
 20
195.297200000000000
 11
197.7083
 21
183.598500000000000
  0
LINE
  8
PT3-Grafika_wekt5
  6
CONTINUOUS
 62
     7
 10
197.7083
 20
183.598500000000000
 11
197.7083
 21
184.199000000000010
  0
LINE
  8
PT3-Grafika_wekt5
  6
CONTINUOUS
 62
     7
 10
197.7083
 20
184.199000000000010
 11
179.701
 21
195.897699999999990
  0
LINE
  8
PT3-Grafika_wekt5
  6
CONTINUOUS
 62
     7
 10
330.1921
 20
183.598500000000000
 11
330.1921
 21
184.199000000000010
  0
LINE
  8
PT3-Grafika_wekt5
  6
CONTINUOUS
 62
     7
 10
330.1921
 20
184.199000000000010
 11
348.1993
 21
195.897699999999990
  0
LINE
  8
PT3-Grafika_wekt5
  6
CONTINUOUS
 62
     7
 10
348.1993
 20
195.897699999999990
 11
348.1993
 21
195.297200000000000
  0
LINE
  8
PT3-Grafika_wekt5
  6
CONTINUOUS
 62
     7
 10
348.1993
 20
195.297200000000000
 11
330.1921
 21
183.598500000000000
  0
LINE
  8
PT3-Grafika_wekt5
  6
CONTINUOUS
 62
     7
 10
348.1993
 20
195.297200000000000
 11
366.2066
 21
183.598500000000000
  0
LINE
  8
PT3-Grafika_wekt5
  6
CONTINUOUS
 62
     7
 10
366.2066
 20
183.598500000000000
 11
366.2066
 21
184.199000000000010
  0
LINE
  8
PT3-Grafika_wekt5
  6
CONTINUOUS
 62
     7
 10
366.2066
 20
184.199000000000010
 11
348.1993
 21
195.897699999999990
  0
LINE
  8
PT3-Grafika_wekt5
  6
CONTINUOUS
 62
     7
 10
43.1961
 20
183.798700000000000
 11
43.1961
 21
195.897699999999990
  0
LINE
  8
PT3-Grafika_wekt5
  6
CONTINUOUS
 62
     7
 10
43.1961
 20
195.897699999999990
 11
94.6112
 21
195.897699999999990
  0
LINE
  8
PT3-Grafika_wekt5
  6
CONTINUOUS
 62
     7
 10
43.1961
 20
184.199000000000010
 11
76.6039
 21
184.199000000000010
  0
LINE
  8
PT3-Grafika_wekt5
  6
CONTINUOUS
 62
     7
 10
422.6383
 20
195.897699999999990
 11
456.8626
 21
195.897699999999990
  0
LINE
  8
PT3-Grafika_wekt5
  6
CONTINUOUS
 62
     7
 10
456.8626
 20
195.897699999999990
 11
456.8626
 21
184.199000000000010
  0
LINE
  8
PT3-Grafika_wekt5
  6
CONTINUOUS
 62
     7
 10
456.8626
 20
184.199000000000010
 11
423.4548
 21
184.199000000000010
  0
LINE
  8
PT3-Grafika_wekt5
  6
CONTINUOUS
 62
     7
 10
456.8626
 20
183.798700000000000
 11
456.8626
 21
184.199000000000010
  0
LINE
  8
PT3-Grafika_wekt5
  6
CONTINUOUS
 62
     7
 10
39.8947
 20
160.794800000000010
 11
40.0705
 21
160.370299999999990
  0
LINE
  8
PT3-Grafika_wekt5
  6
CONTINUOUS
 62
     7
 10
40.0705
 20
160.370299999999990
 11
40.4949
 21
160.194300000000000
  0
LINE
  8
PT3-Grafika_wekt5
  6
CONTINUOUS
 62
     7
 10
40.4949
 20
160.194300000000000
 11
249.3691
 21
160.194300000000000
  0
LINE
  8
PT3-Grafika_wekt5
  6
CONTINUOUS
 62
     7
 10
249.3691
 20
160.194300000000000
 11
249.3691
 21
160.794800000000010
  0
LINE
  8
PT3-Grafika_wekt5
  6
CONTINUOUS
 62
     7
 10
249.3691
 20
160.794800000000010
 11
39.8947
 21
160.794800000000010
  0
LINE
  8
PT3-Grafika_wekt5
  6
CONTINUOUS
 62
     7
 10
39.9947
 20
160.794800000000010
 11
249.3691
 21
160.794800000000010
  0
LINE
  8
PT3-Grafika_wekt5
  6
CONTINUOUS
 62
     7
 10
249.3691
 20
160.794800000000010
 11
249.3691
 21
160.894900000000010
  0
LINE
  8
PT3-Grafika_wekt5
  6
CONTINUOUS
 62
     7
 10
249.3691
 20
160.894900000000010
 11
41.1952
 21
160.894900000000010
  0
LINE
  8
PT3-Grafika_wekt5
  6
CONTINUOUS
 62
     7
 10
41.1952
 20
160.894900000000010
 11
41.1952
 21
160.794800000000010
  0
LINE
  8
PT3-Grafika_wekt5
  6
CONTINUOUS
 62
     7
 10
41.1952
 20
160.894900000000010
 11
41.1952
 21
161.195200000000000
  0
LINE
  8
PT3-Grafika_wekt5
  6
CONTINUOUS
 62
     7
 10
41.1952
 20
161.195200000000000
 11
125.7293
 21
216.114100000000010
  0
LINE
  8
PT3-Grafika_wekt5
  6
CONTINUOUS
 62
     7
 10
125.7293
 20
216.114100000000010
 11
153.4404
 21
216.114100000000010
  0
LINE
  8
PT3-Grafika_wekt5
  6
CONTINUOUS
 62
     7
 10
153.4404
 20
216.114100000000010
 11
162.094
 21
221.735999999999990
  0
LINE
  8
PT3-Grafika_wekt5
  6
CONTINUOUS
 62
     7
 10
162.094
 20
221.735999999999990
 11
170.7474
 21
216.114100000000010
  0
LINE
  8
PT3-Grafika_wekt5
  6
CONTINUOUS
 62
     7
 10
170.7474
 20
216.114100000000010
 11
374.3293
 21
216.114100000000010
  0
LINE
  8
PT3-Grafika_wekt5
  6
CONTINUOUS
 62
     7
 10
374.3293
 20
216.114100000000010
 11
375.6997
 21
215.223900000000010
  0
LINE
  8
PT3-Grafika_wekt5
  6
CONTINUOUS
 62
     7
 10
41.1952
 20
161.195200000000000
 11
249.3691
 21
161.195200000000000
  0
LINE
  8
PT3-Grafika_wekt5
  6
CONTINUOUS
 62
     7
 10
249.3691
 20
161.195200000000000
 11
249.3691
 21
160.894900000000010
  0
LINE
  8
PT3-Grafika_wekt5
  6
CONTINUOUS
 62
     7
 10
41.6955
 20
160.194300000000000
 11
42.0441
 21
159.845599999999990
  0
LINE
  8
PT3-Grafika_wekt5
  6
CONTINUOUS
 62
     7
 10
42.0441
 20
159.845599999999990
 11
249.3787
 21
159.845599999999990
  0
LINE
  8
PT3-Grafika_wekt5
  6
CONTINUOUS
 62
     7
 10
43.146
 20
182.549100000000010
 11
43.146
 21
195.096999999999980
  0
LINE
  8
PT3-Grafika_wekt5
  6
CONTINUOUS
 62
     7
 10
43.146
 20
195.096999999999980
 11
43.146
 21
183.398300000000010
  0
LINE
  8
PT3-Grafika_wekt5
  6
CONTINUOUS
 62
     7
 10
43.146
 20
183.398300000000010
 11
43.1711
 21
183.398300000000010
  0
LINE
  8
PT3-Grafika_wekt5
  6
CONTINUOUS
 62
     7
 10
43.146
 20
195.096999999999980
 11
43.1961
 21
195.096999999999980
  0
LINE
  8
PT3-Grafika_wekt5
  6
CONTINUOUS
 62
     7
 10
43.1711
 20
183.198199999999990
 11
43.1711
 21
183.798700000000000
  0
LINE
  8
PT3-Grafika_wekt5
  6
CONTINUOUS
 62
     7
 10
43.1711
 20
183.798700000000000
 11
43.2211
 21
183.798700000000000
  0
LINE
  8
PT3-Grafika_wekt5
  6
CONTINUOUS
 62
     7
 10
43.2211
 20
183.798700000000000
 11
43.2211
 21
183.374000000000000
  0
LINE
  8
PT3-Grafika_wekt5
  6
CONTINUOUS
 62
     7
 10
43.2211
 20
183.374000000000000
 11
43.1711
 21
183.374000000000000
  0
LINE
  8
PT3-Grafika_wekt5
  6
CONTINUOUS
 62
     7
 10
43.1961
 20
182.478399999999990
 11
43.1961
 21
183.798700000000000
  0
LINE
  8
PT3-Grafika_wekt5
  6
CONTINUOUS
 62
     7
 10
43.1961
 20
183.798700000000000
 11
75.9877
 21
183.798700000000000
  0
LINE
  8
PT3-Grafika_wekt5
  6
CONTINUOUS
 62
     7
 10
43.1961
 20
182.549100000000010
 11
43.146
 21
182.549100000000010
  0
LINE
  8
PT3-Grafika_wekt5
  6
CONTINUOUS
 62
     7
 10
43.1961
 20
183.198199999999990
 11
75.0634
 21
183.198199999999990
  0
LINE
  8
PT3-Grafika_wekt5
  6
CONTINUOUS
 62
     7
 10
43.2211
 20
183.198199999999990
 11
43.1711
 21
183.198199999999990
  0
LINE
  8
PT3-Grafika_wekt5
  6
CONTINUOUS
 62
     7
 10
43.2211
 20
183.374000000000000
 11
43.2211
 21
183.198199999999990
  0
LINE
  8
PT3-Grafika_wekt5
  6
CONTINUOUS
 62
     7
 10
46.1973
 20
182.478399999999990
 11
43.1961
 21
182.478399999999990
  0
LINE
  8
PT3-Grafika_wekt5
  6
CONTINUOUS
 62
     7
 10
46.1973
 20
182.549100000000010
 11
74.0643
 21
182.549100000000010
  0
LINE
  8
PT3-Grafika_wekt5
  6
CONTINUOUS
 62
     7
 10
46.1973
 20
183.198199999999990
 11
46.1973
 21
182.478399999999990
  0
LINE
  8
PT3-Grafika_wekt5
  6
CONTINUOUS
 62
     7
 10
160.3932
 20
183.798700000000000
 11
160.5691
 21
183.374000000000000
  0
LINE
  8
PT3-Grafika_wekt5
  6
CONTINUOUS
 62
     7
 10
160.5691
 20
183.374000000000000
 11
160.9935
 21
183.198199999999990
  0
LINE
  8
PT3-Grafika_wekt5
  6
CONTINUOUS
 62
     7
 10
160.9935
 20
183.198199999999990
 11
161.4179
 21
183.374000000000000
  0
LINE
  8
PT3-Grafika_wekt5
  6
CONTINUOUS
 62
     7
 10
161.4179
 20
183.374000000000000
 11
161.5937
 21
183.798700000000000
  0
LINE
  8
PT3-Grafika_wekt5
  6
CONTINUOUS
 62
     7
 10
161.5937
 20
183.798700000000000
 11
160.3932
 21
183.798700000000000
  0
LINE
  8
PT3-Grafika_wekt5
  6
CONTINUOUS
 62
     7
 10
161.6938
 20
183.398300000000010
 11
161.6938
 21
183.598500000000000
  0
LINE
  8
PT3-Grafika_wekt5
  6
CONTINUOUS
 62
     7
 10
161.6938
 20
183.598500000000000
 11
179.701
 21
195.297200000000000
  0
LINE
  8
PT3-Grafika_wekt5
  6
CONTINUOUS
 62
     7
 10
179.701
 20
195.297200000000000
 11
179.701
 21
195.096999999999980
  0
LINE
  8
PT3-Grafika_wekt5
  6
CONTINUOUS
 62
     7
 10
179.701
 20
195.096999999999980
 11
161.6938
 21
183.398300000000010
  0
LINE
  8
PT3-Grafika_wekt5
  6
CONTINUOUS
 62
     7
 10
161.6938
 20
183.398300000000010
 11
161.7645
 21
183.469100000000000
  0
LINE
  8
PT3-Grafika_wekt5
  6
CONTINUOUS
 62
     7
 10
161.7645
 20
183.469100000000000
 11
161.7796
 21
183.454099999999980
  0
LINE
  8
PT3-Grafika_wekt5
  6
CONTINUOUS
 62
     7
 10
162.5426
 20
182.549100000000010
 11
161.6938
 21
183.398300000000010
  0
LINE
  8
PT3-Grafika_wekt5
  6
CONTINUOUS
 62
     7
 10
162.5426
 20
182.549100000000010
 11
179.701
 21
193.696300000000010
  0
LINE
  8
PT3-Grafika_wekt5
  6
CONTINUOUS
 62
     7
 10
179.701
 20
193.696300000000010
 11
179.701
 21
195.096999999999980
  0
LINE
  8
PT3-Grafika_wekt5
  6
CONTINUOUS
 62
     7
 10
179.701
 20
195.096999999999980
 11
197.7083
 21
183.398300000000010
  0
LINE
  8
PT3-Grafika_wekt5
  6
CONTINUOUS
 62
     7
 10
197.7083
 20
183.398300000000010
 11
196.8594
 21
182.549100000000010
  0
LINE
  8
PT3-Grafika_wekt5
  6
CONTINUOUS
 62
     7
 10
196.8594
 20
182.549100000000010
 11
179.701
 21
193.696300000000010
  0
LINE
  8
PT3-Grafika_wekt5
  6
CONTINUOUS
 62
     7
 10
163.2662
 20
183.019200000000010
 11
164.695
 21
183.749799999999990
  0
LINE
  8
PT3-Grafika_wekt5
  6
CONTINUOUS
 62
     7
 10
164.695
 20
183.649700000000000
 11
162.5426
 21
182.549100000000010
  0
LINE
  8
PT3-Grafika_wekt5
  6
CONTINUOUS
 62
     7
 10
179.701
 20
195.297200000000000
 11
197.7083
 21
183.598500000000000
  0
LINE
  8
PT3-Grafika_wekt5
  6
CONTINUOUS
 62
     7
 10
197.7083
 20
183.598500000000000
 11
197.7083
 21
183.398300000000010
  0
LINE
  8
PT3-Grafika_wekt5
  6
CONTINUOUS
 62
     7
 10
197.7083
 20
183.398300000000010
 11
197.779
 21
183.327600000000020
  0
LINE
  8
PT3-Grafika_wekt5
  6
CONTINUOUS
 62
     7
 10
197.779
 20
183.327600000000020
 11
196.9301
 21
182.478399999999990
  0
LINE
  8
PT3-Grafika_wekt5
  6
CONTINUOUS
 62
     7
 10
196.9301
 20
182.478399999999990
 11
196.8594
 21
182.549100000000010
  0
LINE
  8
PT3-Grafika_wekt5
  6
CONTINUOUS
 62
     7
 10
196.8594
 20
182.549100000000010
 11
194.707
 21
183.649700000000000
  0
LINE
  8
PT3-Grafika_wekt5
  6
CONTINUOUS
 62
     7
 10
194.707
 20
183.749799999999990
 11
196.1358
 21
183.019200000000010
  0
LINE
  8
PT3-Grafika_wekt5
  6
CONTINUOUS
 62
     7
 10
197.8083
 20
183.798700000000000
 11
197.9841
 21
183.374000000000000
  0
LINE
  8
PT3-Grafika_wekt5
  6
CONTINUOUS
 62
     7
 10
197.9841
 20
183.374000000000000
 11
198.4085
 21
183.198199999999990
  0
LINE
  8
PT3-Grafika_wekt5
  6
CONTINUOUS
 62
     7
 10
198.4085
 20
183.198199999999990
 11
198.833
 21
183.374000000000000
  0
LINE
  8
PT3-Grafika_wekt5
  6
CONTINUOUS
 62
     7
 10
198.833
 20
183.374000000000000
 11
199.0088
 21
183.798700000000000
  0
LINE
  8
PT3-Grafika_wekt5
  6
CONTINUOUS
 62
     7
 10
199.0088
 20
183.798700000000000
 11
197.8083
 21
183.798700000000000
  0
LINE
  8
PT3-Grafika_wekt5
  6
CONTINUOUS
 62
     7
 10
243.0765
 20
181.311300000000020
 11
243.2524
 21
180.886599999999990
  0
LINE
  8
PT3-Grafika_wekt5
  6
CONTINUOUS
 62
     7
 10
243.2524
 20
180.886599999999990
 11
243.6768
 21
180.710800000000010
  0
LINE
  8
PT3-Grafika_wekt5
  6
CONTINUOUS
 62
     7
 10
243.6768
 20
180.710800000000010
 11
244.1012
 21
180.886599999999990
  0
LINE
  8
PT3-Grafika_wekt5
  6
CONTINUOUS
 62
     7
 10
244.1012
 20
180.886599999999990
 11
244.277
 21
181.311300000000020
  0
LINE
  8
PT3-Grafika_wekt5
  6
CONTINUOUS
 62
     7
 10
244.277
 20
181.311300000000020
 11
243.0765
 21
181.311300000000020
  0
LINE
  8
PT3-Grafika_wekt5
  6
CONTINUOUS
 62
     7
 10
244.3771
 20
181.211099999999990
 11
244.3771
 21
181.711600000000000
  0
LINE
  8
PT3-Grafika_wekt5
  6
CONTINUOUS
 62
     7
 10
244.3771
 20
181.711600000000000
 11
267.9865
 21
197.049899999999980
  0
LINE
  8
PT3-Grafika_wekt5
  6
CONTINUOUS
 62
     7
 10
267.9865
 20
197.049899999999980
 11
267.9865
 21
196.749599999999990
  0
LINE
  8
PT3-Grafika_wekt5
  6
CONTINUOUS
 62
     7
 10
267.9865
 20
196.749599999999990
 11
244.3771
 21
181.411299999999980
  0
LINE
  8
PT3-Grafika_wekt5
  6
CONTINUOUS
 62
     7
 10
244.3771
 20
181.211099999999990
 11
245.2259
 21
180.361899999999990
  0
LINE
  8
PT3-Grafika_wekt5
  6
CONTINUOUS
 62
     7
 10
245.2259
 20
180.361899999999990
 11
249.379
 21
182.762400000000010
  0
LINE
  8
PT3-Grafika_wekt5
  6
CONTINUOUS
 62
     7
 10
249.379
 20
182.762400000000010
 11
249.379
 21
182.862500000000010
  0
LINE
  8
PT3-Grafika_wekt5
  6
CONTINUOUS
 62
     7
 10
249.379
 20
182.862500000000010
 11
246.6222
 21
181.269000000000010
  0
LINE
  8
PT3-Grafika_wekt5
  6
CONTINUOUS
 62
     7
 10
244.4478
 20
181.281900000000010
 11
244.3771
 21
181.211099999999990
  0
LINE
  8
PT3-Grafika_wekt5
  6
CONTINUOUS
 62
     7
 10
244.3771
 20
181.211099999999990
 11
267.9865
 21
196.549499999999990
  0
LINE
  8
PT3-Grafika_wekt5
  6
CONTINUOUS
 62
     7
 10
267.9865
 20
196.549499999999990
 11
267.9865
 21
195.148799999999990
  0
LINE
  8
PT3-Grafika_wekt5
  6
CONTINUOUS
 62
     7
 10
267.9865
 20
195.148799999999990
 11
245.2259
 21
180.361899999999990
  0
LINE
  8
PT3-Grafika_wekt5
  6
CONTINUOUS
 62
     7
 10
244.4628
 20
181.266900000000020
 11
244.4478
 21
181.281900000000010
  0
LINE
  8
PT3-Grafika_wekt5
  6
CONTINUOUS
 62
     7
 10
249.3441
 20
160.194300000000000
 11
249.3441
 21
160.794800000000010
  0
LINE
  8
PT3-Grafika_wekt5
  6
CONTINUOUS
 62
     7
 10
249.3441
 20
160.794800000000010
 11
249.3941
 21
160.794800000000010
  0
LINE
  8
PT3-Grafika_wekt5
  6
CONTINUOUS
 62
     7
 10
249.3941
 20
160.794800000000010
 11
249.3941
 21
160.370299999999990
  0
LINE
  8
PT3-Grafika_wekt5
  6
CONTINUOUS
 62
     7
 10
249.3941
 20
160.370299999999990
 11
249.3441
 21
160.370299999999990
  0
LINE
  8
PT3-Grafika_wekt5
  6
CONTINUOUS
 62
     7
 10
249.3691
 20
161.195200000000000
 11
249.3691
 21
182.756599999999990
  0
LINE
  8
PT3-Grafika_wekt5
  6
CONTINUOUS
 62
     7
 10
249.3691
 20
162.346100000000010
 11
249.3787
 21
162.346100000000010
  0
LINE
  8
PT3-Grafika_wekt5
  6
CONTINUOUS
 62
     7
 10
249.3787
 20
160.194300000000000
 11
249.3441
 21
160.194300000000000
  0
LINE
  8
PT3-Grafika_wekt5
  6
CONTINUOUS
 62
     7
 10
249.3941
 20
160.318600000000000
 11
249.3941
 21
160.370299999999990
  0
LINE
  8
PT3-Grafika_wekt5
  6
CONTINUOUS
 62
     7
 10
267.9865
 20
195.148799999999990
 11
290.7472
 21
180.361899999999990
  0
LINE
  8
PT3-Grafika_wekt5
  6
CONTINUOUS
 62
     7
 10
290.7472
 20
180.361899999999990
 11
286.594
 21
182.762400000000010
  0
LINE
  8
PT3-Grafika_wekt5
  6
CONTINUOUS
 62
     7
 10
286.594
 20
182.762400000000010
 11
286.594
 21
182.862500000000010
  0
LINE
  8
PT3-Grafika_wekt5
  6
CONTINUOUS
 62
     7
 10
286.594
 20
182.862500000000010
 11
289.3509
 21
181.269000000000010
  0
LINE
  8
PT3-Grafika_wekt5
  6
CONTINUOUS
 62
     7
 10
267.9865
 20
196.549499999999990
 11
267.9865
 21
196.749599999999990
  0
LINE
  8
PT3-Grafika_wekt5
  6
CONTINUOUS
 62
     7
 10
267.9865
 20
196.749599999999990
 11
291.5961
 21
181.411299999999980
  0
LINE
  8
PT3-Grafika_wekt5
  6
CONTINUOUS
 62
     7
 10
291.5961
 20
181.411299999999980
 11
291.5961
 21
181.211099999999990
  0
LINE
  8
PT3-Grafika_wekt5
  6
CONTINUOUS
 62
     7
 10
291.5961
 20
181.211099999999990
 11
267.9865
 21
196.549499999999990
  0
LINE
  8
PT3-Grafika_wekt5
  6
CONTINUOUS
 62
     7
 10
267.9865
 20
197.049899999999980
 11
291.5961
 21
181.711600000000000
  0
LINE
  8
PT3-Grafika_wekt5
  6
CONTINUOUS
 62
     7
 10
291.5961
 20
181.711600000000000
 11
291.5961
 21
181.411299999999980
  0
LINE
  8
PT3-Grafika_wekt5
  6
CONTINUOUS
 62
     7
 10
286.579
 20
160.318700000000010
 11
286.579
 21
160.794800000000010
  0
LINE
  8
PT3-Grafika_wekt5
  6
CONTINUOUS
 62
     7
 10
286.579
 20
160.794800000000010
 11
286.6291
 21
160.794800000000010
  0
LINE
  8
PT3-Grafika_wekt5
  6
CONTINUOUS
 62
     7
 10
286.6291
 20
160.794800000000010
 11
286.6291
 21
160.370299999999990
  0
LINE
  8
PT3-Grafika_wekt5
  6
CONTINUOUS
 62
     7
 10
286.6291
 20
160.370299999999990
 11
286.579
 21
160.370299999999990
  0
LINE
  8
PT3-Grafika_wekt5
  6
CONTINUOUS
 62
     7
 10
286.5936
 20
160.194300000000000
 11
286.6291
 21
160.194300000000000
  0
LINE
  8
PT3-Grafika_wekt5
  6
CONTINUOUS
 62
     7
 10
286.6291
 20
160.194300000000000
 11
286.6291
 21
160.370299999999990
  0
LINE
  8
PT3-Grafika_wekt5
  6
CONTINUOUS
 62
     7
 10
286.594
 20
159.845599999999990
 11
286.594
 21
160.194300000000000
  0
LINE
  8
PT3-Grafika_wekt5
  6
CONTINUOUS
 62
     7
 10
286.594
 20
160.794800000000010
 11
286.594
 21
162.346100000000010
  0
LINE
  8
PT3-Grafika_wekt5
  6
CONTINUOUS
 62
     7
 10
286.594
 20
162.346100000000010
 11
286.604
 21
162.346100000000010
  0
LINE
  8
PT3-Grafika_wekt5
  6
CONTINUOUS
 62
     7
 10
286.604
 20
160.194300000000000
 11
286.604
 21
182.756599999999990
  0
LINE
  8
PT3-Grafika_wekt5
  6
CONTINUOUS
 62
     7
 10
286.604
 20
160.794800000000010
 11
460.0639
 21
160.794800000000010
  0
LINE
  8
PT3-Grafika_wekt5
  6
CONTINUOUS
 62
     7
 10
286.604
 20
160.894900000000010
 11
458.8634
 21
160.894900000000010
  0
LINE
  8
PT3-Grafika_wekt5
  6
CONTINUOUS
 62
     7
 10
458.8634
 20
160.894900000000010
 11
458.8634
 21
160.794800000000010
  0
LINE
  8
PT3-Grafika_wekt5
  6
CONTINUOUS
 62
     7
 10
286.604
 20
161.195200000000000
 11
458.8634
 21
161.195200000000000
  0
LINE
  8
PT3-Grafika_wekt5
  6
CONTINUOUS
 62
     7
 10
458.8634
 20
161.195200000000000
 11
409.815
 21
193.060299999999980
  0
LINE
  8
PT3-Grafika_wekt5
  6
CONTINUOUS
 62
     7
 10
290.7472
 20
180.361899999999990
 11
290.818
 21
180.291200000000000
  0
LINE
  8
PT3-Grafika_wekt5
  6
CONTINUOUS
 62
     7
 10
290.818
 20
180.291200000000000
 11
291.6668
 21
181.140400000000000
  0
LINE
  8
PT3-Grafika_wekt5
  6
CONTINUOUS
 62
     7
 10
291.6668
 20
181.140400000000000
 11
291.5961
 21
181.211099999999990
  0
LINE
  8
PT3-Grafika_wekt5
  6
CONTINUOUS
 62
     7
 10
291.5961
 20
181.211099999999990
 11
290.7472
 21
180.361899999999990
  0
LINE
  8
PT3-Grafika_wekt5
  6
CONTINUOUS
 62
     7
 10
291.6961
 20
181.311300000000020
 11
291.8719
 21
180.886599999999990
  0
LINE
  8
PT3-Grafika_wekt5
  6
CONTINUOUS
 62
     7
 10
291.8719
 20
180.886599999999990
 11
292.2963
 21
180.710800000000010
  0
LINE
  8
PT3-Grafika_wekt5
  6
CONTINUOUS
 62
     7
 10
292.2963
 20
180.710800000000010
 11
292.7208
 21
180.886599999999990
  0
LINE
  8
PT3-Grafika_wekt5
  6
CONTINUOUS
 62
     7
 10
292.7208
 20
180.886599999999990
 11
292.8966
 21
181.311300000000020
  0
LINE
  8
PT3-Grafika_wekt5
  6
CONTINUOUS
 62
     7
 10
292.8966
 20
181.311300000000020
 11
291.6961
 21
181.311300000000020
  0
LINE
  8
PT3-Grafika_wekt5
  6
CONTINUOUS
 62
     7
 10
328.8916
 20
183.798700000000000
 11
329.0673
 21
183.374000000000000
  0
LINE
  8
PT3-Grafika_wekt5
  6
CONTINUOUS
 62
     7
 10
329.0673
 20
183.374000000000000
 11
329.4918
 21
183.198199999999990
  0
LINE
  8
PT3-Grafika_wekt5
  6
CONTINUOUS
 62
     7
 10
329.4918
 20
183.198199999999990
 11
329.9162
 21
183.374000000000000
  0
LINE
  8
PT3-Grafika_wekt5
  6
CONTINUOUS
 62
     7
 10
329.9162
 20
183.374000000000000
 11
330.092
 21
183.798700000000000
  0
LINE
  8
PT3-Grafika_wekt5
  6
CONTINUOUS
 62
     7
 10
330.092
 20
183.798700000000000
 11
328.8916
 21
183.798700000000000
  0
LINE
  8
PT3-Grafika_wekt5
  6
CONTINUOUS
 62
     7
 10
330.1921
 20
183.398300000000010
 11
330.1921
 21
183.598500000000000
  0
LINE
  8
PT3-Grafika_wekt5
  6
CONTINUOUS
 62
     7
 10
330.1921
 20
183.598500000000000
 11
348.1993
 21
195.297200000000000
  0
LINE
  8
PT3-Grafika_wekt5
  6
CONTINUOUS
 62
     7
 10
348.1993
 20
195.297200000000000
 11
348.1993
 21
195.096999999999980
  0
LINE
  8
PT3-Grafika_wekt5
  6
CONTINUOUS
 62
     7
 10
348.1993
 20
195.096999999999980
 11
330.1921
 21
183.398300000000010
  0
LINE
  8
PT3-Grafika_wekt5
  6
CONTINUOUS
 62
     7
 10
330.1921
 20
183.398300000000010
 11
330.2629
 21
183.469100000000000
  0
LINE
  8
PT3-Grafika_wekt5
  6
CONTINUOUS
 62
     7
 10
330.2629
 20
183.469100000000000
 11
330.2779
 21
183.454099999999980
  0
LINE
  8
PT3-Grafika_wekt5
  6
CONTINUOUS
 62
     7
 10
331.041
 20
182.549100000000010
 11
330.1921
 21
183.398300000000010
  0
LINE
  8
PT3-Grafika_wekt5
  6
CONTINUOUS
 62
     7
 10
331.041
 20
182.549100000000010
 11
348.1993
 21
193.696300000000010
  0
LINE
  8
PT3-Grafika_wekt5
  6
CONTINUOUS
 62
     7
 10
348.1993
 20
193.696300000000010
 11
348.1993
 21
195.096999999999980
  0
LINE
  8
PT3-Grafika_wekt5
  6
CONTINUOUS
 62
     7
 10
348.1993
 20
195.096999999999980
 11
366.2066
 21
183.398300000000010
  0
LINE
  8
PT3-Grafika_wekt5
  6
CONTINUOUS
 62
     7
 10
366.2066
 20
183.398300000000010
 11
365.3577
 21
182.549100000000010
  0
LINE
  8
PT3-Grafika_wekt5
  6
CONTINUOUS
 62
     7
 10
365.3577
 20
182.549100000000010
 11
348.1993
 21
193.696300000000010
  0
LINE
  8
PT3-Grafika_wekt5
  6
CONTINUOUS
 62
     7
 10
331.7645
 20
183.019299999999990
 11
333.1933
 21
183.749799999999990
  0
LINE
  8
PT3-Grafika_wekt5
  6
CONTINUOUS
 62
     7
 10
333.1933
 20
183.749799999999990
 11
333.1933
 21
183.649700000000000
  0
LINE
  8
PT3-Grafika_wekt5
  6
CONTINUOUS
 62
     7
 10
333.1933
 20
183.649700000000000
 11
331.041
 21
182.549100000000010
  0
LINE
  8
PT3-Grafika_wekt5
  6
CONTINUOUS
 62
     7
 10
333.1933
 20
164.448899999999980
 11
363.2054
 21
164.448899999999980
  0
LINE
  8
PT3-Grafika_wekt5
  6
CONTINUOUS
 62
     7
 10
348.1993
 20
195.297200000000000
 11
366.2066
 21
183.598500000000000
  0
LINE
  8
PT3-Grafika_wekt5
  6
CONTINUOUS
 62
     7
 10
366.2066
 20
183.598500000000000
 11
366.2066
 21
183.398300000000010
  0
LINE
  8
PT3-Grafika_wekt5
  6
CONTINUOUS
 62
     7
 10
366.2066
 20
183.398300000000010
 11
366.2773
 21
183.327600000000020
  0
LINE
  8
PT3-Grafika_wekt5
  6
CONTINUOUS
 62
     7
 10
366.2773
 20
183.327600000000020
 11
365.4285
 21
182.478399999999990
  0
LINE
  8
PT3-Grafika_wekt5
  6
CONTINUOUS
 62
     7
 10
365.4285
 20
182.478399999999990
 11
365.3577
 21
182.549100000000010
  0
LINE
  8
PT3-Grafika_wekt5
  6
CONTINUOUS
 62
     7
 10
365.3577
 20
182.549100000000010
 11
363.2054
 21
183.649700000000000
  0
LINE
  8
PT3-Grafika_wekt5
  6
CONTINUOUS
 62
     7
 10
363.2054
 20
183.649700000000000
 11
363.2054
 21
183.749799999999990
  0
LINE
  8
PT3-Grafika_wekt5
  6
CONTINUOUS
 62
     7
 10
363.2054
 20
183.749799999999990
 11
364.6341
 21
183.019200000000010
  0
LINE
  8
PT3-Grafika_wekt5
  6
CONTINUOUS
 62
     7
 10
366.3066
 20
183.798700000000000
 11
366.4824
 21
183.374000000000000
  0
LINE
  8
PT3-Grafika_wekt5
  6
CONTINUOUS
 62
     7
 10
366.4824
 20
183.374000000000000
 11
366.9069
 21
183.198199999999990
  0
LINE
  8
PT3-Grafika_wekt5
  6
CONTINUOUS
 62
     7
 10
366.9069
 20
183.198199999999990
 11
367.3313
 21
183.374000000000000
  0
LINE
  8
PT3-Grafika_wekt5
  6
CONTINUOUS
 62
     7
 10
367.3313
 20
183.374000000000000
 11
367.5071
 21
183.798700000000000
  0
LINE
  8
PT3-Grafika_wekt5
  6
CONTINUOUS
 62
     7
 10
367.5071
 20
183.798700000000000
 11
366.3066
 21
183.798700000000000
  0
LINE
  8
PT3-Grafika_wekt5
  6
CONTINUOUS
 62
     7
 10
380.6153
 20
212.030399999999990
 11
403.2306
 21
197.337999999999990
  0
LINE
  8
PT3-Grafika_wekt5
  6
CONTINUOUS
 62
     7
 10
424.071
 20
183.798700000000000
 11
456.8626
 21
183.798700000000000
  0
LINE
  8
PT3-Grafika_wekt5
  6
CONTINUOUS
 62
     7
 10
456.8626
 20
183.798700000000000
 11
456.8626
 21
183.198199999999990
  0
LINE
  8
PT3-Grafika_wekt5
  6
CONTINUOUS
 62
     7
 10
456.8626
 20
183.198199999999990
 11
424.9952
 21
183.198199999999990
  0
LINE
  8
PT3-Grafika_wekt5
  6
CONTINUOUS
 62
     7
 10
425.9943
 20
182.549100000000010
 11
453.8614
 21
182.549100000000010
  0
LINE
  8
PT3-Grafika_wekt5
  6
CONTINUOUS
 62
     7
 10
453.8614
 20
182.549100000000010
 11
453.8614
 21
183.198199999999990
  0
LINE
  8
PT3-Grafika_wekt5
  6
CONTINUOUS
 62
     7
 10
453.8614
 20
182.478399999999990
 11
456.8626
 21
182.478399999999990
  0
LINE
  8
PT3-Grafika_wekt5
  6
CONTINUOUS
 62
     7
 10
456.8626
 20
182.478399999999990
 11
456.8626
 21
182.549100000000010
  0
LINE
  8
PT3-Grafika_wekt5
  6
CONTINUOUS
 62
     7
 10
456.8626
 20
182.549100000000010
 11
453.8614
 21
182.549100000000010
  0
LINE
  8
PT3-Grafika_wekt5
  6
CONTINUOUS
 62
     7
 10
456.8126
 20
182.549100000000010
 11
456.8126
 21
183.198199999999990
  0
LINE
  8
PT3-Grafika_wekt5
  6
CONTINUOUS
 62
     7
 10
456.8376
 20
183.198199999999990
 11
456.8376
 21
183.798700000000000
  0
LINE
  8
PT3-Grafika_wekt5
  6
CONTINUOUS
 62
     7
 10
456.8376
 20
183.798700000000000
 11
456.8876
 21
183.798700000000000
  0
LINE
  8
PT3-Grafika_wekt5
  6
CONTINUOUS
 62
     7
 10
456.8876
 20
183.798700000000000
 11
456.8876
 21
183.374000000000000
  0
LINE
  8
PT3-Grafika_wekt5
  6
CONTINUOUS
 62
     7
 10
456.8876
 20
183.374000000000000
 11
456.8376
 21
183.374000000000000
  0
LINE
  8
PT3-Grafika_wekt5
  6
CONTINUOUS
 62
     7
 10
456.8626
 20
182.549100000000010
 11
456.8626
 21
183.198199999999990
  0
LINE
  8
PT3-Grafika_wekt5
  6
CONTINUOUS
 62
     7
 10
456.8626
 20
195.096999999999980
 11
456.9126
 21
195.096999999999980
  0
LINE
  8
PT3-Grafika_wekt5
  6
CONTINUOUS
 62
     7
 10
456.9126
 20
195.096999999999980
 11
456.9126
 21
183.398300000000010
  0
LINE
  8
PT3-Grafika_wekt5
  6
CONTINUOUS
 62
     7
 10
456.9126
 20
183.398300000000010
 11
456.8876
 21
183.398300000000010
  0
LINE
  8
PT3-Grafika_wekt5
  6
CONTINUOUS
 62
     7
 10
456.8876
 20
183.198199999999990
 11
456.8376
 21
183.198199999999990
  0
LINE
  8
PT3-Grafika_wekt5
  6
CONTINUOUS
 62
     7
 10
456.8876
 20
183.374000000000000
 11
456.8876
 21
183.198199999999990
  0
LINE
  8
PT3-Grafika_wekt5
  6
CONTINUOUS
 62
     7
 10
456.9126
 20
182.549100000000010
 11
456.8126
 21
182.549100000000010
  0
LINE
  8
PT3-Grafika_wekt5
  6
CONTINUOUS
 62
     7
 10
456.9126
 20
183.398300000000010
 11
456.9126
 21
182.549100000000010
  0
LINE
  8
PT3-Grafika_wekt5
  6
CONTINUOUS
 62
     7
 10
458.0145
 20
159.845599999999990
 11
286.594
 21
159.845599999999990
  0
LINE
  8
PT3-Grafika_wekt5
  6
CONTINUOUS
 62
     7
 10
458.3632
 20
160.194300000000000
 11
458.0145
 21
159.845599999999990
  0
LINE
  8
PT3-Grafika_wekt5
  6
CONTINUOUS
 62
     7
 10
458.8634
 20
160.894900000000010
 11
458.8634
 21
161.195200000000000
  0
LINE
  8
PT3-Grafika_wekt5
  6
CONTINUOUS
 62
     7
 10
459.5637
 20
160.194300000000000
 11
286.604
 21
160.194300000000000
  0
LINE
  8
PT3-Grafika_wekt5
  6
CONTINUOUS
 62
     7
 10
459.9881
 20
160.370299999999990
 11
459.5637
 21
160.194300000000000
  0
LINE
  8
PT3-Grafika_wekt5
  6
CONTINUOUS
 62
     7
 10
460.164
 20
160.794800000000010
 11
286.604
 21
160.794800000000010
  0
LINE
  8
PT3-Grafika_wekt5
  6
CONTINUOUS
 62
     7
 10
99.6193
 20
199.151299999999990
 11
99.6193
 21
210.219799999999990
  0
LINE
  8
PT3-Grafika_wekt5
  6
CONTINUOUS
 62
     7
 10
99.6193
 20
210.219799999999990
 11
106.0219
 21
210.219799999999990
  0
LINE
  8
PT3-Grafika_wekt5
  6
CONTINUOUS
 62
     7
 10
106.0219
 20
210.219799999999990
 11
106.0219
 21
203.310800000000000
  0
LINE
  8
PT3-Grafika_wekt5
  6
CONTINUOUS
 62
     7
 10
162.7968
 20
182.679100000000010
 11
163.1583
 21
182.679100000000010
  0
LINE
  8
PT3-Grafika_wekt5
  6
CONTINUOUS
 62
     7
 10
163.1583
 20
182.679100000000010
 11
164.4942
 21
183.547000000000000
  0
LINE
  8
PT3-Grafika_wekt5
  6
CONTINUOUS
 62
     7
 10
194.9078
 20
183.547000000000000
 11
196.2438
 21
182.679100000000010
  0
LINE
  8
PT3-Grafika_wekt5
  6
CONTINUOUS
 62
     7
 10
196.2438
 20
182.679100000000010
 11
196.6051
 21
182.679100000000010
  0
LINE
  8
PT3-Grafika_wekt5
  6
CONTINUOUS
 62
     7
 10
245.4509
 20
180.491899999999990
 11
245.8415
 21
180.491899999999990
  0
LINE
  8
PT3-Grafika_wekt5
  6
CONTINUOUS
 62
     7
 10
245.8415
 20
180.491899999999990
 11
248.9915
 21
182.538400000000000
  0
LINE
  8
PT3-Grafika_wekt5
  6
CONTINUOUS
 62
     7
 10
249.3691
 20
163.945400000000010
 11
249.3691
 21
164.082900000000000
  0
LINE
  8
PT3-Grafika_wekt5
  6
CONTINUOUS
 62
     7
 10
249.3691
 20
164.995400000000020
 11
249.3787
 21
164.989100000000010
  0
LINE
  8
PT3-Grafika_wekt5
  6
CONTINUOUS
 62
     7
 10
286.5936
 20
182.790500000000010
 11
286.594
 21
182.790200000000000
  0
LINE
  8
PT3-Grafika_wekt5
  6
CONTINUOUS
 62
     7
 10
286.9816
 20
182.538400000000000
 11
290.1316
 21
180.491899999999990
  0
LINE
  8
PT3-Grafika_wekt5
  6
CONTINUOUS
 62
     7
 10
290.1316
 20
180.491899999999990
 11
290.5222
 21
180.491899999999990
  0
LINE
  8
PT3-Grafika_wekt5
  6
CONTINUOUS
 62
     7
 10
331.2952
 20
182.679100000000010
 11
331.6565
 21
182.679100000000010
  0
LINE
  8
PT3-Grafika_wekt5
  6
CONTINUOUS
 62
     7
 10
331.6565
 20
182.679100000000010
 11
332.9925
 21
183.547000000000000
  0
LINE
  8
PT3-Grafika_wekt5
  6
CONTINUOUS
 62
     7
 10
363.4061
 20
183.547000000000000
 11
364.7421
 21
182.679100000000010
  0
LINE
  8
PT3-Grafika_wekt5
  6
CONTINUOUS
 62
     7
 10
364.7421
 20
182.679100000000010
 11
365.1034
 21
182.679100000000010
  0
LINE
  8
PT3-Grafika_wekt5
  6
CONTINUOUS
 62
     7
 10
403.2306
 20
193.060299999999980
 11
403.2306
 21
200.211799999999980
  0
LINE
  8
PT3-Grafika_wekt5
  6
CONTINUOUS
 62
     7
 10
403.2306
 20
200.211799999999980
 11
422.6383
 21
200.211799999999980
  0
LINE
  8
PT3-Grafika_wekt5
  6
CONTINUOUS
 62
     7
 10
422.6383
 20
200.211799999999980
 11
422.6383
 21
184.729299999999990
  0
LINE
  8
PT3-Grafika_wekt5
  6
CONTINUOUS
 62
     7
 10
45.0414
 20
100.761300000000010
 11
45.0426
 21
100.670199999999990
  0
LINE
  8
PT3-Grafika_wekt5
  6
CONTINUOUS
 62
     7
 10
45.0426
 20
100.670199999999990
 11
45.0458
 21
100.662900000000010
  0
LINE
  8
PT3-Grafika_wekt5
  6
CONTINUOUS
 62
     7
 10
45.0458
 20
100.662900000000010
 11
45.0496
 21
100.775100000000010
  0
LINE
  8
PT3-Grafika_wekt5
  6
CONTINUOUS
 62
     7
 10
45.0496
 20
100.775100000000010
 11
45.0554
 21
100.934100000000000
  0
LINE
  8
PT3-Grafika_wekt5
  6
CONTINUOUS
 62
     7
 10
45.0554
 20
100.934100000000000
 11
45.0428
 21
100.900399999999990
  0
LINE
  8
PT3-Grafika_wekt5
  6
CONTINUOUS
 62
     7
 10
45.0428
 20
100.900399999999990
 11
45.0414
 21
100.761300000000010
  0
LINE
  8
PT3-Grafika_wekt5
  6
CONTINUOUS
 62
     7
 10
45.0458
 20
100.662900000000010
 11
45.3368
 21
100.662900000000010
  0
LINE
  8
PT3-Grafika_wekt5
  6
CONTINUOUS
 62
     7
 10
45.3368
 20
100.662900000000010
 11
45.327
 21
100.934100000000000
  0
LINE
  8
PT3-Grafika_wekt5
  6
CONTINUOUS
 62
     7
 10
45.327
 20
100.934100000000000
 11
45.3203
 21
100.946400000000010
  0
LINE
  8
PT3-Grafika_wekt5
  6
CONTINUOUS
 62
     7
 10
45.3203
 20
100.946400000000010
 11
45.0717
 21
100.946400000000010
  0
LINE
  8
PT3-Grafika_wekt5
  6
CONTINUOUS
 62
     7
 10
45.0717
 20
100.946400000000010
 11
45.0554
 21
100.934100000000000
  0
LINE
  8
PT3-Grafika_wekt5
  6
CONTINUOUS
 62
     7
 10
45.0496
 20
100.775100000000010
 11
45.0683
 21
100.742099999999990
  0
LINE
  8
PT3-Grafika_wekt5
  6
CONTINUOUS
 62
     7
 10
45.0683
 20
100.742099999999990
 11
45.0849
 21
100.729999999999990
  0
LINE
  8
PT3-Grafika_wekt5
  6
CONTINUOUS
 62
     7
 10
45.0849
 20
100.729999999999990
 11
45.1043
 21
100.740500000000000
  0
LINE
  8
PT3-Grafika_wekt5
  6
CONTINUOUS
 62
     7
 10
45.1043
 20
100.740500000000000
 11
45.1401
 21
100.775100000000010
  0
LINE
  8
PT3-Grafika_wekt5
  6
CONTINUOUS
 62
     7
 10
45.1401
 20
100.775100000000010
 11
45.1439
 21
100.796200000000000
  0
LINE
  8
PT3-Grafika_wekt5
  6
CONTINUOUS
 62
     7
 10
45.1439
 20
100.796200000000000
 11
45.1452
 21
100.837799999999990
  0
LINE
  8
PT3-Grafika_wekt5
  6
CONTINUOUS
 62
     7
 10
45.1452
 20
100.837799999999990
 11
45.1439
 21
100.879300000000000
  0
LINE
  8
PT3-Grafika_wekt5
  6
CONTINUOUS
 62
     7
 10
45.1439
 20
100.879300000000000
 11
45.1401
 21
100.900399999999990
  0
LINE
  8
PT3-Grafika_wekt5
  6
CONTINUOUS
 62
     7
 10
45.1401
 20
100.900399999999990
 11
45.0958
 21
100.935599999999990
  0
LINE
  8
PT3-Grafika_wekt5
  6
CONTINUOUS
 62
     7
 10
45.0958
 20
100.935599999999990
 11
45.0717
 21
100.946400000000010
  0
LINE
  8
PT3-Grafika_wekt5
  6
CONTINUOUS
 62
     7
 10
45.0849
 20
100.729999999999990
 11
45.3187
 21
100.729999999999990
  0
LINE
  8
PT3-Grafika_wekt5
  6
CONTINUOUS
 62
     7
 10
45.3187
 20
100.729999999999990
 11
45.3197
 21
100.740500000000000
  0
LINE
  8
PT3-Grafika_wekt5
  6
CONTINUOUS
 62
     7
 10
45.3197
 20
100.740500000000000
 11
45.3277
 21
100.775100000000010
  0
LINE
  8
PT3-Grafika_wekt5
  6
CONTINUOUS
 62
     7
 10
45.3277
 20
100.775100000000010
 11
45.3288
 21
100.796200000000000
  0
LINE
  8
PT3-Grafika_wekt5
  6
CONTINUOUS
 62
     7
 10
45.3288
 20
100.796200000000000
 11
45.3292
 21
100.837799999999990
  0
LINE
  8
PT3-Grafika_wekt5
  6
CONTINUOUS
 62
     7
 10
45.3292
 20
100.837799999999990
 11
45.3288
 21
100.879300000000000
  0
LINE
  8
PT3-Grafika_wekt5
  6
CONTINUOUS
 62
     7
 10
45.3288
 20
100.879300000000000
 11
45.3277
 21
100.900399999999990
  0
LINE
  8
PT3-Grafika_wekt5
  6
CONTINUOUS
 62
     7
 10
45.3277
 20
100.900399999999990
 11
45.3189
 21
100.935599999999990
  0
LINE
  8
PT3-Grafika_wekt5
  6
CONTINUOUS
 62
     7
 10
45.3189
 20
100.935599999999990
 11
45.3203
 21
100.946400000000010
  0
LINE
  8
PT3-Grafika_wekt5
  6
CONTINUOUS
 62
     7
 10
45.3187
 20
100.729999999999990
 11
45.3211
 21
100.742099999999990
  0
LINE
  8
PT3-Grafika_wekt5
  6
CONTINUOUS
 62
     7
 10
45.3211
 20
100.742099999999990
 11
45.332
 21
100.775100000000010
  0
LINE
  8
PT3-Grafika_wekt5
  6
CONTINUOUS
 62
     7
 10
45.332
 20
100.775100000000010
 11
45.3288
 21
100.875499999999990
  0
LINE
  8
PT3-Grafika_wekt5
  6
CONTINUOUS
 62
     7
 10
45.327
 20
100.934100000000000
 11
45.3286
 21
100.883100000000010
  0
LINE
  8
PT3-Grafika_wekt5
  6
CONTINUOUS
 62
     7
 10
45.3285
 20
100.887499999999990
 11
45.3287
 21
100.887499999999990
  0
LINE
  8
PT3-Grafika_wekt5
  6
CONTINUOUS
 62
     7
 10
45.332
 20
100.775100000000010
 11
45.3368
 21
100.662900000000010
  0
LINE
  8
PT3-Grafika_wekt5
  6
CONTINUOUS
 62
     7
 10
45.3368
 20
100.662900000000010
 11
45.3426
 21
100.670199999999990
  0
LINE
  8
PT3-Grafika_wekt5
  6
CONTINUOUS
 62
     7
 10
45.3426
 20
100.670199999999990
 11
45.343
 21
100.680499999999990
  0
LINE
  8
PT3-Grafika_wekt5
  6
CONTINUOUS
 62
     7
 10
45.336
 20
100.680499999999990
 11
45.3362
 21
100.680499999999990
  0
LINE
  8
PT3-Grafika_wekt5
  6
CONTINUOUS
 62
     7
 10
45.3387
 20
100.887499999999990
 11
45.6164
 21
100.887499999999990
  0
LINE
  8
PT3-Grafika_wekt5
  6
CONTINUOUS
 62
     7
 10
45.3406
 20
100.680499999999990
 11
45.6164
 21
100.680499999999990
  0
LINE
  8
PT3-Grafika_wekt5
  6
CONTINUOUS
 62
     7
 10
45.3424
 20
100.900399999999990
 11
45.327
 21
100.934100000000000
  0
LINE
  8
PT3-Grafika_wekt5
  6
CONTINUOUS
 62
     7
 10
45.3427
 20
100.887499999999990
 11
45.3424
 21
100.900399999999990
  0
LINE
  8
PT3-Grafika_wekt5
  6
CONTINUOUS
 62
     7
 10
45.6079
 20
99.783199999999994
 11
45.6164
 21
99.819799999999987
  0
LINE
  8
PT3-Grafika_wekt5
  6
CONTINUOUS
 62
     7
 10
45.6079
 20
100.017400000000010
 11
45.6164
 21
100.017400000000010
  0
LINE
  8
PT3-Grafika_wekt5
  6
CONTINUOUS
 62
     7
 10
45.6164
 20
99.248500000000007
 11
45.6164
 21
101.413500000000000
  0
LINE
  8
PT3-Grafika_wekt5
  6
CONTINUOUS
 62
     7
 10
45.6464
 20
99.094899999999996
 11
45.6888
 21
99.094899999999996
  0
LINE
  8
PT3-Grafika_wekt5
  6
CONTINUOUS
 62
     7
 10
45.6464
 20
101.567000000000010
 11
45.6888
 21
101.567000000000010
  0
LINE
  8
PT3-Grafika_wekt5
  6
CONTINUOUS
 62
     7
 10
45.6881
 20
93.725500000000011
 11
45.6881
 21
93.949800000000010
  0
LINE
  8
PT3-Grafika_wekt5
  6
CONTINUOUS
 62
     7
 10
45.6881
 20
93.949800000000010
 11
45.7805
 21
93.949800000000010
  0
LINE
  8
PT3-Grafika_wekt5
  6
CONTINUOUS
 62
     7
 10
45.6881
 20
108.650200000000010
 11
45.6881
 21
108.874599999999990
  0
LINE
  8
PT3-Grafika_wekt5
  6
CONTINUOUS
 62
     7
 10
45.6881
 20
108.874599999999990
 11
45.7805
 21
108.874599999999990
  0
LINE
  8
PT3-Grafika_wekt5
  6
CONTINUOUS
 62
     7
 10
45.7805
 20
108.874599999999990
 11
45.7805
 21
110.442600000000000
  0
LINE
  8
PT3-Grafika_wekt5
  6
CONTINUOUS
 62
     7
 10
45.7805
 20
110.442600000000000
 11
45.7805
 21
108.015999999999990
  0
LINE
  8
PT3-Grafika_wekt5
  6
CONTINUOUS
 62
     7
 10
45.6888
 20
93.947300000000013
 11
45.6888
 21
108.649400000000010
  0
LINE
  8
PT3-Grafika_wekt5
  6
CONTINUOUS
 62
     7
 10
45.6888
 20
108.649400000000010
 11
45.7805
 21
108.649400000000010
  0
LINE
  8
PT3-Grafika_wekt5
  6
CONTINUOUS
 62
     7
 10
45.7805
 20
108.649400000000010
 11
45.7805
 21
108.650200000000010
  0
LINE
  8
PT3-Grafika_wekt5
  6
CONTINUOUS
 62
     7
 10
45.7805
 20
108.650200000000010
 11
45.6881
 21
108.650200000000010
  0
LINE
  8
PT3-Grafika_wekt5
  6
CONTINUOUS
 62
     7
 10
45.7514
 20
91.516500000000008
 11
45.7514
 21
92.289099999999991
  0
LINE
  8
PT3-Grafika_wekt5
  6
CONTINUOUS
 62
     7
 10
45.7514
 20
92.289099999999991
 11
45.7545
 21
92.289099999999991
  0
LINE
  8
PT3-Grafika_wekt5
  6
CONTINUOUS
 62
     7
 10
45.7545
 20
92.289099999999991
 11
45.7545
 21
91.516500000000008
  0
LINE
  8
PT3-Grafika_wekt5
  6
CONTINUOUS
 62
     7
 10
45.7545
 20
91.516500000000008
 11
45.7514
 21
91.516500000000008
  0
LINE
  8
PT3-Grafika_wekt5
  6
CONTINUOUS
 62
     7
 10
45.7514
 20
92.289099999999991
 11
45.8764
 21
92.289099999999991
  0
LINE
  8
PT3-Grafika_wekt5
  6
CONTINUOUS
 62
     7
 10
45.8764
 20
92.289099999999991
 11
45.796
 21
92.289099999999991
  0
LINE
  8
PT3-Grafika_wekt5
  6
CONTINUOUS
 62
     7
 10
45.796
 20
92.289099999999991
 11
45.865
 21
92.289099999999991
  0
LINE
  8
PT3-Grafika_wekt5
  6
CONTINUOUS
 62
     7
 10
45.7514
 20
107.243400000000010
 11
45.7514
 21
108.015999999999990
  0
LINE
  8
PT3-Grafika_wekt5
  6
CONTINUOUS
 62
     7
 10
45.7514
 20
108.015999999999990
 11
45.7545
 21
108.015999999999990
  0
LINE
  8
PT3-Grafika_wekt5
  6
CONTINUOUS
 62
     7
 10
45.7545
 20
108.015999999999990
 11
45.7545
 21
107.243400000000010
  0
LINE
  8
PT3-Grafika_wekt5
  6
CONTINUOUS
 62
     7
 10
45.7545
 20
107.243400000000010
 11
45.7514
 21
107.243400000000010
  0
LINE
  8
PT3-Grafika_wekt5
  6
CONTINUOUS
 62
     7
 10
45.7545
 20
91.516500000000008
 11
45.8042
 21
91.516500000000008
  0
LINE
  8
PT3-Grafika_wekt5
  6
CONTINUOUS
 62
     7
 10
45.8042
 20
91.516500000000008
 11
45.8042
 21
92.289099999999991
  0
LINE
  8
PT3-Grafika_wekt5
  6
CONTINUOUS
 62
     7
 10
45.8042
 20
92.289099999999991
 11
45.7545
 21
92.289099999999991
  0
LINE
  8
PT3-Grafika_wekt5
  6
CONTINUOUS
 62
     7
 10
45.7545
 20
107.243400000000010
 11
45.8042
 21
107.243400000000010
  0
LINE
  8
PT3-Grafika_wekt5
  6
CONTINUOUS
 62
     7
 10
45.8042
 20
107.243400000000010
 11
45.8042
 21
108.015999999999990
  0
LINE
  8
PT3-Grafika_wekt5
  6
CONTINUOUS
 62
     7
 10
45.8042
 20
108.015999999999990
 11
45.7545
 21
108.015999999999990
  0
LINE
  8
PT3-Grafika_wekt5
  6
CONTINUOUS
 62
     7
 10
45.7805
 20
89.323000000000008
 11
45.7805
 21
91.516500000000008
  0
LINE
  8
PT3-Grafika_wekt5
  6
CONTINUOUS
 62
     7
 10
45.7805
 20
91.516500000000008
 11
45.7805
 21
89.326699999999988
  0
LINE
  8
PT3-Grafika_wekt5
  6
CONTINUOUS
 62
     7
 10
45.7805
 20
92.289099999999991
 11
45.7805
 21
93.725500000000011
  0
LINE
  8
PT3-Grafika_wekt5
  6
CONTINUOUS
 62
     7
 10
45.7805
 20
93.725500000000011
 11
45.6881
 21
93.725500000000011
  0
LINE
  8
PT3-Grafika_wekt5
  6
CONTINUOUS
 62
     7
 10
45.7805
 20
93.947300000000013
 11
45.6888
 21
93.947300000000013
  0
LINE
  8
PT3-Grafika_wekt5
  6
CONTINUOUS
 62
     7
 10
45.7805
 20
107.243400000000010
 11
45.7805
 21
92.289099999999991
  0
LINE
  8
PT3-Grafika_wekt5
  6
CONTINUOUS
 62
     7
 10
45.7805
 20
108.874599999999990
 11
45.7805
 21
110.446699999999990
  0
LINE
  8
PT3-Grafika_wekt5
  6
CONTINUOUS
 62
     7
 10
45.7805
 20
110.446699999999990
 11
45.9764
 21
110.446699999999990
  0
LINE
  8
PT3-Grafika_wekt5
  6
CONTINUOUS
 62
     7
 10
45.9764
 20
110.446699999999990
 11
45.9764
 21
110.442500000000000
  0
LINE
  8
PT3-Grafika_wekt5
  6
CONTINUOUS
 62
     7
 10
45.9764
 20
110.442500000000000
 11
45.7805
 21
110.442600000000000
  0
LINE
  8
PT3-Grafika_wekt5
  6
CONTINUOUS
 62
     7
 10
45.8042
 20
91.516500000000008
 11
45.8815
 21
91.516500000000008
  0
LINE
  8
PT3-Grafika_wekt5
  6
CONTINUOUS
 62
     7
 10
45.8815
 20
91.516500000000008
 11
45.8815
 21
92.289099999999991
  0
LINE
  8
PT3-Grafika_wekt5
  6
CONTINUOUS
 62
     7
 10
45.8815
 20
92.289099999999991
 11
45.8042
 21
92.289099999999991
  0
LINE
  8
PT3-Grafika_wekt5
  6
CONTINUOUS
 62
     7
 10
45.8042
 20
107.243400000000010
 11
45.8815
 21
107.243400000000010
  0
LINE
  8
PT3-Grafika_wekt5
  6
CONTINUOUS
 62
     7
 10
45.8815
 20
107.243400000000010
 11
45.8815
 21
108.015999999999990
  0
LINE
  8
PT3-Grafika_wekt5
  6
CONTINUOUS
 62
     7
 10
45.8815
 20
108.015999999999990
 11
45.8042
 21
108.015999999999990
  0
LINE
  8
PT3-Grafika_wekt5
  6
CONTINUOUS
 62
     7
 10
45.8715
 20
92.289099999999991
 11
45.9568
 21
92.289099999999991
  0
LINE
  8
PT3-Grafika_wekt5
  6
CONTINUOUS
 62
     7
 10
45.9568
 20
92.289099999999991
 11
45.9568
 21
91.516500000000008
  0
LINE
  8
PT3-Grafika_wekt5
  6
CONTINUOUS
 62
     7
 10
45.9568
 20
91.516500000000008
 11
45.8815
 21
91.516500000000008
  0
LINE
  8
PT3-Grafika_wekt5
  6
CONTINUOUS
 62
     7
 10
45.8815
 20
107.243400000000010
 11
45.9568
 21
107.243400000000010
  0
LINE
  8
PT3-Grafika_wekt5
  6
CONTINUOUS
 62
     7
 10
45.9568
 20
107.243400000000010
 11
45.9568
 21
108.015999999999990
  0
LINE
  8
PT3-Grafika_wekt5
  6
CONTINUOUS
 62
     7
 10
45.9568
 20
108.015999999999990
 11
45.8815
 21
108.015999999999990
  0
LINE
  8
PT3-Grafika_wekt5
  6
CONTINUOUS
 62
     7
 10
45.9568
 20
91.516500000000008
 11
46.0015
 21
91.516500000000008
  0
LINE
  8
PT3-Grafika_wekt5
  6
CONTINUOUS
 62
     7
 10
46.0015
 20
91.516500000000008
 11
46.0015
 21
92.289099999999991
  0
LINE
  8
PT3-Grafika_wekt5
  6
CONTINUOUS
 62
     7
 10
46.0015
 20
92.289099999999991
 11
45.9568
 21
92.289099999999991
  0
LINE
  8
PT3-Grafika_wekt5
  6
CONTINUOUS
 62
     7
 10
45.9568
 20
107.243400000000010
 11
46.0015
 21
107.243400000000010
  0
LINE
  8
PT3-Grafika_wekt5
  6
CONTINUOUS
 62
     7
 10
46.0015
 20
107.243400000000010
 11
46.0015
 21
108.015999999999990
  0
LINE
  8
PT3-Grafika_wekt5
  6
CONTINUOUS
 62
     7
 10
46.0015
 20
108.015999999999990
 11
45.9568
 21
108.015999999999990
  0
LINE
  8
PT3-Grafika_wekt5
  6
CONTINUOUS
 62
     7
 10
45.9764
 20
89.323000000000008
 11
45.7805
 21
89.323000000000008
  0
LINE
  8
PT3-Grafika_wekt5
  6
CONTINUOUS
 62
     7
 10
45.9764
 20
89.323000000000008
 11
45.9802
 21
89.323499999999996
  0
LINE
  8
PT3-Grafika_wekt5
  6
CONTINUOUS
 62
     7
 10
45.9802
 20
89.323499999999996
 11
45.9802
 21
91.516500000000008
  0
LINE
  8
PT3-Grafika_wekt5
  6
CONTINUOUS
 62
     7
 10
45.9764
 20
91.516500000000008
 11
45.9764
 21
89.323000000000008
  0
LINE
  8
PT3-Grafika_wekt5
  6
CONTINUOUS
 62
     7
 10
45.9764
 20
92.289099999999991
 11
45.9764
 21
107.243400000000010
  0
LINE
  8
PT3-Grafika_wekt5
  6
CONTINUOUS
 62
     7
 10
45.9764
 20
108.015999999999990
 11
45.9764
 21
110.442500000000000
  0
LINE
  8
PT3-Grafika_wekt5
  6
CONTINUOUS
 62
     7
 10
45.9764
 20
110.442500000000000
 11
45.9802
 21
110.197399999999990
  0
LINE
  8
PT3-Grafika_wekt5
  6
CONTINUOUS
 62
     7
 10
45.9802
 20
110.197399999999990
 11
45.9802
 21
108.015999999999990
  0
LINE
  8
PT3-Grafika_wekt5
  6
CONTINUOUS
 62
     7
 10
45.9764
 20
110.440300000000010
 11
45.9787
 21
110.440300000000010
  0
LINE
  8
PT3-Grafika_wekt5
  6
CONTINUOUS
 62
     7
 10
45.9787
 20
110.440300000000010
 11
45.9787
 21
110.297200000000000
  0
LINE
  8
PT3-Grafika_wekt5
  6
CONTINUOUS
 62
     7
 10
45.9764
 20
110.446699999999990
 11
45.9764
 21
110.440300000000010
  0
LINE
  8
PT3-Grafika_wekt5
  6
CONTINUOUS
 62
     7
 10
45.9787
 20
110.301300000000000
 11
45.979
 21
110.277700000000010
  0
LINE
  8
PT3-Grafika_wekt5
  6
CONTINUOUS
 62
     7
 10
45.9787
 20
110.440300000000010
 11
45.979
 21
110.272899999999990
  0
LINE
  8
PT3-Grafika_wekt5
  6
CONTINUOUS
 62
     7
 10
45.9802
 20
89.323499999999996
 11
46.006
 21
89.323499999999996
  0
LINE
  8
PT3-Grafika_wekt5
  6
CONTINUOUS
 62
     7
 10
45.9802
 20
92.289099999999991
 11
45.9802
 21
107.243400000000010
  0
LINE
  8
PT3-Grafika_wekt5
  6
CONTINUOUS
 62
     7
 10
45.9802
 20
110.197399999999990
 11
46.006
 21
110.197399999999990
  0
LINE
  8
PT3-Grafika_wekt5
  6
CONTINUOUS
 62
     7
 10
45.9824
 20
110.216299999999990
 11
45.9787
 21
110.440300000000010
  0
LINE
  8
PT3-Grafika_wekt5
  6
CONTINUOUS
 62
     7
 10
46.006
 20
110.216299999999990
 11
45.9824
 21
110.216299999999990
  0
LINE
  8
PT3-Grafika_wekt5
  6
CONTINUOUS
 62
     7
 10
45.9972
 20
89.323000000000008
 11
45.9972
 21
89.323499999999996
  0
LINE
  8
PT3-Grafika_wekt5
  6
CONTINUOUS
 62
     7
 10
45.9972
 20
110.446499999999990
 11
45.9972
 21
111.331400000000000
  0
LINE
  8
PT3-Grafika_wekt5
  6
CONTINUOUS
 62
     7
 10
45.9972
 20
111.331400000000000
 11
46.006
 21
111.331400000000000
  0
LINE
  8
PT3-Grafika_wekt5
  6
CONTINUOUS
 62
     7
 10
45.9996
 20
110.232599999999990
 11
46.006
 21
110.232599999999990
  0
LINE
  8
PT3-Grafika_wekt5
  6
CONTINUOUS
 62
     7
 10
46.0045
 20
110.234900000000010
 11
46.006
 21
110.234900000000010
  0
LINE
  8
PT3-Grafika_wekt5
  6
CONTINUOUS
 62
     7
 10
46.006
 20
89.323000000000008
 11
46.006
 21
111.332200000000000
  0
LINE
  8
PT3-Grafika_wekt5
  6
CONTINUOUS
 62
     7
 10
46.006
 20
111.332200000000000
 11
46.1973
 21
111.332200000000000
  0
LINE
  8
PT3-Grafika_wekt5
  6
CONTINUOUS
 62
     7
 10
46.006
 20
110.233700000000000
 11
45.9996
 21
110.232599999999990
  0
LINE
  8
PT3-Grafika_wekt5
  6
CONTINUOUS
 62
     7
 10
46.1973
 20
89.323000000000008
 11
45.9972
 21
89.323000000000008
  0
LINE
  8
PT3-Grafika_wekt5
  6
CONTINUOUS
 62
     7
 10
45.6956
 20
93.725099999999998
 11
45.6956
 21
93.725500000000011
  0
LINE
  8
PT3-Grafika_wekt5
  6
CONTINUOUS
 62
     7
 10
45.6956
 20
108.874599999999990
 11
45.6956
 21
108.875300000000010
  0
LINE
  8
PT3-Grafika_wekt5
  6
CONTINUOUS
 62
     7
 10
45.6956
 20
108.875300000000010
 11
45.7805
 21
108.875300000000010
  0
LINE
  8
PT3-Grafika_wekt5
  6
CONTINUOUS
 62
     7
 10
45.6964
 20
108.649400000000010
 11
45.6964
 21
108.650200000000010
  0
LINE
  8
PT3-Grafika_wekt5
  6
CONTINUOUS
 62
     7
 10
45.6964
 20
108.650200000000010
 11
45.7805
 21
108.650200000000010
  0
LINE
  8
PT3-Grafika_wekt5
  6
CONTINUOUS
 62
     7
 10
45.7589
 20
92.289099999999991
 11
45.7589
 21
92.289899999999989
  0
LINE
  8
PT3-Grafika_wekt5
  6
CONTINUOUS
 62
     7
 10
45.7589
 20
92.289899999999989
 11
45.762
 21
92.289899999999989
  0
LINE
  8
PT3-Grafika_wekt5
  6
CONTINUOUS
 62
     7
 10
45.762
 20
92.289899999999989
 11
45.762
 21
92.289099999999991
  0
LINE
  8
PT3-Grafika_wekt5
  6
CONTINUOUS
 62
     7
 10
45.7589
 20
92.289899999999989
 11
45.7805
 21
92.289899999999989
  0
LINE
  8
PT3-Grafika_wekt5
  6
CONTINUOUS
 62
     7
 10
45.7805
 20
92.289899999999989
 11
45.762
 21
92.289899999999989
  0
LINE
  8
PT3-Grafika_wekt5
  6
CONTINUOUS
 62
     7
 10
45.7805
 20
93.725099999999998
 11
45.6956
 21
93.725099999999998
  0
LINE
  8
PT3-Grafika_wekt5
  6
CONTINUOUS
 62
     7
 10
45.7881
 20
89.323000000000008
 11
45.9839
 21
89.323000000000008
  0
LINE
  8
PT3-Grafika_wekt5
  6
CONTINUOUS
 62
     7
 10
45.9839
 20
89.323000000000008
 11
45.9839
 21
89.323499999999996
  0
LINE
  8
PT3-Grafika_wekt5
  6
CONTINUOUS
 62
     7
 10
45.7938
 20
110.446699999999990
 11
45.7938
 21
110.447399999999990
  0
LINE
  8
PT3-Grafika_wekt5
  6
CONTINUOUS
 62
     7
 10
45.7938
 20
110.447399999999990
 11
45.9619
 21
110.446699999999990
  0
LINE
  8
PT3-Grafika_wekt5
  6
CONTINUOUS
 62
     7
 10
45.9764
 20
110.446499999999990
 11
46.0011
 21
110.446499999999990
  0
LINE
  8
PT3-Grafika_wekt5
  6
CONTINUOUS
 62
     7
 10
46.0011
 20
110.446499999999990
 11
46.0011
 21
110.232900000000000
  0
LINE
  8
PT3-Grafika_wekt5
  6
CONTINUOUS
 62
     7
 10
45.9877
 20
89.323499999999996
 11
46.006
 21
89.323499999999996
  0
LINE
  8
PT3-Grafika_wekt5
  6
CONTINUOUS
 62
     7
 10
46.0011
 20
110.216299999999990
 11
46.0011
 21
110.232599999999990
  0
LINE
  8
PT3-Grafika_wekt5
  6
CONTINUOUS
 62
     7
 10
46.0011
 20
110.446499999999990
 11
46.0046
 21
110.233399999999990
  0
LINE
  8
PT3-Grafika_wekt5
  6
CONTINUOUS
 62
     7
 10
46.0046
 20
110.232599999999990
 11
46.0048
 21
110.216299999999990
  0
LINE
  8
PT3-Grafika_wekt5
  6
CONTINUOUS
 62
     7
 10
46.0048
 20
110.217099999999990
 11
46.006
 21
110.217099999999990
  0
LINE
  8
PT3-Grafika_wekt5
  6
CONTINUOUS
 62
     7
 10
108.4724
 20
99.331099999999992
 11
108.4724
 21
99.631300000000010
  0
LINE
  8
PT3-Grafika_wekt5
  6
CONTINUOUS
 62
     7
 10
108.4724
 20
99.631300000000010
 11
125.0791
 21
99.631300000000010
  0
LINE
  8
PT3-Grafika_wekt5
  6
CONTINUOUS
 62
     7
 10
125.0791
 20
99.631300000000010
 11
125.0791
 21
99.331099999999992
  0
LINE
  8
PT3-Grafika_wekt5
  6
CONTINUOUS
 62
     7
 10
125.0791
 20
99.331099999999992
 11
108.4724
 21
99.331099999999992
  0
LINE
  8
PT3-Grafika_wekt5
  6
CONTINUOUS
 62
     7
 10
108.4724
 20
100.131700000000000
 11
108.6724
 21
100.331799999999990
  0
LINE
  8
PT3-Grafika_wekt5
  6
CONTINUOUS
 62
     7
 10
108.6724
 20
100.331799999999990
 11
108.6724
 21
118.646500000000000
  0
LINE
  8
PT3-Grafika_wekt5
  6
CONTINUOUS
 62
     7
 10
108.6724
 20
118.646500000000000
 11
108.4724
 21
118.846600000000000
  0
LINE
  8
PT3-Grafika_wekt5
  6
CONTINUOUS
 62
     7
 10
108.6724
 20
100.331799999999990
 11
124.8789
 21
100.331799999999990
  0
LINE
  8
PT3-Grafika_wekt5
  6
CONTINUOUS
 62
     7
 10
124.8789
 20
100.331799999999990
 11
124.8789
 21
111.640899999999990
  0
LINE
  8
PT3-Grafika_wekt5
  6
CONTINUOUS
 62
     7
 10
124.8789
 20
111.640899999999990
 11
108.6724
 21
111.640899999999990
  0
LINE
  8
PT3-Grafika_wekt5
  6
CONTINUOUS
 62
     7
 10
108.6724
 20
112.341399999999990
 11
124.8789
 21
112.341399999999990
  0
LINE
  8
PT3-Grafika_wekt5
  6
CONTINUOUS
 62
     7
 10
124.8789
 20
112.341399999999990
 11
124.8789
 21
118.646500000000000
  0
LINE
  8
PT3-Grafika_wekt5
  6
CONTINUOUS
 62
     7
 10
124.8789
 20
118.646500000000000
 11
108.6724
 21
118.646500000000000
  0
LINE
  8
PT3-Grafika_wekt5
  6
CONTINUOUS
 62
     7
 10
116.3755
 20
100.331799999999990
 11
116.3755
 21
111.640899999999990
  0
LINE
  8
PT3-Grafika_wekt5
  6
CONTINUOUS
 62
     7
 10
117.1759
 20
100.331799999999990
 11
117.1759
 21
111.640899999999990
  0
LINE
  8
PT3-Grafika_wekt5
  6
CONTINUOUS
 62
     7
 10
124.8789
 20
100.331799999999990
 11
124.8789
 21
118.646500000000000
  0
LINE
  8
PT3-Grafika_wekt5
  6
CONTINUOUS
 62
     7
 10
124.8789
 20
118.646500000000000
 11
125.0791
 21
118.846600000000000
  0
LINE
  8
PT3-Grafika_wekt5
  6
CONTINUOUS
 62
     7
 10
125.0791
 20
100.131700000000000
 11
124.8789
 21
100.331799999999990
  0
LINE
  8
PT3-Grafika_wekt5
  6
CONTINUOUS
 62
     7
 10
82.4619
 20
99.331099999999992
 11
82.4619
 21
99.631300000000010
  0
LINE
  8
PT3-Grafika_wekt5
  6
CONTINUOUS
 62
     7
 10
82.4619
 20
99.631300000000010
 11
99.0686
 21
99.631300000000010
  0
LINE
  8
PT3-Grafika_wekt5
  6
CONTINUOUS
 62
     7
 10
99.0686
 20
99.631300000000010
 11
99.0686
 21
99.331099999999992
  0
LINE
  8
PT3-Grafika_wekt5
  6
CONTINUOUS
 62
     7
 10
99.0686
 20
99.331099999999992
 11
82.4619
 21
99.331099999999992
  0
LINE
  8
PT3-Grafika_wekt5
  6
CONTINUOUS
 62
     7
 10
82.4619
 20
100.131700000000000
 11
82.6619
 21
100.331799999999990
  0
LINE
  8
PT3-Grafika_wekt5
  6
CONTINUOUS
 62
     7
 10
82.6619
 20
100.331799999999990
 11
82.6619
 21
118.646500000000000
  0
LINE
  8
PT3-Grafika_wekt5
  6
CONTINUOUS
 62
     7
 10
82.6619
 20
118.646500000000000
 11
82.4619
 21
118.846600000000000
  0
LINE
  8
PT3-Grafika_wekt5
  6
CONTINUOUS
 62
     7
 10
82.6619
 20
100.331799999999990
 11
98.8685
 21
100.331799999999990
  0
LINE
  8
PT3-Grafika_wekt5
  6
CONTINUOUS
 62
     7
 10
98.8685
 20
100.331799999999990
 11
98.8685
 21
111.640899999999990
  0
LINE
  8
PT3-Grafika_wekt5
  6
CONTINUOUS
 62
     7
 10
98.8685
 20
111.640899999999990
 11
82.6619
 21
111.640899999999990
  0
LINE
  8
PT3-Grafika_wekt5
  6
CONTINUOUS
 62
     7
 10
82.6619
 20
112.341399999999990
 11
98.8685
 21
112.341399999999990
  0
LINE
  8
PT3-Grafika_wekt5
  6
CONTINUOUS
 62
     7
 10
98.8685
 20
112.341399999999990
 11
98.8685
 21
118.646500000000000
  0
LINE
  8
PT3-Grafika_wekt5
  6
CONTINUOUS
 62
     7
 10
98.8685
 20
118.646500000000000
 11
82.6619
 21
118.646500000000000
  0
LINE
  8
PT3-Grafika_wekt5
  6
CONTINUOUS
 62
     7
 10
90.3651
 20
100.331799999999990
 11
90.3651
 21
111.640899999999990
  0
LINE
  8
PT3-Grafika_wekt5
  6
CONTINUOUS
 62
     7
 10
91.1654
 20
100.331799999999990
 11
91.1654
 21
111.640899999999990
  0
LINE
  8
PT3-Grafika_wekt5
  6
CONTINUOUS
 62
     7
 10
98.8685
 20
100.331799999999990
 11
98.8685
 21
118.646500000000000
  0
LINE
  8
PT3-Grafika_wekt5
  6
CONTINUOUS
 62
     7
 10
98.8685
 20
118.646500000000000
 11
99.0686
 21
118.846600000000000
  0
LINE
  8
PT3-Grafika_wekt5
  6
CONTINUOUS
 62
     7
 10
99.0686
 20
100.131700000000000
 11
98.8685
 21
100.331799999999990
  0
LINE
  8
PT3-Grafika_wekt5
  6
CONTINUOUS
 62
     7
 10
56.4514
 20
99.331099999999992
 11
56.4514
 21
99.631300000000010
  0
LINE
  8
PT3-Grafika_wekt5
  6
CONTINUOUS
 62
     7
 10
56.4514
 20
99.631300000000010
 11
73.0581
 21
99.631300000000010
  0
LINE
  8
PT3-Grafika_wekt5
  6
CONTINUOUS
 62
     7
 10
73.0581
 20
99.631300000000010
 11
73.0581
 21
99.331099999999992
  0
LINE
  8
PT3-Grafika_wekt5
  6
CONTINUOUS
 62
     7
 10
73.0581
 20
99.331099999999992
 11
56.4514
 21
99.331099999999992
  0
LINE
  8
PT3-Grafika_wekt5
  6
CONTINUOUS
 62
     7
 10
56.4514
 20
100.131700000000000
 11
56.6514
 21
100.331799999999990
  0
LINE
  8
PT3-Grafika_wekt5
  6
CONTINUOUS
 62
     7
 10
56.6514
 20
100.331799999999990
 11
56.6514
 21
118.646500000000000
  0
LINE
  8
PT3-Grafika_wekt5
  6
CONTINUOUS
 62
     7
 10
56.6514
 20
118.646500000000000
 11
56.4514
 21
118.846600000000000
  0
LINE
  8
PT3-Grafika_wekt5
  6
CONTINUOUS
 62
     7
 10
56.6514
 20
100.331799999999990
 11
72.858
 21
100.331799999999990
  0
LINE
  8
PT3-Grafika_wekt5
  6
CONTINUOUS
 62
     7
 10
72.858
 20
100.331799999999990
 11
72.858
 21
111.640899999999990
  0
LINE
  8
PT3-Grafika_wekt5
  6
CONTINUOUS
 62
     7
 10
72.858
 20
111.640899999999990
 11
56.6514
 21
111.640899999999990
  0
LINE
  8
PT3-Grafika_wekt5
  6
CONTINUOUS
 62
     7
 10
56.6514
 20
112.341399999999990
 11
72.858
 21
112.341399999999990
  0
LINE
  8
PT3-Grafika_wekt5
  6
CONTINUOUS
 62
     7
 10
72.858
 20
112.341399999999990
 11
72.858
 21
118.646500000000000
  0
LINE
  8
PT3-Grafika_wekt5
  6
CONTINUOUS
 62
     7
 10
72.858
 20
118.646500000000000
 11
56.6514
 21
118.646500000000000
  0
LINE
  8
PT3-Grafika_wekt5
  6
CONTINUOUS
 62
     7
 10
64.3546
 20
100.331799999999990
 11
64.3546
 21
111.640899999999990
  0
LINE
  8
PT3-Grafika_wekt5
  6
CONTINUOUS
 62
     7
 10
65.1549
 20
100.331799999999990
 11
65.1549
 21
111.640899999999990
  0
LINE
  8
PT3-Grafika_wekt5
  6
CONTINUOUS
 62
     7
 10
72.858
 20
100.331799999999990
 11
72.858
 21
118.646500000000000
  0
LINE
  8
PT3-Grafika_wekt5
  6
CONTINUOUS
 62
     7
 10
72.858
 20
118.646500000000000
 11
73.0581
 21
118.846600000000000
  0
LINE
  8
PT3-Grafika_wekt5
  6
CONTINUOUS
 62
     7
 10
73.0581
 20
100.131700000000000
 11
72.858
 21
100.331799999999990
  0
LINE
  8
PT3-Grafika_wekt5
  6
CONTINUOUS
 62
     7
 10
151.0395
 20
99.331099999999992
 11
151.0395
 21
99.631300000000010
  0
LINE
  8
PT3-Grafika_wekt5
  6
CONTINUOUS
 62
     7
 10
151.0395
 20
99.631300000000010
 11
157.0419
 21
99.631300000000010
  0
LINE
  8
PT3-Grafika_wekt5
  6
CONTINUOUS
 62
     7
 10
157.0419
 20
99.631300000000010
 11
157.0419
 21
99.331099999999992
  0
LINE
  8
PT3-Grafika_wekt5
  6
CONTINUOUS
 62
     7
 10
157.0419
 20
99.331099999999992
 11
151.0395
 21
99.331099999999992
  0
LINE
  8
PT3-Grafika_wekt5
  6
CONTINUOUS
 62
     7
 10
151.0395
 20
100.131700000000000
 11
151.2396
 21
100.331799999999990
  0
LINE
  8
PT3-Grafika_wekt5
  6
CONTINUOUS
 62
     7
 10
151.2396
 20
100.331799999999990
 11
151.2396
 21
118.646500000000000
  0
LINE
  8
PT3-Grafika_wekt5
  6
CONTINUOUS
 62
     7
 10
151.2396
 20
118.646500000000000
 11
151.0395
 21
118.846600000000000
  0
LINE
  8
PT3-Grafika_wekt5
  6
CONTINUOUS
 62
     7
 10
151.2396
 20
100.331799999999990
 11
156.8418
 21
100.331799999999990
  0
LINE
  8
PT3-Grafika_wekt5
  6
CONTINUOUS
 62
     7
 10
156.8418
 20
100.331799999999990
 11
156.8418
 21
111.640899999999990
  0
LINE
  8
PT3-Grafika_wekt5
  6
CONTINUOUS
 62
     7
 10
156.8418
 20
111.640899999999990
 11
151.2396
 21
111.640899999999990
  0
LINE
  8
PT3-Grafika_wekt5
  6
CONTINUOUS
 62
     7
 10
151.2396
 20
112.341399999999990
 11
156.8418
 21
112.341399999999990
  0
LINE
  8
PT3-Grafika_wekt5
  6
CONTINUOUS
 62
     7
 10
156.8418
 20
112.341399999999990
 11
156.8418
 21
118.646500000000000
  0
LINE
  8
PT3-Grafika_wekt5
  6
CONTINUOUS
 62
     7
 10
156.8418
 20
118.646500000000000
 11
151.2396
 21
118.646500000000000
  0
LINE
  8
PT3-Grafika_wekt5
  6
CONTINUOUS
 62
     7
 10
156.8418
 20
100.331799999999990
 11
156.8418
 21
118.646500000000000
  0
LINE
  8
PT3-Grafika_wekt5
  6
CONTINUOUS
 62
     7
 10
156.8418
 20
118.646500000000000
 11
157.0419
 21
118.846600000000000
  0
LINE
  8
PT3-Grafika_wekt5
  6
CONTINUOUS
 62
     7
 10
157.0419
 20
100.131700000000000
 11
156.8418
 21
100.331799999999990
  0
LINE
  8
PT3-Grafika_wekt5
  6
CONTINUOUS
 62
     7
 10
138.8345
 20
99.331099999999992
 11
138.8345
 21
99.631300000000010
  0
LINE
  8
PT3-Grafika_wekt5
  6
CONTINUOUS
 62
     7
 10
138.8345
 20
99.631300000000010
 11
144.837
 21
99.631300000000010
  0
LINE
  8
PT3-Grafika_wekt5
  6
CONTINUOUS
 62
     7
 10
144.837
 20
99.631300000000010
 11
144.837
 21
99.331099999999992
  0
LINE
  8
PT3-Grafika_wekt5
  6
CONTINUOUS
 62
     7
 10
144.837
 20
99.331099999999992
 11
138.8345
 21
99.331099999999992
  0
LINE
  8
PT3-Grafika_wekt5
  6
CONTINUOUS
 62
     7
 10
138.8345
 20
100.131700000000000
 11
139.0347
 21
100.331799999999990
  0
LINE
  8
PT3-Grafika_wekt5
  6
CONTINUOUS
 62
     7
 10
139.0347
 20
100.331799999999990
 11
139.0347
 21
118.646500000000000
  0
LINE
  8
PT3-Grafika_wekt5
  6
CONTINUOUS
 62
     7
 10
139.0347
 20
118.646500000000000
 11
138.8345
 21
118.846600000000000
  0
LINE
  8
PT3-Grafika_wekt5
  6
CONTINUOUS
 62
     7
 10
139.0347
 20
100.331799999999990
 11
144.6369
 21
100.331799999999990
  0
LINE
  8
PT3-Grafika_wekt5
  6
CONTINUOUS
 62
     7
 10
144.6369
 20
100.331799999999990
 11
144.6369
 21
111.640899999999990
  0
LINE
  8
PT3-Grafika_wekt5
  6
CONTINUOUS
 62
     7
 10
144.6369
 20
111.640899999999990
 11
139.0347
 21
111.640899999999990
  0
LINE
  8
PT3-Grafika_wekt5
  6
CONTINUOUS
 62
     7
 10
139.0347
 20
112.341399999999990
 11
144.6369
 21
112.341399999999990
  0
LINE
  8
PT3-Grafika_wekt5
  6
CONTINUOUS
 62
     7
 10
144.6369
 20
112.341399999999990
 11
144.6369
 21
118.646500000000000
  0
LINE
  8
PT3-Grafika_wekt5
  6
CONTINUOUS
 62
     7
 10
144.6369
 20
118.646500000000000
 11
139.0347
 21
118.646500000000000
  0
LINE
  8
PT3-Grafika_wekt5
  6
CONTINUOUS
 62
     7
 10
144.6369
 20
100.331799999999990
 11
144.6369
 21
118.646500000000000
  0
LINE
  8
PT3-Grafika_wekt5
  6
CONTINUOUS
 62
     7
 10
144.6369
 20
118.646500000000000
 11
144.837
 21
118.846600000000000
  0
LINE
  8
PT3-Grafika_wekt5
  6
CONTINUOUS
 62
     7
 10
144.837
 20
100.131700000000000
 11
144.6369
 21
100.331799999999990
  0
LINE
  8
PT3-Grafika_wekt5
  6
CONTINUOUS
 62
     7
 10
223.4186
 20
99.331099999999992
 11
223.4186
 21
99.631300000000010
  0
LINE
  8
PT3-Grafika_wekt5
  6
CONTINUOUS
 62
     7
 10
223.4186
 20
99.631300000000010
 11
240.0253
 21
99.631300000000010
  0
LINE
  8
PT3-Grafika_wekt5
  6
CONTINUOUS
 62
     7
 10
240.0253
 20
99.631300000000010
 11
240.0253
 21
99.331099999999992
  0
LINE
  8
PT3-Grafika_wekt5
  6
CONTINUOUS
 62
     7
 10
240.0253
 20
99.331099999999992
 11
223.4186
 21
99.331099999999992
  0
LINE
  8
PT3-Grafika_wekt5
  6
CONTINUOUS
 62
     7
 10
223.4186
 20
100.131599999999990
 11
223.6187
 21
100.331799999999990
  0
LINE
  8
PT3-Grafika_wekt5
  6
CONTINUOUS
 62
     7
 10
223.6187
 20
100.331799999999990
 11
223.6187
 21
118.646500000000000
  0
LINE
  8
PT3-Grafika_wekt5
  6
CONTINUOUS
 62
     7
 10
223.6187
 20
118.646500000000000
 11
223.4186
 21
118.846600000000000
  0
LINE
  8
PT3-Grafika_wekt5
  6
CONTINUOUS
 62
     7
 10
223.6187
 20
100.331799999999990
 11
239.8252
 21
100.331799999999990
  0
LINE
  8
PT3-Grafika_wekt5
  6
CONTINUOUS
 62
     7
 10
239.8252
 20
100.331799999999990
 11
239.8252
 21
111.640899999999990
  0
LINE
  8
PT3-Grafika_wekt5
  6
CONTINUOUS
 62
     7
 10
239.8252
 20
111.640899999999990
 11
223.6187
 21
111.640899999999990
  0
LINE
  8
PT3-Grafika_wekt5
  6
CONTINUOUS
 62
     7
 10
223.6187
 20
112.341399999999990
 11
239.8252
 21
112.341399999999990
  0
LINE
  8
PT3-Grafika_wekt5
  6
CONTINUOUS
 62
     7
 10
239.8252
 20
112.341399999999990
 11
239.8252
 21
118.646500000000000
  0
LINE
  8
PT3-Grafika_wekt5
  6
CONTINUOUS
 62
     7
 10
239.8252
 20
118.646500000000000
 11
223.6187
 21
118.646500000000000
  0
LINE
  8
PT3-Grafika_wekt5
  6
CONTINUOUS
 62
     7
 10
231.3218
 20
100.331799999999990
 11
231.3218
 21
111.640899999999990
  0
LINE
  8
PT3-Grafika_wekt5
  6
CONTINUOUS
 62
     7
 10
232.1221
 20
100.331799999999990
 11
232.1221
 21
111.640899999999990
  0
LINE
  8
PT3-Grafika_wekt5
  6
CONTINUOUS
 62
     7
 10
239.8252
 20
100.331799999999990
 11
239.8252
 21
118.646500000000000
  0
LINE
  8
PT3-Grafika_wekt5
  6
CONTINUOUS
 62
     7
 10
239.8252
 20
118.646500000000000
 11
240.0253
 21
118.846600000000000
  0
LINE
  8
PT3-Grafika_wekt5
  6
CONTINUOUS
 62
     7
 10
240.0253
 20
100.131700000000000
 11
239.8252
 21
100.331799999999990
  0
LINE
  8
PT3-Grafika_wekt5
  6
CONTINUOUS
 62
     7
 10
197.4081
 20
99.331099999999992
 11
197.4081
 21
99.631300000000010
  0
LINE
  8
PT3-Grafika_wekt5
  6
CONTINUOUS
 62
     7
 10
197.4081
 20
99.631300000000010
 11
214.0148
 21
99.631300000000010
  0
LINE
  8
PT3-Grafika_wekt5
  6
CONTINUOUS
 62
     7
 10
214.0148
 20
99.631300000000010
 11
214.0148
 21
99.331099999999992
  0
LINE
  8
PT3-Grafika_wekt5
  6
CONTINUOUS
 62
     7
 10
214.0148
 20
99.331099999999992
 11
197.4081
 21
99.331099999999992
  0
LINE
  8
PT3-Grafika_wekt5
  6
CONTINUOUS
 62
     7
 10
197.4081
 20
100.131700000000000
 11
197.6082
 21
100.331799999999990
  0
LINE
  8
PT3-Grafika_wekt5
  6
CONTINUOUS
 62
     7
 10
197.6082
 20
100.331799999999990
 11
197.6082
 21
118.646500000000000
  0
LINE
  8
PT3-Grafika_wekt5
  6
CONTINUOUS
 62
     7
 10
197.6082
 20
118.646500000000000
 11
197.4081
 21
118.846600000000000
  0
LINE
  8
PT3-Grafika_wekt5
  6
CONTINUOUS
 62
     7
 10
197.6082
 20
100.331799999999990
 11
213.8147
 21
100.331799999999990
  0
LINE
  8
PT3-Grafika_wekt5
  6
CONTINUOUS
 62
     7
 10
213.8147
 20
100.331799999999990
 11
213.8147
 21
111.640899999999990
  0
LINE
  8
PT3-Grafika_wekt5
  6
CONTINUOUS
 62
     7
 10
213.8147
 20
111.640899999999990
 11
197.6082
 21
111.640899999999990
  0
LINE
  8
PT3-Grafika_wekt5
  6
CONTINUOUS
 62
     7
 10
197.6082
 20
112.341399999999990
 11
213.8147
 21
112.341399999999990
  0
LINE
  8
PT3-Grafika_wekt5
  6
CONTINUOUS
 62
     7
 10
213.8147
 20
112.341399999999990
 11
213.8147
 21
118.646500000000000
  0
LINE
  8
PT3-Grafika_wekt5
  6
CONTINUOUS
 62
     7
 10
213.8147
 20
118.646500000000000
 11
197.6082
 21
118.646500000000000
  0
LINE
  8
PT3-Grafika_wekt5
  6
CONTINUOUS
 62
     7
 10
205.3113
 20
100.331799999999990
 11
205.3113
 21
111.640899999999990
  0
LINE
  8
PT3-Grafika_wekt5
  6
CONTINUOUS
 62
     7
 10
206.1116
 20
100.331799999999990
 11
206.1116
 21
111.640899999999990
  0
LINE
  8
PT3-Grafika_wekt5
  6
CONTINUOUS
 62
     7
 10
213.8147
 20
100.331799999999990
 11
213.8147
 21
118.646500000000000
  0
LINE
  8
PT3-Grafika_wekt5
  6
CONTINUOUS
 62
     7
 10
213.8147
 20
118.646500000000000
 11
214.0148
 21
118.846600000000000
  0
LINE
  8
PT3-Grafika_wekt5
  6
CONTINUOUS
 62
     7
 10
214.0148
 20
100.131700000000000
 11
213.8147
 21
100.331799999999990
  0
LINE
  8
PT3-Grafika_wekt5
  6
CONTINUOUS
 62
     7
 10
171.3977
 20
99.331099999999992
 11
171.3977
 21
99.631300000000010
  0
LINE
  8
PT3-Grafika_wekt5
  6
CONTINUOUS
 62
     7
 10
171.3977
 20
99.631300000000010
 11
188.0043
 21
99.631300000000010
  0
LINE
  8
PT3-Grafika_wekt5
  6
CONTINUOUS
 62
     7
 10
188.0043
 20
99.631300000000010
 11
188.0043
 21
99.331099999999992
  0
LINE
  8
PT3-Grafika_wekt5
  6
CONTINUOUS
 62
     7
 10
188.0043
 20
99.331099999999992
 11
171.3977
 21
99.331099999999992
  0
LINE
  8
PT3-Grafika_wekt5
  6
CONTINUOUS
 62
     7
 10
171.3977
 20
100.131599999999990
 11
171.5977
 21
100.331799999999990
  0
LINE
  8
PT3-Grafika_wekt5
  6
CONTINUOUS
 62
     7
 10
171.5977
 20
100.331799999999990
 11
171.5977
 21
118.646500000000000
  0
LINE
  8
PT3-Grafika_wekt5
  6
CONTINUOUS
 62
     7
 10
171.5977
 20
118.646500000000000
 11
171.3977
 21
118.846600000000000
  0
LINE
  8
PT3-Grafika_wekt5
  6
CONTINUOUS
 62
     7
 10
171.5977
 20
100.331799999999990
 11
187.8043
 21
100.331799999999990
  0
LINE
  8
PT3-Grafika_wekt5
  6
CONTINUOUS
 62
     7
 10
187.8043
 20
100.331799999999990
 11
187.8043
 21
111.640899999999990
  0
LINE
  8
PT3-Grafika_wekt5
  6
CONTINUOUS
 62
     7
 10
187.8043
 20
111.640899999999990
 11
171.5977
 21
111.640899999999990
  0
LINE
  8
PT3-Grafika_wekt5
  6
CONTINUOUS
 62
     7
 10
171.5977
 20
112.341399999999990
 11
187.8043
 21
112.341399999999990
  0
LINE
  8
PT3-Grafika_wekt5
  6
CONTINUOUS
 62
     7
 10
187.8043
 20
112.341399999999990
 11
187.8043
 21
118.646500000000000
  0
LINE
  8
PT3-Grafika_wekt5
  6
CONTINUOUS
 62
     7
 10
187.8043
 20
118.646500000000000
 11
171.5977
 21
118.646500000000000
  0
LINE
  8
PT3-Grafika_wekt5
  6
CONTINUOUS
 62
     7
 10
179.3009
 20
100.331799999999990
 11
179.3009
 21
111.640899999999990
  0
LINE
  8
PT3-Grafika_wekt5
  6
CONTINUOUS
 62
     7
 10
180.1012
 20
100.331799999999990
 11
180.1012
 21
111.640899999999990
  0
LINE
  8
PT3-Grafika_wekt5
  6
CONTINUOUS
 62
     7
 10
187.8043
 20
100.331799999999990
 11
187.8043
 21
118.646500000000000
  0
LINE
  8
PT3-Grafika_wekt5
  6
CONTINUOUS
 62
     7
 10
187.8043
 20
118.646500000000000
 11
188.0043
 21
118.846600000000000
  0
LINE
  8
PT3-Grafika_wekt5
  6
CONTINUOUS
 62
     7
 10
188.0043
 20
100.131700000000000
 11
187.8043
 21
100.331799999999990
  0
LINE
  8
PT3-Grafika_wekt5
  6
CONTINUOUS
 62
     7
 10
453.8614
 20
99.331099999999992
 11
454.3616
 21
99.331099999999992
  0
LINE
  8
PT3-Grafika_wekt5
  6
CONTINUOUS
 62
     7
 10
454.3616
 20
99.331099999999992
 11
454.3616
 21
99.631300000000010
  0
LINE
  8
PT3-Grafika_wekt5
  6
CONTINUOUS
 62
     7
 10
454.3616
 20
99.631300000000010
 11
453.8614
 21
99.631300000000010
  0
LINE
  8
PT3-Grafika_wekt5
  6
CONTINUOUS
 62
     7
 10
265.1413
 20
109.595499999999990
 11
265.1427
 21
109.595499999999990
  0
LINE
  8
PT3-Grafika_wekt5
  6
CONTINUOUS
 62
     7
 10
267.9322
 20
91.136599999999987
 11
269.7654
 21
91.136599999999987
  0
LINE
  8
PT3-Grafika_wekt5
  6
CONTINUOUS
 62
     7
 10
267.9322
 20
95.832699999999988
 11
267.9329
 21
95.832699999999988
  0
LINE
  8
PT3-Grafika_wekt5
  6
CONTINUOUS
 62
     7
 10
267.9322
 20
96.576699999999988
 11
267.933
 21
96.576699999999988
  0
LINE
  8
PT3-Grafika_wekt5
  6
CONTINUOUS
 62
     7
 10
267.9322
 20
97.739100000000008
 11
267.9324
 21
97.739100000000008
  0
LINE
  8
PT3-Grafika_wekt5
  6
CONTINUOUS
 62
     7
 10
267.9322
 20
98.483000000000004
 11
267.9325
 21
98.483000000000004
  0
LINE
  8
PT3-Grafika_wekt5
  6
CONTINUOUS
 62
     7
 10
269.8135
 20
91.136599999999987
 11
269.8138
 21
91.136599999999987
  0
LINE
  8
PT3-Grafika_wekt5
  6
CONTINUOUS
 62
     7
 10
271.7576
 20
91.136599999999987
 11
271.7578
 21
91.136599999999987
  0
LINE
  8
PT3-Grafika_wekt5
  6
CONTINUOUS
 62
     7
 10
258.9584
 20
89.323000000000008
 11
258.9584
 21
110.339800000000000
  0
LINE
  8
PT3-Grafika_wekt5
  6
CONTINUOUS
 62
     7
 10
258.9584
 20
110.339800000000000
 11
259.8419
 21
109.595900000000000
  0
LINE
  8
PT3-Grafika_wekt5
  6
CONTINUOUS
 62
     7
 10
259.8419
 20
109.595900000000000
 11
259.8419
 21
89.323000000000008
  0
LINE
  8
PT3-Grafika_wekt5
  6
CONTINUOUS
 62
     7
 10
259.8419
 20
89.323000000000008
 11
258.9584
 21
89.323000000000008
  0
LINE
  8
PT3-Grafika_wekt5
  6
CONTINUOUS
 62
     7
 10
258.9584
 20
110.339800000000000
 11
277.0142
 21
110.339800000000000
  0
LINE
  8
PT3-Grafika_wekt5
  6
CONTINUOUS
 62
     7
 10
277.0142
 20
110.339800000000000
 11
276.3516
 21
109.781800000000000
  0
LINE
  8
PT3-Grafika_wekt5
  6
CONTINUOUS
 62
     7
 10
259.8419
 20
89.323000000000008
 11
259.8419
 21
109.595900000000000
  0
LINE
  8
PT3-Grafika_wekt5
  6
CONTINUOUS
 62
     7
 10
259.8419
 20
109.595900000000000
 11
260.0628
 21
109.409899999999990
  0
LINE
  8
PT3-Grafika_wekt5
  6
CONTINUOUS
 62
     7
 10
260.0628
 20
109.409899999999990
 11
260.0628
 21
90.764399999999995
  0
LINE
  8
PT3-Grafika_wekt5
  6
CONTINUOUS
 62
     7
 10
260.0628
 20
90.764399999999995
 11
259.8419
 21
90.578399999999988
  0
LINE
  8
PT3-Grafika_wekt5
  6
CONTINUOUS
 62
     7
 10
259.8419
 20
90.578399999999988
 11
264.4801
 21
90.578399999999988
  0
LINE
  8
PT3-Grafika_wekt5
  6
CONTINUOUS
 62
     7
 10
264.4801
 20
90.578399999999988
 11
264.2593
 21
90.764399999999995
  0
LINE
  8
PT3-Grafika_wekt5
  6
CONTINUOUS
 62
     7
 10
264.2593
 20
90.764399999999995
 11
260.0628
 21
90.764399999999995
  0
LINE
  8
PT3-Grafika_wekt5
  6
CONTINUOUS
 62
     7
 10
259.8419
 20
109.595900000000000
 11
265.141
 21
109.595900000000000
  0
LINE
  8
PT3-Grafika_wekt5
  6
CONTINUOUS
 62
     7
 10
265.141
 20
109.595900000000000
 11
264.4801
 21
109.595900000000000
  0
LINE
  8
PT3-Grafika_wekt5
  6
CONTINUOUS
 62
     7
 10
264.4801
 20
109.595900000000000
 11
264.2593
 21
109.409899999999990
  0
LINE
  8
PT3-Grafika_wekt5
  6
CONTINUOUS
 62
     7
 10
264.2593
 20
109.409899999999990
 11
260.0628
 21
109.409899999999990
  0
LINE
  8
PT3-Grafika_wekt5
  6
CONTINUOUS
 62
     7
 10
264.2593
 20
90.764399999999995
 11
264.2593
 21
109.409899999999990
  0
LINE
  8
PT3-Grafika_wekt5
  6
CONTINUOUS
 62
     7
 10
264.4801
 20
89.323000000000008
 11
259.8419
 21
89.323000000000008
  0
LINE
  8
PT3-Grafika_wekt5
  6
CONTINUOUS
 62
     7
 10
264.4801
 20
89.323000000000008
 11
264.4801
 21
109.595900000000000
  0
LINE
  8
PT3-Grafika_wekt5
  6
CONTINUOUS
 62
     7
 10
264.4801
 20
109.595900000000000
 11
264.4801
 21
89.323000000000008
  0
LINE
  8
PT3-Grafika_wekt5
  6
CONTINUOUS
 62
     7
 10
264.4801
 20
89.323000000000008
 11
265.141
 21
89.323000000000008
  0
LINE
  8
PT3-Grafika_wekt5
  6
CONTINUOUS
 62
     7
 10
265.141
 20
89.323000000000008
 11
265.141
 21
109.595900000000000
  0
LINE
  8
PT3-Grafika_wekt5
  6
CONTINUOUS
 62
     7
 10
265.141
 20
109.595900000000000
 11
265.1427
 21
109.595900000000000
  0
LINE
  8
PT3-Grafika_wekt5
  6
CONTINUOUS
 62
     7
 10
265.1427
 20
109.595900000000000
 11
265.1427
 21
89.323000000000008
  0
LINE
  8
PT3-Grafika_wekt5
  6
CONTINUOUS
 62
     7
 10
265.1427
 20
89.323000000000008
 11
265.141
 21
89.323000000000008
  0
LINE
  8
PT3-Grafika_wekt5
  6
CONTINUOUS
 62
     7
 10
265.1427
 20
89.323000000000008
 11
265.3636
 21
89.323000000000008
  0
LINE
  8
PT3-Grafika_wekt5
  6
CONTINUOUS
 62
     7
 10
265.1427
 20
109.595900000000000
 11
265.1427
 21
109.781800000000000
  0
LINE
  8
PT3-Grafika_wekt5
  6
CONTINUOUS
 62
     7
 10
265.1427
 20
109.781800000000000
 11
265.1935
 21
109.781800000000000
  0
LINE
  8
PT3-Grafika_wekt5
  6
CONTINUOUS
 62
     7
 10
265.1427
 20
109.595900000000000
 11
265.1935
 21
109.595900000000000
  0
LINE
  8
PT3-Grafika_wekt5
  6
CONTINUOUS
 62
     7
 10
265.1429
 20
109.595900000000000
 11
265.1427
 21
109.595900000000000
  0
LINE
  8
PT3-Grafika_wekt5
  6
CONTINUOUS
 62
     7
 10
265.1427
 20
109.595900000000000
 11
265.1935
 21
109.596700000000000
  0
LINE
  8
PT3-Grafika_wekt5
  6
CONTINUOUS
 62
     7
 10
265.1935
 20
109.596700000000000
 11
265.1429
 21
109.595900000000000
  0
LINE
  8
PT3-Grafika_wekt5
  6
CONTINUOUS
 62
     7
 10
276.1307
 20
89.323000000000008
 11
277.0142
 21
89.323000000000008
  0
LINE
  8
PT3-Grafika_wekt5
  6
CONTINUOUS
 62
     7
 10
277.0142
 20
89.323000000000008
 11
277.0142
 21
110.339800000000000
  0
LINE
  8
PT3-Grafika_wekt5
  6
CONTINUOUS
 62
     7
 10
277.0142
 20
110.339800000000000
 11
276.3533
 21
109.781800000000000
  0
LINE
  8
PT3-Grafika_wekt5
  6
CONTINUOUS
 62
     7
 10
258.9827
 20
110.339800000000000
 11
259.683
 21
111.040400000000010
  0
LINE
  8
PT3-Grafika_wekt5
  6
CONTINUOUS
 62
     7
 10
259.683
 20
111.040400000000010
 11
259.683
 21
118.146099999999990
  0
LINE
  8
PT3-Grafika_wekt5
  6
CONTINUOUS
 62
     7
 10
259.683
 20
118.146099999999990
 11
258.9827
 21
118.846600000000000
  0
LINE
  8
PT3-Grafika_wekt5
  6
CONTINUOUS
 62
     7
 10
259.683
 20
111.040400000000010
 11
276.2896
 21
111.040400000000010
  0
LINE
  8
PT3-Grafika_wekt5
  6
CONTINUOUS
 62
     7
 10
276.2896
 20
111.040400000000010
 11
276.2896
 21
118.146099999999990
  0
LINE
  8
PT3-Grafika_wekt5
  6
CONTINUOUS
 62
     7
 10
276.2896
 20
118.146099999999990
 11
259.683
 21
118.146099999999990
  0
LINE
  8
PT3-Grafika_wekt5
  6
CONTINUOUS
 62
     7
 10
276.2896
 20
111.040400000000010
 11
276.99
 21
110.339800000000000
  0
LINE
  8
PT3-Grafika_wekt5
  6
CONTINUOUS
 62
     7
 10
276.2896
 20
118.146099999999990
 11
276.99
 21
118.846600000000000
  0
LINE
  8
PT3-Grafika_wekt5
  6
CONTINUOUS
 62
     7
 10
265.1935
 20
89.323000000000008
 11
265.1935
 21
109.781800000000000
  0
LINE
  8
PT3-Grafika_wekt5
  6
CONTINUOUS
 62
     7
 10
265.1935
 20
109.781800000000000
 11
266.4083
 21
108.758900000000010
  0
LINE
  8
PT3-Grafika_wekt5
  6
CONTINUOUS
 62
     7
 10
266.4083
 20
108.758900000000010
 11
266.4083
 21
98.800000000000011
  0
LINE
  8
PT3-Grafika_wekt5
  6
CONTINUOUS
 62
     7
 10
265.1935
 20
109.781800000000000
 11
276.4024
 21
109.781800000000000
  0
LINE
  8
PT3-Grafika_wekt5
  6
CONTINUOUS
 62
     7
 10
276.4024
 20
109.781800000000000
 11
275.1876
 21
108.758900000000010
  0
LINE
  8
PT3-Grafika_wekt5
  6
CONTINUOUS
 62
     7
 10
275.1876
 20
108.758900000000010
 11
266.4083
 21
108.758900000000010
  0
LINE
  8
PT3-Grafika_wekt5
  6
CONTINUOUS
 62
     7
 10
265.4144
 20
89.323000000000008
 11
266.4083
 21
89.323000000000008
  0
LINE
  8
PT3-Grafika_wekt5
  6
CONTINUOUS
 62
     7
 10
266.4083
 20
89.323000000000008
 11
265.1935
 21
89.323000000000008
  0
LINE
  8
PT3-Grafika_wekt5
  6
CONTINUOUS
 62
     7
 10
265.6542
 20
97.271400000000000
 11
265.6542
 21
97.829299999999989
  0
LINE
  8
PT3-Grafika_wekt5
  6
CONTINUOUS
 62
     7
 10
265.6542
 20
97.829299999999989
 11
266.0959
 21
97.829299999999989
  0
LINE
  8
PT3-Grafika_wekt5
  6
CONTINUOUS
 62
     7
 10
266.0959
 20
97.829299999999989
 11
266.0959
 21
97.271400000000000
  0
LINE
  8
PT3-Grafika_wekt5
  6
CONTINUOUS
 62
     7
 10
266.0959
 20
97.271400000000000
 11
265.6542
 21
97.271400000000000
  0
LINE
  8
PT3-Grafika_wekt5
  6
CONTINUOUS
 62
     7
 10
265.6542
 20
98.381599999999992
 11
265.6542
 21
98.939600000000013
  0
LINE
  8
PT3-Grafika_wekt5
  6
CONTINUOUS
 62
     7
 10
265.6542
 20
98.939600000000013
 11
266.0959
 21
98.939600000000013
  0
LINE
  8
PT3-Grafika_wekt5
  6
CONTINUOUS
 62
     7
 10
266.0959
 20
98.939600000000013
 11
266.0959
 21
98.800000000000011
  0
LINE
  8
PT3-Grafika_wekt5
  6
CONTINUOUS
 62
     7
 10
265.7094
 20
98.474500000000006
 11
265.7094
 21
98.846599999999995
  0
LINE
  8
PT3-Grafika_wekt5
  6
CONTINUOUS
 62
     7
 10
265.7094
 20
98.846599999999995
 11
266.0407
 21
98.846599999999995
  0
LINE
  8
PT3-Grafika_wekt5
  6
CONTINUOUS
 62
     7
 10
266.0407
 20
98.846599999999995
 11
266.0407
 21
98.800000000000011
  0
LINE
  8
PT3-Grafika_wekt5
  6
CONTINUOUS
 62
     7
 10
265.742
 20
97.643300000000011
 11
265.7598
 21
97.587299999999999
  0
LINE
  8
PT3-Grafika_wekt5
  6
CONTINUOUS
 62
     7
 10
265.7598
 20
97.587299999999999
 11
265.8085
 21
97.546300000000002
  0
LINE
  8
PT3-Grafika_wekt5
  6
CONTINUOUS
 62
     7
 10
265.8085
 20
97.546300000000002
 11
265.875
 21
97.531200000000013
  0
LINE
  8
PT3-Grafika_wekt5
  6
CONTINUOUS
 62
     7
 10
265.875
 20
97.531200000000013
 11
265.9416
 21
97.546300000000002
  0
LINE
  8
PT3-Grafika_wekt5
  6
CONTINUOUS
 62
     7
 10
265.9416
 20
97.546300000000002
 11
265.9903
 21
97.587299999999999
  0
LINE
  8
PT3-Grafika_wekt5
  6
CONTINUOUS
 62
     7
 10
265.9903
 20
97.587299999999999
 11
266.0081
 21
97.643300000000011
  0
LINE
  8
PT3-Grafika_wekt5
  6
CONTINUOUS
 62
     7
 10
266.0081
 20
97.643300000000011
 11
265.9903
 21
97.699399999999997
  0
LINE
  8
PT3-Grafika_wekt5
  6
CONTINUOUS
 62
     7
 10
265.9903
 20
97.699399999999997
 11
265.9416
 21
97.740399999999994
  0
LINE
  8
PT3-Grafika_wekt5
  6
CONTINUOUS
 62
     7
 10
265.9416
 20
97.740399999999994
 11
265.875
 21
97.755400000000009
  0
LINE
  8
PT3-Grafika_wekt5
  6
CONTINUOUS
 62
     7
 10
265.875
 20
97.755400000000009
 11
265.8085
 21
97.740399999999994
  0
LINE
  8
PT3-Grafika_wekt5
  6
CONTINUOUS
 62
     7
 10
265.8085
 20
97.740399999999994
 11
265.7598
 21
97.699399999999997
  0
LINE
  8
PT3-Grafika_wekt5
  6
CONTINUOUS
 62
     7
 10
265.7598
 20
97.699399999999997
 11
265.742
 21
97.643300000000011
  0
LINE
  8
PT3-Grafika_wekt5
  6
CONTINUOUS
 62
     7
 10
265.7646
 20
98.556299999999993
 11
265.7646
 21
98.764800000000008
  0
LINE
  8
PT3-Grafika_wekt5
  6
CONTINUOUS
 62
     7
 10
265.7646
 20
98.764800000000008
 11
265.9855
 21
98.764800000000008
  0
LINE
  8
PT3-Grafika_wekt5
  6
CONTINUOUS
 62
     7
 10
265.9855
 20
98.764800000000008
 11
265.9855
 21
98.556299999999993
  0
LINE
  8
PT3-Grafika_wekt5
  6
CONTINUOUS
 62
     7
 10
265.7646
 20
98.764800000000008
 11
265.8143
 21
98.764800000000008
  0
LINE
  8
PT3-Grafika_wekt5
  6
CONTINUOUS
 62
     7
 10
265.7999
 20
97.340399999999988
 11
265.7999
 21
97.574199999999990
  0
LINE
  8
PT3-Grafika_wekt5
  6
CONTINUOUS
 62
     7
 10
265.7999
 20
97.574199999999990
 11
265.9502
 21
97.574199999999990
  0
LINE
  8
PT3-Grafika_wekt5
  6
CONTINUOUS
 62
     7
 10
265.9502
 20
97.574199999999990
 11
265.9502
 21
97.340399999999988
  0
LINE
  8
PT3-Grafika_wekt5
  6
CONTINUOUS
 62
     7
 10
265.9502
 20
97.340399999999988
 11
265.7999
 21
97.340399999999988
  0
LINE
  8
PT3-Grafika_wekt5
  6
CONTINUOUS
 62
     7
 10
265.8143
 20
98.555900000000008
 11
265.8143
 21
98.765099999999990
  0
LINE
  8
PT3-Grafika_wekt5
  6
CONTINUOUS
 62
     7
 10
265.8143
 20
98.765099999999990
 11
265.9799
 21
98.800000000000011
  0
LINE
  8
PT3-Grafika_wekt5
  6
CONTINUOUS
 62
     7
 10
265.9799
 20
98.800000000000011
 11
266.9738
 21
98.800000000000011
  0
LINE
  8
PT3-Grafika_wekt5
  6
CONTINUOUS
 62
     7
 10
266.9738
 20
98.800000000000011
 11
267.1396
 21
98.765099999999990
  0
LINE
  8
PT3-Grafika_wekt5
  6
CONTINUOUS
 62
     7
 10
267.1396
 20
98.765099999999990
 11
267.1396
 21
98.555900000000008
  0
LINE
  8
PT3-Grafika_wekt5
  6
CONTINUOUS
 62
     7
 10
267.1396
 20
98.555900000000008
 11
266.9738
 21
98.520999999999987
  0
LINE
  8
PT3-Grafika_wekt5
  6
CONTINUOUS
 62
     7
 10
266.9738
 20
98.520999999999987
 11
265.9799
 21
98.520999999999987
  0
LINE
  8
PT3-Grafika_wekt5
  6
CONTINUOUS
 62
     7
 10
265.9799
 20
98.520999999999987
 11
265.8143
 21
98.555900000000008
  0
LINE
  8
PT3-Grafika_wekt5
  6
CONTINUOUS
 62
     7
 10
265.8143
 20
98.556299999999993
 11
265.7646
 21
98.556299999999993
  0
LINE
  8
PT3-Grafika_wekt5
  6
CONTINUOUS
 62
     7
 10
266.0407
 20
98.474500000000006
 11
265.7094
 21
98.474500000000006
  0
LINE
  8
PT3-Grafika_wekt5
  6
CONTINUOUS
 62
     7
 10
266.0407
 20
98.520999999999987
 11
266.0407
 21
98.474500000000006
  0
LINE
  8
PT3-Grafika_wekt5
  6
CONTINUOUS
 62
     7
 10
266.0959
 20
98.381599999999992
 11
265.6542
 21
98.381599999999992
  0
LINE
  8
PT3-Grafika_wekt5
  6
CONTINUOUS
 62
     7
 10
266.0959
 20
98.520999999999987
 11
266.0959
 21
98.381599999999992
  0
LINE
  8
PT3-Grafika_wekt5
  6
CONTINUOUS
 62
     7
 10
266.2426
 20
89.323000000000008
 11
275.3533
 21
89.323000000000008
  0
LINE
  8
PT3-Grafika_wekt5
  6
CONTINUOUS
 62
     7
 10
266.4083
 20
89.323000000000008
 11
266.4083
 21
91.136400000000009
  0
LINE
  8
PT3-Grafika_wekt5
  6
CONTINUOUS
 62
     7
 10
266.4083
 20
91.136400000000009
 11
275.1876
 21
91.136400000000009
  0
LINE
  8
PT3-Grafika_wekt5
  6
CONTINUOUS
 62
     7
 10
275.1876
 20
91.136400000000009
 11
275.1876
 21
89.323000000000008
  0
LINE
  8
PT3-Grafika_wekt5
  6
CONTINUOUS
 62
     7
 10
275.1876
 20
89.323000000000008
 11
266.4083
 21
89.323000000000008
  0
LINE
  8
PT3-Grafika_wekt5
  6
CONTINUOUS
 62
     7
 10
266.4083
 20
89.323000000000008
 11
266.4083
 21
98.520999999999987
  0
LINE
  8
PT3-Grafika_wekt5
  6
CONTINUOUS
 62
     7
 10
266.4635
 20
91.182899999999989
 11
266.4635
 21
98.520999999999987
  0
LINE
  8
PT3-Grafika_wekt5
  6
CONTINUOUS
 62
     7
 10
266.4635
 20
98.800000000000011
 11
266.4635
 21
109.084399999999990
  0
LINE
  8
PT3-Grafika_wekt5
  6
CONTINUOUS
 62
     7
 10
266.4635
 20
109.084399999999990
 11
267.9305
 21
109.084399999999990
  0
LINE
  8
PT3-Grafika_wekt5
  6
CONTINUOUS
 62
     7
 10
267.9305
 20
109.084399999999990
 11
267.9305
 21
91.182899999999989
  0
LINE
  8
PT3-Grafika_wekt5
  6
CONTINUOUS
 62
     7
 10
267.9305
 20
91.182899999999989
 11
266.4635
 21
91.182899999999989
  0
LINE
  8
PT3-Grafika_wekt5
  6
CONTINUOUS
 62
     7
 10
266.7948
 20
91.136400000000009
 11
266.7948
 21
91.182899999999989
  0
LINE
  8
PT3-Grafika_wekt5
  6
CONTINUOUS
 62
     7
 10
267.8697
 20
91.136400000000009
 11
267.8697
 21
91.182899999999989
  0
LINE
  8
PT3-Grafika_wekt5
  6
CONTINUOUS
 62
     7
 10
267.8702
 20
91.136400000000009
 11
267.8702
 21
91.182899999999989
  0
LINE
  8
PT3-Grafika_wekt5
  6
CONTINUOUS
 62
     7
 10
267.9305
 20
108.387000000000000
 11
267.9326
 21
108.387000000000000
  0
LINE
  8
PT3-Grafika_wekt5
  6
CONTINUOUS
 62
     7
 10
267.9326
 20
108.387000000000000
 11
267.9326
 21
108.742200000000000
  0
LINE
  8
PT3-Grafika_wekt5
  6
CONTINUOUS
 62
     7
 10
267.9326
 20
108.742200000000000
 11
267.9328
 21
108.742200000000000
  0
LINE
  8
PT3-Grafika_wekt5
  6
CONTINUOUS
 62
     7
 10
267.9322
 20
91.136400000000009
 11
267.9322
 21
108.387000000000000
  0
LINE
  8
PT3-Grafika_wekt5
  6
CONTINUOUS
 62
     7
 10
267.9324
 20
91.137499999999989
 11
267.9328
 21
91.137499999999989
  0
LINE
  8
PT3-Grafika_wekt5
  6
CONTINUOUS
 62
     7
 10
267.9328
 20
91.137499999999989
 11
267.9328
 21
91.323499999999996
  0
LINE
  8
PT3-Grafika_wekt5
  6
CONTINUOUS
 62
     7
 10
267.9328
 20
91.323499999999996
 11
269.7637
 21
91.323499999999996
  0
LINE
  8
PT3-Grafika_wekt5
  6
CONTINUOUS
 62
     7
 10
267.9324
 20
91.137499999999989
 11
268.1532
 21
91.137499999999989
  0
LINE
  8
PT3-Grafika_wekt5
  6
CONTINUOUS
 62
     7
 10
268.1532
 20
91.137499999999989
 11
268.1539
 21
96.828800000000001
  0
LINE
  8
PT3-Grafika_wekt5
  6
CONTINUOUS
 62
     7
 10
268.1539
 20
96.828800000000001
 11
267.933
 21
96.828800000000001
  0
LINE
  8
PT3-Grafika_wekt5
  6
CONTINUOUS
 62
     7
 10
267.933
 20
96.828800000000001
 11
267.9324
 21
91.137499999999989
  0
LINE
  8
PT3-Grafika_wekt5
  6
CONTINUOUS
 62
     7
 10
267.9324
 20
97.101599999999991
 11
267.9328
 21
97.101599999999991
  0
LINE
  8
PT3-Grafika_wekt5
  6
CONTINUOUS
 62
     7
 10
267.9328
 20
97.101599999999991
 11
267.9328
 21
97.287599999999998
  0
LINE
  8
PT3-Grafika_wekt5
  6
CONTINUOUS
 62
     7
 10
267.9328
 20
97.287599999999998
 11
269.7637
 21
97.287599999999998
  0
LINE
  8
PT3-Grafika_wekt5
  6
CONTINUOUS
 62
     7
 10
267.9324
 20
97.101599999999991
 11
268.1532
 21
97.101599999999991
  0
LINE
  8
PT3-Grafika_wekt5
  6
CONTINUOUS
 62
     7
 10
268.1532
 20
97.101599999999991
 11
268.1539
 21
102.792800000000000
  0
LINE
  8
PT3-Grafika_wekt5
  6
CONTINUOUS
 62
     7
 10
268.1539
 20
102.792800000000000
 11
267.933
 21
102.792900000000000
  0
LINE
  8
PT3-Grafika_wekt5
  6
CONTINUOUS
 62
     7
 10
267.933
 20
102.792900000000000
 11
267.9324
 21
97.101599999999991
  0
LINE
  8
PT3-Grafika_wekt5
  6
CONTINUOUS
 62
     7
 10
267.9324
 20
103.067200000000010
 11
267.9328
 21
103.067200000000010
  0
LINE
  8
PT3-Grafika_wekt5
  6
CONTINUOUS
 62
     7
 10
267.9328
 20
103.067200000000010
 11
267.9328
 21
103.253099999999990
  0
LINE
  8
PT3-Grafika_wekt5
  6
CONTINUOUS
 62
     7
 10
267.9328
 20
103.253099999999990
 11
269.7637
 21
103.253099999999990
  0
LINE
  8
PT3-Grafika_wekt5
  6
CONTINUOUS
 62
     7
 10
267.9324
 20
103.067200000000010
 11
268.1532
 21
103.067200000000010
  0
LINE
  8
PT3-Grafika_wekt5
  6
CONTINUOUS
 62
     7
 10
268.1532
 20
103.067200000000010
 11
268.1539
 21
108.758500000000000
  0
LINE
  8
PT3-Grafika_wekt5
  6
CONTINUOUS
 62
     7
 10
268.1539
 20
108.758500000000000
 11
267.933
 21
108.758500000000000
  0
LINE
  8
PT3-Grafika_wekt5
  6
CONTINUOUS
 62
     7
 10
267.933
 20
108.758500000000000
 11
267.9324
 21
103.067200000000010
  0
LINE
  8
PT3-Grafika_wekt5
  6
CONTINUOUS
 62
     7
 10
267.9328
 20
91.137499999999989
 11
269.7654
 21
91.137499999999989
  0
LINE
  8
PT3-Grafika_wekt5
  6
CONTINUOUS
 62
     7
 10
269.7654
 20
91.137499999999989
 11
269.7654
 21
91.136400000000009
  0
LINE
  8
PT3-Grafika_wekt5
  6
CONTINUOUS
 62
     7
 10
267.9328
 20
96.643300000000011
 11
267.9328
 21
96.829299999999989
  0
LINE
  8
PT3-Grafika_wekt5
  6
CONTINUOUS
 62
     7
 10
267.9328
 20
96.829299999999989
 11
269.7637
 21
96.829299999999989
  0
LINE
  8
PT3-Grafika_wekt5
  6
CONTINUOUS
 62
     7
 10
267.9328
 20
96.643300000000011
 11
269.7637
 21
96.643300000000011
  0
LINE
  8
PT3-Grafika_wekt5
  6
CONTINUOUS
 62
     7
 10
267.9328
 20
96.828100000000006
 11
267.9328
 21
97.107100000000003
  0
LINE
  8
PT3-Grafika_wekt5
  6
CONTINUOUS
 62
     7
 10
267.9328
 20
97.107100000000003
 11
269.7637
 21
97.107100000000003
  0
LINE
  8
PT3-Grafika_wekt5
  6
CONTINUOUS
 62
     7
 10
267.9328
 20
97.101599999999991
 11
269.7637
 21
97.101599999999991
  0
LINE
  8
PT3-Grafika_wekt5
  6
CONTINUOUS
 62
     7
 10
269.7637
 20
97.101599999999991
 11
269.5448
 21
97.101599999999991
  0
LINE
  8
PT3-Grafika_wekt5
  6
CONTINUOUS
 62
     7
 10
269.5448
 20
97.101599999999991
 11
269.5455
 21
102.792900000000000
  0
LINE
  8
PT3-Grafika_wekt5
  6
CONTINUOUS
 62
     7
 10
269.5455
 20
102.792900000000000
 11
269.7637
 21
102.792800000000000
  0
LINE
  8
PT3-Grafika_wekt5
  6
CONTINUOUS
 62
     7
 10
267.9328
 20
102.607300000000010
 11
267.9328
 21
102.793299999999990
  0
LINE
  8
PT3-Grafika_wekt5
  6
CONTINUOUS
 62
     7
 10
267.9328
 20
102.793299999999990
 11
269.7637
 21
102.793299999999990
  0
LINE
  8
PT3-Grafika_wekt5
  6
CONTINUOUS
 62
     7
 10
267.9328
 20
102.607300000000010
 11
269.7637
 21
102.607300000000010
  0
LINE
  8
PT3-Grafika_wekt5
  6
CONTINUOUS
 62
     7
 10
267.9328
 20
102.788600000000000
 11
267.9328
 21
103.067600000000000
  0
LINE
  8
PT3-Grafika_wekt5
  6
CONTINUOUS
 62
     7
 10
267.9328
 20
103.067600000000000
 11
269.7637
 21
103.067600000000000
  0
LINE
  8
PT3-Grafika_wekt5
  6
CONTINUOUS
 62
     7
 10
267.9328
 20
103.067200000000010
 11
269.7637
 21
103.067200000000010
  0
LINE
  8
PT3-Grafika_wekt5
  6
CONTINUOUS
 62
     7
 10
269.7637
 20
103.067200000000010
 11
269.5448
 21
103.067200000000010
  0
LINE
  8
PT3-Grafika_wekt5
  6
CONTINUOUS
 62
     7
 10
269.5448
 20
103.067200000000010
 11
269.5455
 21
108.758500000000000
  0
LINE
  8
PT3-Grafika_wekt5
  6
CONTINUOUS
 62
     7
 10
269.5455
 20
108.758500000000000
 11
269.7637
 21
108.758500000000000
  0
LINE
  8
PT3-Grafika_wekt5
  6
CONTINUOUS
 62
     7
 10
267.9328
 20
108.573000000000010
 11
267.9328
 21
108.758900000000010
  0
LINE
  8
PT3-Grafika_wekt5
  6
CONTINUOUS
 62
     7
 10
267.9328
 20
108.573000000000010
 11
269.7637
 21
108.573000000000010
  0
LINE
  8
PT3-Grafika_wekt5
  6
CONTINUOUS
 62
     7
 10
267.933
 20
96.643300000000011
 11
267.9328
 21
96.643300000000011
  0
LINE
  8
PT3-Grafika_wekt5
  6
CONTINUOUS
 62
     7
 10
267.933
 20
102.607300000000010
 11
267.9328
 21
102.607300000000010
  0
LINE
  8
PT3-Grafika_wekt5
  6
CONTINUOUS
 62
     7
 10
267.933
 20
108.573000000000010
 11
267.9328
 21
108.573000000000010
  0
LINE
  8
PT3-Grafika_wekt5
  6
CONTINUOUS
 62
     7
 10
269.5448
 20
91.137499999999989
 11
269.5455
 21
96.828800000000001
  0
LINE
  8
PT3-Grafika_wekt5
  6
CONTINUOUS
 62
     7
 10
269.5455
 20
96.828800000000001
 11
269.7637
 21
96.828800000000001
  0
LINE
  8
PT3-Grafika_wekt5
  6
CONTINUOUS
 62
     7
 10
269.7637
 20
91.182899999999989
 11
269.7637
 21
109.084399999999990
  0
LINE
  8
PT3-Grafika_wekt5
  6
CONTINUOUS
 62
     7
 10
269.7637
 20
109.084399999999990
 11
275.1325
 21
109.084399999999990
  0
LINE
  8
PT3-Grafika_wekt5
  6
CONTINUOUS
 62
     7
 10
275.1325
 20
109.084399999999990
 11
275.1325
 21
91.182899999999989
  0
LINE
  8
PT3-Grafika_wekt5
  6
CONTINUOUS
 62
     7
 10
275.1325
 20
91.182899999999989
 11
269.7637
 21
91.182899999999989
  0
LINE
  8
PT3-Grafika_wekt5
  6
CONTINUOUS
 62
     7
 10
269.7637
 20
96.828100000000006
 11
267.9328
 21
96.828100000000006
  0
LINE
  8
PT3-Grafika_wekt5
  6
CONTINUOUS
 62
     7
 10
269.7637
 20
102.788600000000000
 11
267.9328
 21
102.788600000000000
  0
LINE
  8
PT3-Grafika_wekt5
  6
CONTINUOUS
 62
     7
 10
269.7657
 20
91.137499999999989
 11
269.5448
 21
91.137499999999989
  0
LINE
  8
PT3-Grafika_wekt5
  6
CONTINUOUS
 62
     7
 10
269.7657
 20
91.182899999999989
 11
269.7657
 21
91.137499999999989
  0
LINE
  8
PT3-Grafika_wekt5
  6
CONTINUOUS
 62
     7
 10
269.7659
 20
91.137499999999989
 11
267.9328
 21
91.137499999999989
  0
LINE
  8
PT3-Grafika_wekt5
  6
CONTINUOUS
 62
     7
 10
269.7659
 20
91.182899999999989
 11
269.7659
 21
91.137499999999989
  0
LINE
  8
PT3-Grafika_wekt5
  6
CONTINUOUS
 62
     7
 10
269.8135
 20
91.136400000000009
 11
269.8135
 21
91.182899999999989
  0
LINE
  8
PT3-Grafika_wekt5
  6
CONTINUOUS
 62
     7
 10
269.8138
 20
91.136400000000009
 11
269.8138
 21
91.182899999999989
  0
LINE
  8
PT3-Grafika_wekt5
  6
CONTINUOUS
 62
     7
 10
269.8316
 20
91.136400000000009
 11
271.7576
 21
91.136400000000009
  0
LINE
  8
PT3-Grafika_wekt5
  6
CONTINUOUS
 62
     7
 10
271.7576
 20
91.136400000000009
 11
269.8138
 21
91.136400000000009
  0
LINE
  8
PT3-Grafika_wekt5
  6
CONTINUOUS
 62
     7
 10
271.7576
 20
91.136400000000009
 11
269.8316
 21
91.136400000000009
  0
LINE
  8
PT3-Grafika_wekt5
  6
CONTINUOUS
 62
     7
 10
271.7576
 20
91.182899999999989
 11
271.7576
 21
91.136400000000009
  0
LINE
  8
PT3-Grafika_wekt5
  6
CONTINUOUS
 62
     7
 10
271.7578
 20
91.136400000000009
 11
271.7578
 21
91.182899999999989
  0
LINE
  8
PT3-Grafika_wekt5
  6
CONTINUOUS
 62
     7
 10
273.7015
 20
91.136400000000009
 11
273.7015
 21
91.182899999999989
  0
LINE
  8
PT3-Grafika_wekt5
  6
CONTINUOUS
 62
     7
 10
274.8011
 20
91.136400000000009
 11
274.8011
 21
91.182899999999989
  0
LINE
  8
PT3-Grafika_wekt5
  6
CONTINUOUS
 62
     7
 10
275.1876
 20
89.323000000000008
 11
275.1876
 21
108.758900000000010
  0
LINE
  8
PT3-Grafika_wekt5
  6
CONTINUOUS
 62
     7
 10
275.1876
 20
89.323000000000008
 11
276.4024
 21
89.323000000000008
  0
LINE
  8
PT3-Grafika_wekt5
  6
CONTINUOUS
 62
     7
 10
276.4024
 20
89.323000000000008
 11
276.4024
 21
109.781800000000000
  0
LINE
  8
PT3-Grafika_wekt5
  6
CONTINUOUS
 62
     7
 10
275.2981
 20
108.852000000000000
 11
276.1816
 21
109.595900000000000
  0
LINE
  8
PT3-Grafika_wekt5
  6
CONTINUOUS
 62
     7
 10
276.1816
 20
89.323000000000008
 11
275.1876
 21
89.323000000000008
  0
LINE
  8
PT3-Grafika_wekt5
  6
CONTINUOUS
 62
     7
 10
276.4024
 20
91.717199999999991
 11
276.4389
 21
91.717199999999991
  0
LINE
  8
PT3-Grafika_wekt5
  6
CONTINUOUS
 62
     7
 10
276.4389
 20
91.717199999999991
 11
276.4389
 21
91.717600000000004
  0
LINE
  8
PT3-Grafika_wekt5
  6
CONTINUOUS
 62
     7
 10
276.4024
 20
92.647099999999995
 11
276.4375
 21
92.647099999999995
  0
LINE
  8
PT3-Grafika_wekt5
  6
CONTINUOUS
 62
     7
 10
276.4024
 20
98.994000000000000
 11
276.4389
 21
98.994000000000000
  0
LINE
  8
PT3-Grafika_wekt5
  6
CONTINUOUS
 62
     7
 10
276.4389
 20
98.994000000000000
 11
276.4389
 21
98.994499999999988
  0
LINE
  8
PT3-Grafika_wekt5
  6
CONTINUOUS
 62
     7
 10
276.4024
 20
99.924000000000007
 11
276.4375
 21
99.924000000000007
  0
LINE
  8
PT3-Grafika_wekt5
  6
CONTINUOUS
 62
     7
 10
276.4024
 20
106.270800000000010
 11
276.4389
 21
106.270800000000010
  0
LINE
  8
PT3-Grafika_wekt5
  6
CONTINUOUS
 62
     7
 10
276.4389
 20
106.270800000000010
 11
276.4389
 21
106.271300000000000
  0
LINE
  8
PT3-Grafika_wekt5
  6
CONTINUOUS
 62
     7
 10
276.4024
 20
107.200799999999990
 11
276.4375
 21
107.200799999999990
  0
LINE
  8
PT3-Grafika_wekt5
  6
CONTINUOUS
 62
     7
 10
276.4245
 20
92.647099999999995
 11
276.4245
 21
92.647600000000011
  0
LINE
  8
PT3-Grafika_wekt5
  6
CONTINUOUS
 62
     7
 10
276.4245
 20
92.647600000000011
 11
276.4504
 21
92.647600000000011
  0
LINE
  8
PT3-Grafika_wekt5
  6
CONTINUOUS
 62
     7
 10
276.4504
 20
92.647600000000011
 11
276.4504
 21
91.717600000000004
  0
LINE
  8
PT3-Grafika_wekt5
  6
CONTINUOUS
 62
     7
 10
276.4504
 20
91.717600000000004
 11
276.4375
 21
91.717600000000004
  0
LINE
  8
PT3-Grafika_wekt5
  6
CONTINUOUS
 62
     7
 10
276.4245
 20
99.924000000000007
 11
276.4245
 21
99.924399999999991
  0
LINE
  8
PT3-Grafika_wekt5
  6
CONTINUOUS
 62
     7
 10
276.4245
 20
99.924399999999991
 11
276.4504
 21
99.924399999999991
  0
LINE
  8
PT3-Grafika_wekt5
  6
CONTINUOUS
 62
     7
 10
276.4504
 20
99.924399999999991
 11
276.4504
 21
98.994499999999988
  0
LINE
  8
PT3-Grafika_wekt5
  6
CONTINUOUS
 62
     7
 10
276.4504
 20
98.994499999999988
 11
276.4375
 21
98.994499999999988
  0
LINE
  8
PT3-Grafika_wekt5
  6
CONTINUOUS
 62
     7
 10
276.4245
 20
107.200799999999990
 11
276.4245
 21
107.201200000000000
  0
LINE
  8
PT3-Grafika_wekt5
  6
CONTINUOUS
 62
     7
 10
276.4245
 20
107.201200000000000
 11
276.4504
 21
107.201200000000000
  0
LINE
  8
PT3-Grafika_wekt5
  6
CONTINUOUS
 62
     7
 10
276.4504
 20
107.201200000000000
 11
276.4504
 21
106.271300000000000
  0
LINE
  8
PT3-Grafika_wekt5
  6
CONTINUOUS
 62
     7
 10
276.4504
 20
106.271300000000000
 11
276.4375
 21
106.271300000000000
  0
LINE
  8
PT3-Grafika_wekt5
  6
CONTINUOUS
 62
     7
 10
276.4504
 20
91.717600000000004
 11
276.5754
 21
91.717600000000004
  0
LINE
  8
PT3-Grafika_wekt5
  6
CONTINUOUS
 62
     7
 10
276.5754
 20
91.717600000000004
 11
276.5754
 21
92.647600000000011
  0
LINE
  8
PT3-Grafika_wekt5
  6
CONTINUOUS
 62
     7
 10
276.5754
 20
92.647600000000011
 11
276.4504
 21
92.647600000000011
  0
LINE
  8
PT3-Grafika_wekt5
  6
CONTINUOUS
 62
     7
 10
276.4504
 20
98.994499999999988
 11
276.5754
 21
98.994499999999988
  0
LINE
  8
PT3-Grafika_wekt5
  6
CONTINUOUS
 62
     7
 10
276.5754
 20
98.994499999999988
 11
276.5754
 21
99.924399999999991
  0
LINE
  8
PT3-Grafika_wekt5
  6
CONTINUOUS
 62
     7
 10
276.5754
 20
99.924399999999991
 11
276.4504
 21
99.924399999999991
  0
LINE
  8
PT3-Grafika_wekt5
  6
CONTINUOUS
 62
     7
 10
276.4504
 20
106.271300000000000
 11
276.5754
 21
106.271300000000000
  0
LINE
  8
PT3-Grafika_wekt5
  6
CONTINUOUS
 62
     7
 10
276.5754
 20
106.271300000000000
 11
276.5754
 21
107.201200000000000
  0
LINE
  8
PT3-Grafika_wekt5
  6
CONTINUOUS
 62
     7
 10
276.5754
 20
107.201200000000000
 11
276.4504
 21
107.201200000000000
  0
LINE
  8
PT3-Grafika_wekt5
  6
CONTINUOUS
 62
     7
 10
276.5754
 20
91.717600000000004
 11
276.6012
 21
91.717600000000004
  0
LINE
  8
PT3-Grafika_wekt5
  6
CONTINUOUS
 62
     7
 10
276.6012
 20
91.717600000000004
 11
276.6012
 21
92.647600000000011
  0
LINE
  8
PT3-Grafika_wekt5
  6
CONTINUOUS
 62
     7
 10
276.6012
 20
92.647600000000011
 11
276.5754
 21
92.647600000000011
  0
LINE
  8
PT3-Grafika_wekt5
  6
CONTINUOUS
 62
     7
 10
276.5754
 20
98.994499999999988
 11
276.6012
 21
98.994499999999988
  0
LINE
  8
PT3-Grafika_wekt5
  6
CONTINUOUS
 62
     7
 10
276.6012
 20
98.994499999999988
 11
276.6012
 21
99.924399999999991
  0
LINE
  8
PT3-Grafika_wekt5
  6
CONTINUOUS
 62
     7
 10
276.6012
 20
99.924399999999991
 11
276.5754
 21
99.924399999999991
  0
LINE
  8
PT3-Grafika_wekt5
  6
CONTINUOUS
 62
     7
 10
276.5754
 20
106.271300000000000
 11
276.6012
 21
106.271300000000000
  0
LINE
  8
PT3-Grafika_wekt5
  6
CONTINUOUS
 62
     7
 10
276.6012
 20
106.271300000000000
 11
276.6012
 21
107.201200000000000
  0
LINE
  8
PT3-Grafika_wekt5
  6
CONTINUOUS
 62
     7
 10
276.6012
 20
107.201200000000000
 11
276.5754
 21
107.201200000000000
  0
LINE
  8
PT3-Grafika_wekt5
  6
CONTINUOUS
 62
     7
 10
339.896
 20
99.331099999999992
 11
339.896
 21
99.631300000000010
  0
LINE
  8
PT3-Grafika_wekt5
  6
CONTINUOUS
 62
     7
 10
339.896
 20
99.631300000000010
 11
356.5027
 21
99.631300000000010
  0
LINE
  8
PT3-Grafika_wekt5
  6
CONTINUOUS
 62
     7
 10
356.5027
 20
99.631300000000010
 11
356.5027
 21
99.331099999999992
  0
LINE
  8
PT3-Grafika_wekt5
  6
CONTINUOUS
 62
     7
 10
356.5027
 20
99.331099999999992
 11
339.896
 21
99.331099999999992
  0
LINE
  8
PT3-Grafika_wekt5
  6
CONTINUOUS
 62
     7
 10
339.896
 20
100.131800000000000
 11
340.096
 21
100.331799999999990
  0
LINE
  8
PT3-Grafika_wekt5
  6
CONTINUOUS
 62
     7
 10
340.096
 20
100.331799999999990
 11
340.096
 21
118.646500000000000
  0
LINE
  8
PT3-Grafika_wekt5
  6
CONTINUOUS
 62
     7
 10
340.096
 20
118.646500000000000
 11
339.896
 21
118.846499999999990
  0
LINE
  8
PT3-Grafika_wekt5
  6
CONTINUOUS
 62
     7
 10
340.096
 20
100.331799999999990
 11
356.3025
 21
100.331799999999990
  0
LINE
  8
PT3-Grafika_wekt5
  6
CONTINUOUS
 62
     7
 10
356.3025
 20
100.331799999999990
 11
356.3025
 21
111.640899999999990
  0
LINE
  8
PT3-Grafika_wekt5
  6
CONTINUOUS
 62
     7
 10
356.3025
 20
111.640899999999990
 11
340.096
 21
111.640899999999990
  0
LINE
  8
PT3-Grafika_wekt5
  6
CONTINUOUS
 62
     7
 10
340.096
 20
112.341399999999990
 11
356.3025
 21
112.341399999999990
  0
LINE
  8
PT3-Grafika_wekt5
  6
CONTINUOUS
 62
     7
 10
356.3025
 20
112.341399999999990
 11
356.3025
 21
118.646500000000000
  0
LINE
  8
PT3-Grafika_wekt5
  6
CONTINUOUS
 62
     7
 10
356.3025
 20
118.646500000000000
 11
340.096
 21
118.646500000000000
  0
LINE
  8
PT3-Grafika_wekt5
  6
CONTINUOUS
 62
     7
 10
347.799
 20
100.331799999999990
 11
347.799
 21
111.640899999999990
  0
LINE
  8
PT3-Grafika_wekt5
  6
CONTINUOUS
 62
     7
 10
348.5994
 20
100.331799999999990
 11
348.5994
 21
111.640899999999990
  0
LINE
  8
PT3-Grafika_wekt5
  6
CONTINUOUS
 62
     7
 10
356.3025
 20
100.331799999999990
 11
356.3025
 21
118.646500000000000
  0
LINE
  8
PT3-Grafika_wekt5
  6
CONTINUOUS
 62
     7
 10
356.3025
 20
118.646500000000000
 11
356.5025
 21
118.846600000000000
  0
LINE
  8
PT3-Grafika_wekt5
  6
CONTINUOUS
 62
     7
 10
356.5025
 20
100.131700000000000
 11
356.3025
 21
100.331799999999990
  0
LINE
  8
PT3-Grafika_wekt5
  6
CONTINUOUS
 62
     7
 10
317.1368
 20
99.331099999999992
 11
317.1369
 21
99.331099999999992
  0
LINE
  8
PT3-Grafika_wekt5
  6
CONTINUOUS
 62
     7
 10
317.1369
 20
99.331099999999992
 11
317.1369
 21
99.631300000000010
  0
LINE
  8
PT3-Grafika_wekt5
  6
CONTINUOUS
 62
     7
 10
317.1369
 20
99.631300000000010
 11
317.1368
 21
99.631300000000010
  0
LINE
  8
PT3-Grafika_wekt5
  6
CONTINUOUS
 62
     7
 10
317.1368
 20
100.131800000000000
 11
317.3368
 21
100.331799999999990
  0
LINE
  8
PT3-Grafika_wekt5
  6
CONTINUOUS
 62
     7
 10
317.3368
 20
100.331799999999990
 11
317.3368
 21
118.646500000000000
  0
LINE
  8
PT3-Grafika_wekt5
  6
CONTINUOUS
 62
     7
 10
317.3368
 20
118.646500000000000
 11
317.1368
 21
118.846600000000000
  0
LINE
  8
PT3-Grafika_wekt5
  6
CONTINUOUS
 62
     7
 10
317.1369
 20
99.331099999999992
 11
333.7436
 21
99.331099999999992
  0
LINE
  8
PT3-Grafika_wekt5
  6
CONTINUOUS
 62
     7
 10
333.7436
 20
99.331099999999992
 11
333.7436
 21
99.631300000000010
  0
LINE
  8
PT3-Grafika_wekt5
  6
CONTINUOUS
 62
     7
 10
333.7436
 20
99.631300000000010
 11
317.1369
 21
99.631300000000010
  0
LINE
  8
PT3-Grafika_wekt5
  6
CONTINUOUS
 62
     7
 10
317.3368
 20
100.331799999999990
 11
333.5433
 21
100.331799999999990
  0
LINE
  8
PT3-Grafika_wekt5
  6
CONTINUOUS
 62
     7
 10
333.5433
 20
100.331799999999990
 11
333.5433
 21
111.640899999999990
  0
LINE
  8
PT3-Grafika_wekt5
  6
CONTINUOUS
 62
     7
 10
333.5433
 20
111.640899999999990
 11
317.3368
 21
111.640899999999990
  0
LINE
  8
PT3-Grafika_wekt5
  6
CONTINUOUS
 62
     7
 10
317.3368
 20
112.341399999999990
 11
333.5433
 21
112.341399999999990
  0
LINE
  8
PT3-Grafika_wekt5
  6
CONTINUOUS
 62
     7
 10
333.5433
 20
112.341399999999990
 11
333.5433
 21
118.646500000000000
  0
LINE
  8
PT3-Grafika_wekt5
  6
CONTINUOUS
 62
     7
 10
333.5433
 20
118.646500000000000
 11
317.3368
 21
118.646500000000000
  0
LINE
  8
PT3-Grafika_wekt5
  6
CONTINUOUS
 62
     7
 10
325.0399
 20
100.331799999999990
 11
325.0399
 21
111.640899999999990
  0
LINE
  8
PT3-Grafika_wekt5
  6
CONTINUOUS
 62
     7
 10
325.8402
 20
100.331799999999990
 11
325.8402
 21
111.640899999999990
  0
LINE
  8
PT3-Grafika_wekt5
  6
CONTINUOUS
 62
     7
 10
333.5433
 20
100.331799999999990
 11
333.5433
 21
118.646500000000000
  0
LINE
  8
PT3-Grafika_wekt5
  6
CONTINUOUS
 62
     7
 10
333.5433
 20
118.646500000000000
 11
333.7434
 21
118.846600000000000
  0
LINE
  8
PT3-Grafika_wekt5
  6
CONTINUOUS
 62
     7
 10
333.7434
 20
100.131700000000000
 11
333.5433
 21
100.331799999999990
  0
LINE
  8
PT3-Grafika_wekt5
  6
CONTINUOUS
 62
     7
 10
294.3772
 20
99.331099999999992
 11
294.3772
 21
99.631300000000010
  0
LINE
  8
PT3-Grafika_wekt5
  6
CONTINUOUS
 62
     7
 10
294.3772
 20
99.631300000000010
 11
310.9839
 21
99.631300000000010
  0
LINE
  8
PT3-Grafika_wekt5
  6
CONTINUOUS
 62
     7
 10
310.9839
 20
99.631300000000010
 11
310.9839
 21
99.331099999999992
  0
LINE
  8
PT3-Grafika_wekt5
  6
CONTINUOUS
 62
     7
 10
310.9839
 20
99.331099999999992
 11
294.3772
 21
99.331099999999992
  0
LINE
  8
PT3-Grafika_wekt5
  6
CONTINUOUS
 62
     7
 10
294.3772
 20
100.131800000000000
 11
294.5772
 21
100.331799999999990
  0
LINE
  8
PT3-Grafika_wekt5
  6
CONTINUOUS
 62
     7
 10
294.5772
 20
100.331799999999990
 11
294.5772
 21
118.646500000000000
  0
LINE
  8
PT3-Grafika_wekt5
  6
CONTINUOUS
 62
     7
 10
294.5772
 20
118.646500000000000
 11
294.3772
 21
118.846499999999990
  0
LINE
  8
PT3-Grafika_wekt5
  6
CONTINUOUS
 62
     7
 10
294.5772
 20
100.331799999999990
 11
310.7836
 21
100.331799999999990
  0
LINE
  8
PT3-Grafika_wekt5
  6
CONTINUOUS
 62
     7
 10
310.7836
 20
100.331799999999990
 11
310.7836
 21
111.640899999999990
  0
LINE
  8
PT3-Grafika_wekt5
  6
CONTINUOUS
 62
     7
 10
310.7836
 20
111.640899999999990
 11
294.5772
 21
111.640899999999990
  0
LINE
  8
PT3-Grafika_wekt5
  6
CONTINUOUS
 62
     7
 10
294.5772
 20
112.341399999999990
 11
310.7836
 21
112.341399999999990
  0
LINE
  8
PT3-Grafika_wekt5
  6
CONTINUOUS
 62
     7
 10
310.7836
 20
112.341399999999990
 11
310.7836
 21
118.646500000000000
  0
LINE
  8
PT3-Grafika_wekt5
  6
CONTINUOUS
 62
     7
 10
310.7836
 20
118.646500000000000
 11
294.5772
 21
118.646500000000000
  0
LINE
  8
PT3-Grafika_wekt5
  6
CONTINUOUS
 62
     7
 10
302.2802
 20
100.331799999999990
 11
302.2802
 21
111.640899999999990
  0
LINE
  8
PT3-Grafika_wekt5
  6
CONTINUOUS
 62
     7
 10
303.0805
 20
100.331799999999990
 11
303.0805
 21
111.640899999999990
  0
LINE
  8
PT3-Grafika_wekt5
  6
CONTINUOUS
 62
     7
 10
310.7836
 20
100.331799999999990
 11
310.7836
 21
118.646500000000000
  0
LINE
  8
PT3-Grafika_wekt5
  6
CONTINUOUS
 62
     7
 10
310.7836
 20
118.646500000000000
 11
310.9837
 21
118.846600000000000
  0
LINE
  8
PT3-Grafika_wekt5
  6
CONTINUOUS
 62
     7
 10
310.9837
 20
100.131700000000000
 11
310.7836
 21
100.331799999999990
  0
LINE
  8
PT3-Grafika_wekt5
  6
CONTINUOUS
 62
     7
 10
385.4138
 20
99.331099999999992
 11
385.4138
 21
99.631300000000010
  0
LINE
  8
PT3-Grafika_wekt5
  6
CONTINUOUS
 62
     7
 10
385.4138
 20
99.631300000000010
 11
402.0205
 21
99.631300000000010
  0
LINE
  8
PT3-Grafika_wekt5
  6
CONTINUOUS
 62
     7
 10
402.0205
 20
99.631300000000010
 11
402.0205
 21
99.331099999999992
  0
LINE
  8
PT3-Grafika_wekt5
  6
CONTINUOUS
 62
     7
 10
402.0205
 20
99.331099999999992
 11
385.4138
 21
99.331099999999992
  0
LINE
  8
PT3-Grafika_wekt5
  6
CONTINUOUS
 62
     7
 10
385.4138
 20
100.131800000000000
 11
385.6138
 21
100.331799999999990
  0
LINE
  8
PT3-Grafika_wekt5
  6
CONTINUOUS
 62
     7
 10
385.6138
 20
100.331799999999990
 11
385.6138
 21
118.646500000000000
  0
LINE
  8
PT3-Grafika_wekt5
  6
CONTINUOUS
 62
     7
 10
385.6138
 20
118.646500000000000
 11
385.4138
 21
118.846499999999990
  0
LINE
  8
PT3-Grafika_wekt5
  6
CONTINUOUS
 62
     7
 10
385.6138
 20
100.331799999999990
 11
401.8203
 21
100.331799999999990
  0
LINE
  8
PT3-Grafika_wekt5
  6
CONTINUOUS
 62
     7
 10
401.8203
 20
100.331799999999990
 11
401.8203
 21
111.640899999999990
  0
LINE
  8
PT3-Grafika_wekt5
  6
CONTINUOUS
 62
     7
 10
401.8203
 20
111.640899999999990
 11
385.6138
 21
111.640899999999990
  0
LINE
  8
PT3-Grafika_wekt5
  6
CONTINUOUS
 62
     7
 10
385.6138
 20
112.341399999999990
 11
401.8203
 21
112.341399999999990
  0
LINE
  8
PT3-Grafika_wekt5
  6
CONTINUOUS
 62
     7
 10
401.8203
 20
112.341399999999990
 11
401.8203
 21
118.646500000000000
  0
LINE
  8
PT3-Grafika_wekt5
  6
CONTINUOUS
 62
     7
 10
401.8203
 20
118.646500000000000
 11
385.6138
 21
118.646500000000000
  0
LINE
  8
PT3-Grafika_wekt5
  6
CONTINUOUS
 62
     7
 10
393.3168
 20
100.331799999999990
 11
393.3168
 21
111.640899999999990
  0
LINE
  8
PT3-Grafika_wekt5
  6
CONTINUOUS
 62
     7
 10
394.1172
 20
100.331799999999990
 11
394.1172
 21
111.640899999999990
  0
LINE
  8
PT3-Grafika_wekt5
  6
CONTINUOUS
 62
     7
 10
401.8203
 20
100.331799999999990
 11
401.8203
 21
118.646500000000000
  0
LINE
  8
PT3-Grafika_wekt5
  6
CONTINUOUS
 62
     7
 10
401.8203
 20
118.646500000000000
 11
402.0203
 21
118.846600000000000
  0
LINE
  8
PT3-Grafika_wekt5
  6
CONTINUOUS
 62
     7
 10
402.0203
 20
100.131700000000000
 11
401.8203
 21
100.331799999999990
  0
LINE
  8
PT3-Grafika_wekt5
  6
CONTINUOUS
 62
     7
 10
362.6546
 20
99.331099999999992
 11
362.6546
 21
99.631300000000010
  0
LINE
  8
PT3-Grafika_wekt5
  6
CONTINUOUS
 62
     7
 10
362.6546
 20
99.631300000000010
 11
379.2614
 21
99.631300000000010
  0
LINE
  8
PT3-Grafika_wekt5
  6
CONTINUOUS
 62
     7
 10
379.2614
 20
99.631300000000010
 11
379.2614
 21
99.331099999999992
  0
LINE
  8
PT3-Grafika_wekt5
  6
CONTINUOUS
 62
     7
 10
379.2614
 20
99.331099999999992
 11
362.6546
 21
99.331099999999992
  0
LINE
  8
PT3-Grafika_wekt5
  6
CONTINUOUS
 62
     7
 10
362.6546
 20
100.131800000000000
 11
362.8546
 21
100.331799999999990
  0
LINE
  8
PT3-Grafika_wekt5
  6
CONTINUOUS
 62
     7
 10
362.8546
 20
100.331799999999990
 11
362.8546
 21
118.646500000000000
  0
LINE
  8
PT3-Grafika_wekt5
  6
CONTINUOUS
 62
     7
 10
362.8546
 20
118.646500000000000
 11
362.6546
 21
118.846499999999990
  0
LINE
  8
PT3-Grafika_wekt5
  6
CONTINUOUS
 62
     7
 10
362.8546
 20
100.331799999999990
 11
379.0611
 21
100.331799999999990
  0
LINE
  8
PT3-Grafika_wekt5
  6
CONTINUOUS
 62
     7
 10
379.0611
 20
100.331799999999990
 11
379.0611
 21
111.640899999999990
  0
LINE
  8
PT3-Grafika_wekt5
  6
CONTINUOUS
 62
     7
 10
379.0611
 20
111.640899999999990
 11
362.8546
 21
111.640899999999990
  0
LINE
  8
PT3-Grafika_wekt5
  6
CONTINUOUS
 62
     7
 10
362.8546
 20
112.341399999999990
 11
379.0611
 21
112.341399999999990
  0
LINE
  8
PT3-Grafika_wekt5
  6
CONTINUOUS
 62
     7
 10
379.0611
 20
112.341399999999990
 11
379.0611
 21
118.646500000000000
  0
LINE
  8
PT3-Grafika_wekt5
  6
CONTINUOUS
 62
     7
 10
379.0611
 20
118.646500000000000
 11
362.8546
 21
118.646500000000000
  0
LINE
  8
PT3-Grafika_wekt5
  6
CONTINUOUS
 62
     7
 10
370.5577
 20
100.331799999999990
 11
370.5577
 21
111.640899999999990
  0
LINE
  8
PT3-Grafika_wekt5
  6
CONTINUOUS
 62
     7
 10
371.358
 20
100.331799999999990
 11
371.358
 21
111.640899999999990
  0
LINE
  8
PT3-Grafika_wekt5
  6
CONTINUOUS
 62
     7
 10
379.0611
 20
100.331799999999990
 11
379.0611
 21
118.646500000000000
  0
LINE
  8
PT3-Grafika_wekt5
  6
CONTINUOUS
 62
     7
 10
379.0611
 20
118.646500000000000
 11
379.2612
 21
118.846600000000000
  0
LINE
  8
PT3-Grafika_wekt5
  6
CONTINUOUS
 62
     7
 10
379.2612
 20
100.131700000000000
 11
379.0611
 21
100.331799999999990
  0
LINE
  8
PT3-Grafika_wekt5
  6
CONTINUOUS
 62
     7
 10
430.9327
 20
99.331099999999992
 11
430.9327
 21
99.631300000000010
  0
LINE
  8
PT3-Grafika_wekt5
  6
CONTINUOUS
 62
     7
 10
430.9327
 20
99.631300000000010
 11
447.5394
 21
99.631300000000010
  0
LINE
  8
PT3-Grafika_wekt5
  6
CONTINUOUS
 62
     7
 10
447.5394
 20
99.631300000000010
 11
447.5394
 21
99.331099999999992
  0
LINE
  8
PT3-Grafika_wekt5
  6
CONTINUOUS
 62
     7
 10
447.5394
 20
99.331099999999992
 11
430.9327
 21
99.331099999999992
  0
LINE
  8
PT3-Grafika_wekt5
  6
CONTINUOUS
 62
     7
 10
430.9327
 20
100.131800000000000
 11
431.1326
 21
100.331799999999990
  0
LINE
  8
PT3-Grafika_wekt5
  6
CONTINUOUS
 62
     7
 10
431.1326
 20
100.331799999999990
 11
431.1326
 21
118.646500000000000
  0
LINE
  8
PT3-Grafika_wekt5
  6
CONTINUOUS
 62
     7
 10
431.1326
 20
118.646500000000000
 11
430.9327
 21
118.846499999999990
  0
LINE
  8
PT3-Grafika_wekt5
  6
CONTINUOUS
 62
     7
 10
431.1326
 20
100.331799999999990
 11
447.3392
 21
100.331799999999990
  0
LINE
  8
PT3-Grafika_wekt5
  6
CONTINUOUS
 62
     7
 10
447.3392
 20
100.331799999999990
 11
447.3392
 21
111.640899999999990
  0
LINE
  8
PT3-Grafika_wekt5
  6
CONTINUOUS
 62
     7
 10
447.3392
 20
111.640899999999990
 11
431.1326
 21
111.640899999999990
  0
LINE
  8
PT3-Grafika_wekt5
  6
CONTINUOUS
 62
     7
 10
431.1326
 20
112.341399999999990
 11
447.3392
 21
112.341399999999990
  0
LINE
  8
PT3-Grafika_wekt5
  6
CONTINUOUS
 62
     7
 10
447.3392
 20
112.341399999999990
 11
447.3392
 21
118.646500000000000
  0
LINE
  8
PT3-Grafika_wekt5
  6
CONTINUOUS
 62
     7
 10
447.3392
 20
118.646500000000000
 11
431.1326
 21
118.646500000000000
  0
LINE
  8
PT3-Grafika_wekt5
  6
CONTINUOUS
 62
     7
 10
438.8357
 20
100.331799999999990
 11
438.8357
 21
111.640899999999990
  0
LINE
  8
PT3-Grafika_wekt5
  6
CONTINUOUS
 62
     7
 10
439.636
 20
100.331799999999990
 11
439.636
 21
111.640899999999990
  0
LINE
  8
PT3-Grafika_wekt5
  6
CONTINUOUS
 62
     7
 10
447.3392
 20
100.331799999999990
 11
447.3392
 21
118.646500000000000
  0
LINE
  8
PT3-Grafika_wekt5
  6
CONTINUOUS
 62
     7
 10
447.3392
 20
118.646500000000000
 11
447.5392
 21
118.846600000000000
  0
LINE
  8
PT3-Grafika_wekt5
  6
CONTINUOUS
 62
     7
 10
447.5392
 20
100.131700000000000
 11
447.3392
 21
100.331799999999990
  0
LINE
  8
PT3-Grafika_wekt5
  6
CONTINUOUS
 62
     7
 10
45.697
 20
135.860300000000000
 11
46.1973
 21
135.860300000000000
  0
LINE
  8
PT3-Grafika_wekt5
  6
CONTINUOUS
 62
     7
 10
45.697
 20
135.860300000000000
 11
45.697
 21
136.160500000000010
  0
LINE
  8
PT3-Grafika_wekt5
  6
CONTINUOUS
 62
     7
 10
45.697
 20
136.160500000000010
 11
46.1973
 21
136.160500000000010
  0
LINE
  8
PT3-Grafika_wekt5
  6
CONTINUOUS
 62
     7
 10
46.1973
 20
135.860300000000000
 11
45.697
 21
135.860300000000000
  0
LINE
  8
PT3-Grafika_wekt5
  6
CONTINUOUS
 62
     7
 10
45.697
 20
135.860300000000000
 11
45.697
 21
136.160500000000010
  0
LINE
  8
PT3-Grafika_wekt5
  6
CONTINUOUS
 62
     7
 10
46.1973
 20
135.860300000000000
 11
45.697
 21
135.860300000000000
  0
LINE
  8
PT3-Grafika_wekt5
  6
CONTINUOUS
 62
     7
 10
110.7732
 20
136.360600000000010
 11
110.7732
 21
136.660900000000000
  0
LINE
  8
PT3-Grafika_wekt5
  6
CONTINUOUS
 62
     7
 10
110.7732
 20
136.660900000000000
 11
111.4736
 21
137.361400000000000
  0
LINE
  8
PT3-Grafika_wekt5
  6
CONTINUOUS
 62
     7
 10
111.4736
 20
137.361400000000000
 11
111.4736
 21
151.472800000000010
  0
LINE
  8
PT3-Grafika_wekt5
  6
CONTINUOUS
 62
     7
 10
111.4736
 20
151.472800000000010
 11
110.7732
 21
152.173299999999980
  0
LINE
  8
PT3-Grafika_wekt5
  6
CONTINUOUS
 62
     7
 10
110.7732
 20
136.660900000000000
 11
122.7781
 21
136.660900000000000
  0
LINE
  8
PT3-Grafika_wekt5
  6
CONTINUOUS
 62
     7
 10
122.7781
 20
136.660900000000000
 11
122.0778
 21
137.361400000000000
  0
LINE
  8
PT3-Grafika_wekt5
  6
CONTINUOUS
 62
     7
 10
122.0778
 20
137.361400000000000
 11
111.4736
 21
137.361400000000000
  0
LINE
  8
PT3-Grafika_wekt5
  6
CONTINUOUS
 62
     7
 10
111.4736
 20
151.472800000000010
 11
122.0778
 21
151.472800000000010
  0
LINE
  8
PT3-Grafika_wekt5
  6
CONTINUOUS
 62
     7
 10
122.0778
 20
151.472800000000010
 11
122.0778
 21
137.361400000000000
  0
LINE
  8
PT3-Grafika_wekt5
  6
CONTINUOUS
 62
     7
 10
122.0778
 20
151.472800000000010
 11
122.7781
 21
152.173299999999980
  0
LINE
  8
PT3-Grafika_wekt5
  6
CONTINUOUS
 62
     7
 10
122.7781
 20
136.360600000000010
 11
110.7732
 21
136.360600000000010
  0
LINE
  8
PT3-Grafika_wekt5
  6
CONTINUOUS
 62
     7
 10
122.7781
 20
136.660900000000000
 11
122.7781
 21
136.360600000000010
  0
LINE
  8
PT3-Grafika_wekt5
  6
CONTINUOUS
 62
     7
 10
84.7628
 20
136.360600000000010
 11
84.7628
 21
136.660900000000000
  0
LINE
  8
PT3-Grafika_wekt5
  6
CONTINUOUS
 62
     7
 10
84.7628
 20
136.660900000000000
 11
85.4631
 21
137.361400000000000
  0
LINE
  8
PT3-Grafika_wekt5
  6
CONTINUOUS
 62
     7
 10
85.4631
 20
137.361400000000000
 11
85.4631
 21
151.472800000000010
  0
LINE
  8
PT3-Grafika_wekt5
  6
CONTINUOUS
 62
     7
 10
85.4631
 20
151.472800000000010
 11
84.7628
 21
152.173299999999980
  0
LINE
  8
PT3-Grafika_wekt5
  6
CONTINUOUS
 62
     7
 10
84.7628
 20
136.660900000000000
 11
96.7676
 21
136.660900000000000
  0
LINE
  8
PT3-Grafika_wekt5
  6
CONTINUOUS
 62
     7
 10
96.7676
 20
136.660900000000000
 11
96.0674
 21
137.361400000000000
  0
LINE
  8
PT3-Grafika_wekt5
  6
CONTINUOUS
 62
     7
 10
96.0674
 20
137.361400000000000
 11
85.4631
 21
137.361400000000000
  0
LINE
  8
PT3-Grafika_wekt5
  6
CONTINUOUS
 62
     7
 10
85.4631
 20
151.472800000000010
 11
96.0674
 21
151.472800000000010
  0
LINE
  8
PT3-Grafika_wekt5
  6
CONTINUOUS
 62
     7
 10
96.0674
 20
151.472800000000010
 11
96.0674
 21
137.361400000000000
  0
LINE
  8
PT3-Grafika_wekt5
  6
CONTINUOUS
 62
     7
 10
96.0674
 20
151.472800000000010
 11
96.7676
 21
152.173299999999980
  0
LINE
  8
PT3-Grafika_wekt5
  6
CONTINUOUS
 62
     7
 10
96.7676
 20
136.360600000000010
 11
84.7628
 21
136.360600000000010
  0
LINE
  8
PT3-Grafika_wekt5
  6
CONTINUOUS
 62
     7
 10
96.7676
 20
136.660900000000000
 11
96.7676
 21
136.360600000000010
  0
LINE
  8
PT3-Grafika_wekt5
  6
CONTINUOUS
 62
     7
 10
58.7523
 20
136.360600000000010
 11
58.7523
 21
152.173299999999980
  0
LINE
  8
PT3-Grafika_wekt5
  6
CONTINUOUS
 62
     7
 10
58.7523
 20
152.173299999999980
 11
59.4526
 21
151.472800000000010
  0
LINE
  8
PT3-Grafika_wekt5
  6
CONTINUOUS
 62
     7
 10
59.4526
 20
151.472800000000010
 11
59.4526
 21
137.361400000000000
  0
LINE
  8
PT3-Grafika_wekt5
  6
CONTINUOUS
 62
     7
 10
59.4526
 20
137.361400000000000
 11
58.7523
 21
136.660900000000000
  0
LINE
  8
PT3-Grafika_wekt5
  6
CONTINUOUS
 62
     7
 10
58.7523
 20
136.660900000000000
 11
70.7571
 21
136.660900000000000
  0
LINE
  8
PT3-Grafika_wekt5
  6
CONTINUOUS
 62
     7
 10
70.7571
 20
136.660900000000000
 11
70.0569
 21
137.361400000000000
  0
LINE
  8
PT3-Grafika_wekt5
  6
CONTINUOUS
 62
     7
 10
70.0569
 20
137.361400000000000
 11
59.4526
 21
137.361400000000000
  0
LINE
  8
PT3-Grafika_wekt5
  6
CONTINUOUS
 62
     7
 10
59.4526
 20
151.472800000000010
 11
70.0569
 21
151.472800000000010
  0
LINE
  8
PT3-Grafika_wekt5
  6
CONTINUOUS
 62
     7
 10
70.0569
 20
151.472800000000010
 11
70.0569
 21
137.361400000000000
  0
LINE
  8
PT3-Grafika_wekt5
  6
CONTINUOUS
 62
     7
 10
70.0569
 20
151.472800000000010
 11
70.7571
 21
152.173200000000010
  0
LINE
  8
PT3-Grafika_wekt5
  6
CONTINUOUS
 62
     7
 10
70.7571
 20
136.360600000000010
 11
58.7523
 21
136.360600000000010
  0
LINE
  8
PT3-Grafika_wekt5
  6
CONTINUOUS
 62
     7
 10
70.7571
 20
136.660900000000000
 11
70.7571
 21
136.360600000000010
  0
LINE
  8
PT3-Grafika_wekt5
  6
CONTINUOUS
 62
     7
 10
173.6986
 20
136.360600000000010
 11
173.6986
 21
136.660900000000000
  0
LINE
  8
PT3-Grafika_wekt5
  6
CONTINUOUS
 62
     7
 10
173.6986
 20
136.660900000000000
 11
174.3988
 21
137.361400000000000
  0
LINE
  8
PT3-Grafika_wekt5
  6
CONTINUOUS
 62
     7
 10
174.3988
 20
137.361400000000000
 11
174.3988
 21
151.472800000000010
  0
LINE
  8
PT3-Grafika_wekt5
  6
CONTINUOUS
 62
     7
 10
174.3988
 20
151.472800000000010
 11
173.6986
 21
152.173299999999980
  0
LINE
  8
PT3-Grafika_wekt5
  6
CONTINUOUS
 62
     7
 10
173.6986
 20
152.173299999999980
 11
185.7034
 21
152.173200000000010
  0
LINE
  8
PT3-Grafika_wekt5
  6
CONTINUOUS
 62
     7
 10
185.7034
 20
152.173200000000010
 11
185.0031
 21
151.472800000000010
  0
LINE
  8
PT3-Grafika_wekt5
  6
CONTINUOUS
 62
     7
 10
185.0031
 20
151.472800000000010
 11
174.3988
 21
151.472800000000010
  0
LINE
  8
PT3-Grafika_wekt5
  6
CONTINUOUS
 62
     7
 10
173.6986
 20
136.660900000000000
 11
185.7034
 21
136.660900000000000
  0
LINE
  8
PT3-Grafika_wekt5
  6
CONTINUOUS
 62
     7
 10
185.7034
 20
136.660900000000000
 11
185.0031
 21
137.361400000000000
  0
LINE
  8
PT3-Grafika_wekt5
  6
CONTINUOUS
 62
     7
 10
185.0031
 20
137.361400000000000
 11
174.3988
 21
137.361400000000000
  0
LINE
  8
PT3-Grafika_wekt5
  6
CONTINUOUS
 62
     7
 10
185.0031
 20
137.361400000000000
 11
185.0031
 21
151.472800000000010
  0
LINE
  8
PT3-Grafika_wekt5
  6
CONTINUOUS
 62
     7
 10
185.7034
 20
136.360600000000010
 11
173.6986
 21
136.360600000000010
  0
LINE
  8
PT3-Grafika_wekt5
  6
CONTINUOUS
 62
     7
 10
185.7034
 20
136.660900000000000
 11
185.7034
 21
136.360600000000010
  0
LINE
  8
PT3-Grafika_wekt5
  6
CONTINUOUS
 62
     7
 10
141.936
 20
136.360600000000010
 11
141.936
 21
136.660900000000000
  0
LINE
  8
PT3-Grafika_wekt5
  6
CONTINUOUS
 62
     7
 10
141.936
 20
136.660900000000000
 11
142.6362
 21
137.361400000000000
  0
LINE
  8
PT3-Grafika_wekt5
  6
CONTINUOUS
 62
     7
 10
142.6362
 20
137.361400000000000
 11
142.6362
 21
151.472800000000010
  0
LINE
  8
PT3-Grafika_wekt5
  6
CONTINUOUS
 62
     7
 10
142.6362
 20
151.472800000000010
 11
141.936
 21
152.173200000000010
  0
LINE
  8
PT3-Grafika_wekt5
  6
CONTINUOUS
 62
     7
 10
141.936
 20
136.660900000000000
 11
153.9408
 21
136.660900000000000
  0
LINE
  8
PT3-Grafika_wekt5
  6
CONTINUOUS
 62
     7
 10
153.9408
 20
136.660900000000000
 11
153.2406
 21
137.361400000000000
  0
LINE
  8
PT3-Grafika_wekt5
  6
CONTINUOUS
 62
     7
 10
153.2406
 20
137.361400000000000
 11
142.6362
 21
137.361400000000000
  0
LINE
  8
PT3-Grafika_wekt5
  6
CONTINUOUS
 62
     7
 10
142.6362
 20
151.472800000000010
 11
153.2406
 21
151.472800000000010
  0
LINE
  8
PT3-Grafika_wekt5
  6
CONTINUOUS
 62
     7
 10
153.2406
 20
151.472800000000010
 11
153.2406
 21
137.361400000000000
  0
LINE
  8
PT3-Grafika_wekt5
  6
CONTINUOUS
 62
     7
 10
153.2406
 20
151.472800000000010
 11
153.9408
 21
152.173299999999980
  0
LINE
  8
PT3-Grafika_wekt5
  6
CONTINUOUS
 62
     7
 10
153.9408
 20
136.360600000000010
 11
141.936
 21
136.360600000000010
  0
LINE
  8
PT3-Grafika_wekt5
  6
CONTINUOUS
 62
     7
 10
153.9408
 20
136.660900000000000
 11
153.9408
 21
136.360600000000010
  0
LINE
  8
PT3-Grafika_wekt5
  6
CONTINUOUS
 62
     7
 10
225.7195
 20
136.360600000000010
 11
225.7195
 21
152.173299999999980
  0
LINE
  8
PT3-Grafika_wekt5
  6
CONTINUOUS
 62
     7
 10
225.7195
 20
152.173299999999980
 11
226.4198
 21
151.472800000000010
  0
LINE
  8
PT3-Grafika_wekt5
  6
CONTINUOUS
 62
     7
 10
226.4198
 20
151.472800000000010
 11
226.4198
 21
137.361400000000000
  0
LINE
  8
PT3-Grafika_wekt5
  6
CONTINUOUS
 62
     7
 10
226.4198
 20
137.361400000000000
 11
225.7195
 21
136.660900000000000
  0
LINE
  8
PT3-Grafika_wekt5
  6
CONTINUOUS
 62
     7
 10
225.7195
 20
136.660900000000000
 11
237.7243
 21
136.660900000000000
  0
LINE
  8
PT3-Grafika_wekt5
  6
CONTINUOUS
 62
     7
 10
237.7243
 20
136.660900000000000
 11
237.0241
 21
137.361400000000000
  0
LINE
  8
PT3-Grafika_wekt5
  6
CONTINUOUS
 62
     7
 10
237.0241
 20
137.361400000000000
 11
226.4198
 21
137.361400000000000
  0
LINE
  8
PT3-Grafika_wekt5
  6
CONTINUOUS
 62
     7
 10
225.7195
 20
152.173299999999980
 11
237.7243
 21
152.173200000000010
  0
LINE
  8
PT3-Grafika_wekt5
  6
CONTINUOUS
 62
     7
 10
237.7243
 20
152.173200000000010
 11
237.0241
 21
151.472800000000010
  0
LINE
  8
PT3-Grafika_wekt5
  6
CONTINUOUS
 62
     7
 10
237.0241
 20
151.472800000000010
 11
226.4198
 21
151.472800000000010
  0
LINE
  8
PT3-Grafika_wekt5
  6
CONTINUOUS
 62
     7
 10
237.0241
 20
137.361400000000000
 11
237.0241
 21
151.472800000000010
  0
LINE
  8
PT3-Grafika_wekt5
  6
CONTINUOUS
 62
     7
 10
237.7243
 20
136.360600000000010
 11
225.7195
 21
136.360600000000010
  0
LINE
  8
PT3-Grafika_wekt5
  6
CONTINUOUS
 62
     7
 10
237.7243
 20
136.660900000000000
 11
237.7243
 21
136.360600000000010
  0
LINE
  8
PT3-Grafika_wekt5
  6
CONTINUOUS
 62
     7
 10
199.7091
 20
136.360600000000010
 11
199.7091
 21
152.173299999999980
  0
LINE
  8
PT3-Grafika_wekt5
  6
CONTINUOUS
 62
     7
 10
199.7091
 20
152.173299999999980
 11
200.4093
 21
151.472800000000010
  0
LINE
  8
PT3-Grafika_wekt5
  6
CONTINUOUS
 62
     7
 10
200.4093
 20
151.472800000000010
 11
200.4093
 21
137.361400000000000
  0
LINE
  8
PT3-Grafika_wekt5
  6
CONTINUOUS
 62
     7
 10
200.4093
 20
137.361400000000000
 11
199.7091
 21
136.660900000000000
  0
LINE
  8
PT3-Grafika_wekt5
  6
CONTINUOUS
 62
     7
 10
199.7091
 20
136.660900000000000
 11
211.7139
 21
136.660900000000000
  0
LINE
  8
PT3-Grafika_wekt5
  6
CONTINUOUS
 62
     7
 10
211.7139
 20
136.660900000000000
 11
211.0136
 21
137.361400000000000
  0
LINE
  8
PT3-Grafika_wekt5
  6
CONTINUOUS
 62
     7
 10
211.0136
 20
137.361400000000000
 11
200.4093
 21
137.361400000000000
  0
LINE
  8
PT3-Grafika_wekt5
  6
CONTINUOUS
 62
     7
 10
199.7091
 20
152.173299999999980
 11
211.7139
 21
152.173200000000010
  0
LINE
  8
PT3-Grafika_wekt5
  6
CONTINUOUS
 62
     7
 10
211.7139
 20
152.173200000000010
 11
211.0136
 21
151.472800000000010
  0
LINE
  8
PT3-Grafika_wekt5
  6
CONTINUOUS
 62
     7
 10
211.0136
 20
151.472800000000010
 11
200.4093
 21
151.472800000000010
  0
LINE
  8
PT3-Grafika_wekt5
  6
CONTINUOUS
 62
     7
 10
211.0136
 20
137.361400000000000
 11
211.0136
 21
151.472800000000010
  0
LINE
  8
PT3-Grafika_wekt5
  6
CONTINUOUS
 62
     7
 10
211.7139
 20
136.360600000000010
 11
199.7091
 21
136.360600000000010
  0
LINE
  8
PT3-Grafika_wekt5
  6
CONTINUOUS
 62
     7
 10
211.7139
 20
136.660900000000000
 11
211.7139
 21
136.360600000000010
  0
LINE
  8
PT3-Grafika_wekt5
  6
CONTINUOUS
 62
     7
 10
258.983
 20
136.360600000000010
 11
258.983
 21
136.660900000000000
  0
LINE
  8
PT3-Grafika_wekt5
  6
CONTINUOUS
 62
     7
 10
258.983
 20
136.660900000000000
 11
276.9903
 21
136.660900000000000
  0
LINE
  8
PT3-Grafika_wekt5
  6
CONTINUOUS
 62
     7
 10
276.9903
 20
136.660900000000000
 11
276.9903
 21
136.360600000000010
  0
LINE
  8
PT3-Grafika_wekt5
  6
CONTINUOUS
 62
     7
 10
276.9903
 20
136.360600000000010
 11
258.983
 21
136.360600000000010
  0
LINE
  8
PT3-Grafika_wekt5
  6
CONTINUOUS
 62
     7
 10
258.983
 20
137.161300000000010
 11
259.1831
 21
137.361400000000000
  0
LINE
  8
PT3-Grafika_wekt5
  6
CONTINUOUS
 62
     7
 10
259.1831
 20
137.361400000000000
 11
259.1831
 21
151.973200000000020
  0
LINE
  8
PT3-Grafika_wekt5
  6
CONTINUOUS
 62
     7
 10
259.1831
 20
151.973200000000020
 11
258.983
 21
152.173299999999980
  0
LINE
  8
PT3-Grafika_wekt5
  6
CONTINUOUS
 62
     7
 10
259.1831
 20
137.361400000000000
 11
276.7902
 21
137.361400000000000
  0
LINE
  8
PT3-Grafika_wekt5
  6
CONTINUOUS
 62
     7
 10
276.7902
 20
137.361400000000000
 11
276.7902
 21
145.468000000000020
  0
LINE
  8
PT3-Grafika_wekt5
  6
CONTINUOUS
 62
     7
 10
276.7902
 20
145.468000000000020
 11
259.1831
 21
145.468000000000020
  0
LINE
  8
PT3-Grafika_wekt5
  6
CONTINUOUS
 62
     7
 10
259.1831
 20
146.168499999999990
 11
276.7902
 21
146.168499999999990
  0
LINE
  8
PT3-Grafika_wekt5
  6
CONTINUOUS
 62
     7
 10
276.7902
 20
146.168499999999990
 11
276.7902
 21
151.973200000000020
  0
LINE
  8
PT3-Grafika_wekt5
  6
CONTINUOUS
 62
     7
 10
276.7902
 20
151.973200000000020
 11
259.1831
 21
151.973200000000020
  0
LINE
  8
PT3-Grafika_wekt5
  6
CONTINUOUS
 62
     7
 10
267.5865
 20
137.361400000000000
 11
267.5865
 21
145.468000000000020
  0
LINE
  8
PT3-Grafika_wekt5
  6
CONTINUOUS
 62
     7
 10
268.3869
 20
137.361400000000000
 11
268.3869
 21
145.468000000000020
  0
LINE
  8
PT3-Grafika_wekt5
  6
CONTINUOUS
 62
     7
 10
276.7902
 20
137.361400000000000
 11
276.7902
 21
151.973200000000020
  0
LINE
  8
PT3-Grafika_wekt5
  6
CONTINUOUS
 62
     7
 10
276.7902
 20
151.973200000000020
 11
276.9903
 21
152.173299999999980
  0
LINE
  8
PT3-Grafika_wekt5
  6
CONTINUOUS
 62
     7
 10
276.9903
 20
137.161300000000010
 11
276.7902
 21
137.361400000000000
  0
LINE
  8
PT3-Grafika_wekt5
  6
CONTINUOUS
 62
     7
 10
453.8614
 20
136.360600000000010
 11
454.3616
 21
136.360600000000010
  0
LINE
  8
PT3-Grafika_wekt5
  6
CONTINUOUS
 62
     7
 10
454.3616
 20
136.360600000000010
 11
454.3616
 21
136.660900000000000
  0
LINE
  8
PT3-Grafika_wekt5
  6
CONTINUOUS
 62
     7
 10
454.3616
 20
136.660900000000000
 11
453.8614
 21
136.660900000000000
  0
LINE
  8
PT3-Grafika_wekt5
  6
CONTINUOUS
 62
     7
 10
342.1969
 20
136.360600000000010
 11
342.1969
 21
136.660900000000000
  0
LINE
  8
PT3-Grafika_wekt5
  6
CONTINUOUS
 62
     7
 10
342.1969
 20
136.660900000000000
 11
354.2018
 21
136.660900000000000
  0
LINE
  8
PT3-Grafika_wekt5
  6
CONTINUOUS
 62
     7
 10
354.2018
 20
136.660900000000000
 11
354.2018
 21
136.360600000000010
  0
LINE
  8
PT3-Grafika_wekt5
  6
CONTINUOUS
 62
     7
 10
354.2018
 20
136.360600000000010
 11
342.1969
 21
136.360600000000010
  0
LINE
  8
PT3-Grafika_wekt5
  6
CONTINUOUS
 62
     7
 10
342.1969
 20
136.661000000000000
 11
342.8971
 21
137.361400000000000
  0
LINE
  8
PT3-Grafika_wekt5
  6
CONTINUOUS
 62
     7
 10
342.8971
 20
137.361400000000000
 11
342.8971
 21
151.472800000000010
  0
LINE
  8
PT3-Grafika_wekt5
  6
CONTINUOUS
 62
     7
 10
342.8971
 20
151.472800000000010
 11
342.1969
 21
152.173200000000010
  0
LINE
  8
PT3-Grafika_wekt5
  6
CONTINUOUS
 62
     7
 10
342.8971
 20
137.361400000000000
 11
353.5013
 21
137.361400000000000
  0
LINE
  8
PT3-Grafika_wekt5
  6
CONTINUOUS
 62
     7
 10
353.5013
 20
137.361400000000000
 11
353.5013
 21
151.472800000000010
  0
LINE
  8
PT3-Grafika_wekt5
  6
CONTINUOUS
 62
     7
 10
353.5013
 20
151.472800000000010
 11
342.8971
 21
151.472800000000010
  0
LINE
  8
PT3-Grafika_wekt5
  6
CONTINUOUS
 62
     7
 10
353.5013
 20
137.361400000000000
 11
354.2016
 21
136.660900000000000
  0
LINE
  8
PT3-Grafika_wekt5
  6
CONTINUOUS
 62
     7
 10
353.5013
 20
151.472800000000010
 11
354.2016
 21
152.173299999999980
  0
LINE
  8
PT3-Grafika_wekt5
  6
CONTINUOUS
 62
     7
 10
319.4378
 20
136.360600000000010
 11
319.4378
 21
136.660900000000000
  0
LINE
  8
PT3-Grafika_wekt5
  6
CONTINUOUS
 62
     7
 10
319.4378
 20
136.660900000000000
 11
331.4427
 21
136.660900000000000
  0
LINE
  8
PT3-Grafika_wekt5
  6
CONTINUOUS
 62
     7
 10
331.4427
 20
136.660900000000000
 11
331.4427
 21
136.360600000000010
  0
LINE
  8
PT3-Grafika_wekt5
  6
CONTINUOUS
 62
     7
 10
331.4427
 20
136.360600000000010
 11
319.4378
 21
136.360600000000010
  0
LINE
  8
PT3-Grafika_wekt5
  6
CONTINUOUS
 62
     7
 10
319.4378
 20
136.661000000000000
 11
320.1379
 21
137.361400000000000
  0
LINE
  8
PT3-Grafika_wekt5
  6
CONTINUOUS
 62
     7
 10
320.1379
 20
137.361400000000000
 11
320.1379
 21
151.472800000000010
  0
LINE
  8
PT3-Grafika_wekt5
  6
CONTINUOUS
 62
     7
 10
320.1379
 20
151.472800000000010
 11
319.4378
 21
152.173200000000010
  0
LINE
  8
PT3-Grafika_wekt5
  6
CONTINUOUS
 62
     7
 10
320.1379
 20
137.361400000000000
 11
330.7422
 21
137.361400000000000
  0
LINE
  8
PT3-Grafika_wekt5
  6
CONTINUOUS
 62
     7
 10
330.7422
 20
137.361400000000000
 11
330.7422
 21
151.472800000000010
  0
LINE
  8
PT3-Grafika_wekt5
  6
CONTINUOUS
 62
     7
 10
330.7422
 20
151.472800000000010
 11
320.1379
 21
151.472800000000010
  0
LINE
  8
PT3-Grafika_wekt5
  6
CONTINUOUS
 62
     7
 10
330.7422
 20
137.361400000000000
 11
331.4425
 21
136.660900000000000
  0
LINE
  8
PT3-Grafika_wekt5
  6
CONTINUOUS
 62
     7
 10
330.7422
 20
151.472800000000010
 11
331.4425
 21
152.173299999999980
  0
LINE
  8
PT3-Grafika_wekt5
  6
CONTINUOUS
 62
     7
 10
296.6786
 20
136.360600000000010
 11
296.6786
 21
136.660900000000000
  0
LINE
  8
PT3-Grafika_wekt5
  6
CONTINUOUS
 62
     7
 10
296.6786
 20
136.660900000000000
 11
308.6835
 21
136.660900000000000
  0
LINE
  8
PT3-Grafika_wekt5
  6
CONTINUOUS
 62
     7
 10
308.6835
 20
136.660900000000000
 11
308.6835
 21
136.360600000000010
  0
LINE
  8
PT3-Grafika_wekt5
  6
CONTINUOUS
 62
     7
 10
308.6835
 20
136.360600000000010
 11
296.6786
 21
136.360600000000010
  0
LINE
  8
PT3-Grafika_wekt5
  6
CONTINUOUS
 62
     7
 10
296.6786
 20
136.661000000000000
 11
297.3787
 21
137.361400000000000
  0
LINE
  8
PT3-Grafika_wekt5
  6
CONTINUOUS
 62
     7
 10
297.3787
 20
137.361400000000000
 11
297.3787
 21
151.472800000000010
  0
LINE
  8
PT3-Grafika_wekt5
  6
CONTINUOUS
 62
     7
 10
297.3787
 20
151.472800000000010
 11
296.6786
 21
152.173200000000010
  0
LINE
  8
PT3-Grafika_wekt5
  6
CONTINUOUS
 62
     7
 10
297.3787
 20
137.361400000000000
 11
307.983
 21
137.361400000000000
  0
LINE
  8
PT3-Grafika_wekt5
  6
CONTINUOUS
 62
     7
 10
307.983
 20
137.361400000000000
 11
307.983
 21
151.472800000000010
  0
LINE
  8
PT3-Grafika_wekt5
  6
CONTINUOUS
 62
     7
 10
307.983
 20
151.472800000000010
 11
297.3787
 21
151.472800000000010
  0
LINE
  8
PT3-Grafika_wekt5
  6
CONTINUOUS
 62
     7
 10
307.983
 20
137.361400000000000
 11
308.6833
 21
136.660900000000000
  0
LINE
  8
PT3-Grafika_wekt5
  6
CONTINUOUS
 62
     7
 10
307.983
 20
151.472800000000010
 11
308.6833
 21
152.173299999999980
  0
LINE
  8
PT3-Grafika_wekt5
  6
CONTINUOUS
 62
     7
 10
387.7153
 20
136.360600000000010
 11
387.7153
 21
136.660900000000000
  0
LINE
  8
PT3-Grafika_wekt5
  6
CONTINUOUS
 62
     7
 10
387.7153
 20
136.660900000000000
 11
399.7202
 21
136.660900000000000
  0
LINE
  8
PT3-Grafika_wekt5
  6
CONTINUOUS
 62
     7
 10
399.7202
 20
136.660900000000000
 11
399.7202
 21
136.360600000000010
  0
LINE
  8
PT3-Grafika_wekt5
  6
CONTINUOUS
 62
     7
 10
399.7202
 20
136.360600000000010
 11
387.7153
 21
136.360600000000010
  0
LINE
  8
PT3-Grafika_wekt5
  6
CONTINUOUS
 62
     7
 10
387.7153
 20
136.661000000000000
 11
388.4155
 21
137.361400000000000
  0
LINE
  8
PT3-Grafika_wekt5
  6
CONTINUOUS
 62
     7
 10
388.4155
 20
137.361400000000000
 11
388.4155
 21
151.472800000000010
  0
LINE
  8
PT3-Grafika_wekt5
  6
CONTINUOUS
 62
     7
 10
388.4155
 20
151.472800000000010
 11
387.7153
 21
152.173200000000010
  0
LINE
  8
PT3-Grafika_wekt5
  6
CONTINUOUS
 62
     7
 10
387.7153
 20
152.173299999999980
 11
399.7199
 21
152.173200000000010
  0
LINE
  8
PT3-Grafika_wekt5
  6
CONTINUOUS
 62
     7
 10
399.7199
 20
152.173200000000010
 11
399.0197
 21
151.472800000000010
  0
LINE
  8
PT3-Grafika_wekt5
  6
CONTINUOUS
 62
     7
 10
399.0197
 20
151.472800000000010
 11
388.4155
 21
151.472800000000010
  0
LINE
  8
PT3-Grafika_wekt5
  6
CONTINUOUS
 62
     7
 10
388.4155
 20
137.361400000000000
 11
399.0197
 21
137.361400000000000
  0
LINE
  8
PT3-Grafika_wekt5
  6
CONTINUOUS
 62
     7
 10
399.0197
 20
137.361400000000000
 11
399.0197
 21
151.472800000000010
  0
LINE
  8
PT3-Grafika_wekt5
  6
CONTINUOUS
 62
     7
 10
399.0197
 20
137.361400000000000
 11
399.7199
 21
136.660900000000000
  0
LINE
  8
PT3-Grafika_wekt5
  6
CONTINUOUS
 62
     7
 10
364.9556
 20
136.360600000000010
 11
364.9556
 21
136.660900000000000
  0
LINE
  8
PT3-Grafika_wekt5
  6
CONTINUOUS
 62
     7
 10
364.9556
 20
136.660900000000000
 11
376.9605
 21
136.660900000000000
  0
LINE
  8
PT3-Grafika_wekt5
  6
CONTINUOUS
 62
     7
 10
376.9605
 20
136.660900000000000
 11
376.9605
 21
136.360600000000010
  0
LINE
  8
PT3-Grafika_wekt5
  6
CONTINUOUS
 62
     7
 10
376.9605
 20
136.360600000000010
 11
364.9556
 21
136.360600000000010
  0
LINE
  8
PT3-Grafika_wekt5
  6
CONTINUOUS
 62
     7
 10
364.9556
 20
136.661000000000000
 11
365.6557
 21
137.361400000000000
  0
LINE
  8
PT3-Grafika_wekt5
  6
CONTINUOUS
 62
     7
 10
365.6557
 20
137.361400000000000
 11
365.6557
 21
151.472800000000010
  0
LINE
  8
PT3-Grafika_wekt5
  6
CONTINUOUS
 62
     7
 10
365.6557
 20
151.472800000000010
 11
364.9556
 21
152.173200000000010
  0
LINE
  8
PT3-Grafika_wekt5
  6
CONTINUOUS
 62
     7
 10
365.6557
 20
137.361400000000000
 11
376.26
 21
137.361400000000000
  0
LINE
  8
PT3-Grafika_wekt5
  6
CONTINUOUS
 62
     7
 10
376.26
 20
137.361400000000000
 11
376.26
 21
151.472800000000010
  0
LINE
  8
PT3-Grafika_wekt5
  6
CONTINUOUS
 62
     7
 10
376.26
 20
151.472800000000010
 11
365.6557
 21
151.472800000000010
  0
LINE
  8
PT3-Grafika_wekt5
  6
CONTINUOUS
 62
     7
 10
376.26
 20
137.361400000000000
 11
376.9603
 21
136.660900000000000
  0
LINE
  8
PT3-Grafika_wekt5
  6
CONTINUOUS
 62
     7
 10
376.26
 20
151.472800000000010
 11
376.9603
 21
152.173299999999980
  0
LINE
  8
PT3-Grafika_wekt5
  6
CONTINUOUS
 62
     7
 10
433.2336
 20
136.360600000000010
 11
433.2336
 21
136.660900000000000
  0
LINE
  8
PT3-Grafika_wekt5
  6
CONTINUOUS
 62
     7
 10
433.2336
 20
136.660900000000000
 11
445.2385
 21
136.660900000000000
  0
LINE
  8
PT3-Grafika_wekt5
  6
CONTINUOUS
 62
     7
 10
445.2385
 20
136.660900000000000
 11
445.2385
 21
136.360600000000010
  0
LINE
  8
PT3-Grafika_wekt5
  6
CONTINUOUS
 62
     7
 10
445.2385
 20
136.360600000000010
 11
433.2336
 21
136.360600000000010
  0
LINE
  8
PT3-Grafika_wekt5
  6
CONTINUOUS
 62
     7
 10
433.2336
 20
136.661000000000000
 11
433.9337
 21
137.361400000000000
  0
LINE
  8
PT3-Grafika_wekt5
  6
CONTINUOUS
 62
     7
 10
433.9337
 20
137.361400000000000
 11
433.9337
 21
151.472800000000010
  0
LINE
  8
PT3-Grafika_wekt5
  6
CONTINUOUS
 62
     7
 10
433.9337
 20
151.472800000000010
 11
433.2336
 21
152.173200000000010
  0
LINE
  8
PT3-Grafika_wekt5
  6
CONTINUOUS
 62
     7
 10
433.2336
 20
152.173299999999980
 11
445.2383
 21
152.173200000000010
  0
LINE
  8
PT3-Grafika_wekt5
  6
CONTINUOUS
 62
     7
 10
445.2383
 20
152.173200000000010
 11
444.538
 21
151.472800000000010
  0
LINE
  8
PT3-Grafika_wekt5
  6
CONTINUOUS
 62
     7
 10
444.538
 20
151.472800000000010
 11
433.9337
 21
151.472800000000010
  0
LINE
  8
PT3-Grafika_wekt5
  6
CONTINUOUS
 62
     7
 10
433.9337
 20
137.361400000000000
 11
444.538
 21
137.361400000000000
  0
LINE
  8
PT3-Grafika_wekt5
  6
CONTINUOUS
 62
     7
 10
444.538
 20
137.361400000000000
 11
444.538
 21
151.472800000000010
  0
LINE
  8
PT3-Grafika_wekt5
  6
CONTINUOUS
 62
     7
 10
444.538
 20
137.361400000000000
 11
445.2383
 21
136.660900000000000
  0
LINE
  8
PT3-Grafika_wekt5
  6
CONTINUOUS
 62
     7
 10
45.697
 20
169.887499999999990
 11
45.697
 21
170.187700000000010
  0
LINE
  8
PT3-Grafika_wekt5
  6
CONTINUOUS
 62
     7
 10
45.697
 20
170.187700000000010
 11
46.1973
 21
170.187700000000010
  0
LINE
  8
PT3-Grafika_wekt5
  6
CONTINUOUS
 62
     7
 10
46.1973
 20
169.887499999999990
 11
45.697
 21
169.887499999999990
  0
LINE
  8
PT3-Grafika_wekt5
  6
CONTINUOUS
 62
     7
 10
172.198
 20
169.887499999999990
 11
172.198
 21
170.187700000000010
  0
LINE
  8
PT3-Grafika_wekt5
  6
CONTINUOUS
 62
     7
 10
172.198
 20
170.187700000000010
 11
172.8983
 21
170.888300000000020
  0
LINE
  8
PT3-Grafika_wekt5
  6
CONTINUOUS
 62
     7
 10
172.8983
 20
170.888300000000020
 11
172.8983
 21
181.196599999999990
  0
LINE
  8
PT3-Grafika_wekt5
  6
CONTINUOUS
 62
     7
 10
172.8983
 20
181.196599999999990
 11
172.198
 21
181.897099999999990
  0
LINE
  8
PT3-Grafika_wekt5
  6
CONTINUOUS
 62
     7
 10
172.198
 20
181.897099999999990
 11
187.204
 21
181.897099999999990
  0
LINE
  8
PT3-Grafika_wekt5
  6
CONTINUOUS
 62
     7
 10
187.204
 20
181.897099999999990
 11
186.5037
 21
181.196599999999990
  0
LINE
  8
PT3-Grafika_wekt5
  6
CONTINUOUS
 62
     7
 10
186.5037
 20
181.196599999999990
 11
172.8983
 21
181.196599999999990
  0
LINE
  8
PT3-Grafika_wekt5
  6
CONTINUOUS
 62
     7
 10
172.198
 20
170.187700000000010
 11
187.204
 21
170.187700000000010
  0
LINE
  8
PT3-Grafika_wekt5
  6
CONTINUOUS
 62
     7
 10
187.204
 20
170.187700000000010
 11
186.5037
 21
170.888300000000020
  0
LINE
  8
PT3-Grafika_wekt5
  6
CONTINUOUS
 62
     7
 10
186.5037
 20
170.888300000000020
 11
172.8983
 21
170.888300000000020
  0
LINE
  8
PT3-Grafika_wekt5
  6
CONTINUOUS
 62
     7
 10
186.5037
 20
170.888300000000020
 11
186.5037
 21
181.196599999999990
  0
LINE
  8
PT3-Grafika_wekt5
  6
CONTINUOUS
 62
     7
 10
187.204
 20
169.887499999999990
 11
172.198
 21
169.887499999999990
  0
LINE
  8
PT3-Grafika_wekt5
  6
CONTINUOUS
 62
     7
 10
187.204
 20
170.187700000000010
 11
187.204
 21
169.887499999999990
  0
LINE
  8
PT3-Grafika_wekt5
  6
CONTINUOUS
 62
     7
 10
262.6171
 20
174.391099999999990
 11
262.6986
 21
173.691599999999990
  0
LINE
  8
PT3-Grafika_wekt5
  6
CONTINUOUS
 62
     7
 10
262.6986
 20
173.691599999999990
 11
262.9408
 21
173.013399999999990
  0
LINE
  8
PT3-Grafika_wekt5
  6
CONTINUOUS
 62
     7
 10
262.9408
 20
173.013399999999990
 11
263.3363
 21
172.377099999999980
  0
LINE
  8
PT3-Grafika_wekt5
  6
CONTINUOUS
 62
     7
 10
263.3363
 20
172.377099999999980
 11
263.8731
 21
171.801899999999990
  0
LINE
  8
PT3-Grafika_wekt5
  6
CONTINUOUS
 62
     7
 10
263.8731
 20
171.801899999999990
 11
264.5348
 21
171.305400000000020
  0
LINE
  8
PT3-Grafika_wekt5
  6
CONTINUOUS
 62
     7
 10
264.5348
 20
171.305400000000020
 11
265.3014
 21
170.902600000000010
  0
LINE
  8
PT3-Grafika_wekt5
  6
CONTINUOUS
 62
     7
 10
265.3014
 20
170.902600000000010
 11
266.1495
 21
170.605900000000020
  0
LINE
  8
PT3-Grafika_wekt5
  6
CONTINUOUS
 62
     7
 10
266.1495
 20
170.605900000000020
 11
267.0535
 21
170.424199999999980
  0
LINE
  8
PT3-Grafika_wekt5
  6
CONTINUOUS
 62
     7
 10
267.0535
 20
170.424199999999980
 11
267.9858
 21
170.363000000000000
  0
LINE
  8
PT3-Grafika_wekt5
  6
CONTINUOUS
 62
     7
 10
267.9858
 20
170.363000000000000
 11
268.918
 21
170.424199999999980
  0
LINE
  8
PT3-Grafika_wekt5
  6
CONTINUOUS
 62
     7
 10
268.918
 20
170.424199999999980
 11
269.822
 21
170.605900000000020
  0
LINE
  8
PT3-Grafika_wekt5
  6
CONTINUOUS
 62
     7
 10
269.822
 20
170.605900000000020
 11
270.6702
 21
170.902600000000010
  0
LINE
  8
PT3-Grafika_wekt5
  6
CONTINUOUS
 62
     7
 10
270.6702
 20
170.902600000000010
 11
271.4367
 21
171.305400000000020
  0
LINE
  8
PT3-Grafika_wekt5
  6
CONTINUOUS
 62
     7
 10
271.4367
 20
171.305400000000020
 11
272.0984
 21
171.801899999999990
  0
LINE
  8
PT3-Grafika_wekt5
  6
CONTINUOUS
 62
     7
 10
272.0984
 20
171.801899999999990
 11
272.6352
 21
172.377099999999980
  0
LINE
  8
PT3-Grafika_wekt5
  6
CONTINUOUS
 62
     7
 10
272.6352
 20
172.377099999999980
 11
273.0307
 21
173.013399999999990
  0
LINE
  8
PT3-Grafika_wekt5
  6
CONTINUOUS
 62
     7
 10
273.0307
 20
173.013399999999990
 11
273.2729
 21
173.691599999999990
  0
LINE
  8
PT3-Grafika_wekt5
  6
CONTINUOUS
 62
     7
 10
273.2729
 20
173.691599999999990
 11
273.3545
 21
174.391099999999990
  0
LINE
  8
PT3-Grafika_wekt5
  6
CONTINUOUS
 62
     7
 10
273.3545
 20
174.391099999999990
 11
273.2729
 21
175.090599999999990
  0
LINE
  8
PT3-Grafika_wekt5
  6
CONTINUOUS
 62
     7
 10
273.2729
 20
175.090599999999990
 11
273.0307
 21
175.768800000000000
  0
LINE
  8
PT3-Grafika_wekt5
  6
CONTINUOUS
 62
     7
 10
273.0307
 20
175.768800000000000
 11
272.6352
 21
176.405199999999980
  0
LINE
  8
PT3-Grafika_wekt5
  6
CONTINUOUS
 62
     7
 10
272.6352
 20
176.405199999999980
 11
272.0984
 21
176.980300000000000
  0
LINE
  8
PT3-Grafika_wekt5
  6
CONTINUOUS
 62
     7
 10
272.0984
 20
176.980300000000000
 11
271.4367
 21
177.476900000000000
  0
LINE
  8
PT3-Grafika_wekt5
  6
CONTINUOUS
 62
     7
 10
271.4367
 20
177.476900000000000
 11
270.6702
 21
177.879599999999980
  0
LINE
  8
PT3-Grafika_wekt5
  6
CONTINUOUS
 62
     7
 10
270.6702
 20
177.879599999999980
 11
269.822
 21
178.176400000000000
  0
LINE
  8
PT3-Grafika_wekt5
  6
CONTINUOUS
 62
     7
 10
269.822
 20
178.176400000000000
 11
268.918
 21
178.358000000000000
  0
LINE
  8
PT3-Grafika_wekt5
  6
CONTINUOUS
 62
     7
 10
268.918
 20
178.358000000000000
 11
267.9858
 21
178.419199999999990
  0
LINE
  8
PT3-Grafika_wekt5
  6
CONTINUOUS
 62
     7
 10
267.9858
 20
178.419199999999990
 11
267.0535
 21
178.358000000000000
  0
LINE
  8
PT3-Grafika_wekt5
  6
CONTINUOUS
 62
     7
 10
267.0535
 20
178.358000000000000
 11
266.1495
 21
178.176400000000000
  0
LINE
  8
PT3-Grafika_wekt5
  6
CONTINUOUS
 62
     7
 10
266.1495
 20
178.176400000000000
 11
265.3014
 21
177.879599999999980
  0
LINE
  8
PT3-Grafika_wekt5
  6
CONTINUOUS
 62
     7
 10
265.3014
 20
177.879599999999980
 11
264.5348
 21
177.476900000000000
  0
LINE
  8
PT3-Grafika_wekt5
  6
CONTINUOUS
 62
     7
 10
264.5348
 20
177.476900000000000
 11
263.8731
 21
176.980300000000000
  0
LINE
  8
PT3-Grafika_wekt5
  6
CONTINUOUS
 62
     7
 10
263.8731
 20
176.980300000000000
 11
263.3363
 21
176.405199999999980
  0
LINE
  8
PT3-Grafika_wekt5
  6
CONTINUOUS
 62
     7
 10
263.3363
 20
176.405199999999980
 11
262.9408
 21
175.768800000000000
  0
LINE
  8
PT3-Grafika_wekt5
  6
CONTINUOUS
 62
     7
 10
262.9408
 20
175.768800000000000
 11
262.6986
 21
175.090599999999990
  0
LINE
  8
PT3-Grafika_wekt5
  6
CONTINUOUS
 62
     7
 10
262.6986
 20
175.090599999999990
 11
262.6171
 21
174.391099999999990
  0
LINE
  8
PT3-Grafika_wekt5
  6
CONTINUOUS
 62
     7
 10
263.1585
 20
174.646700000000010
 11
263.1726
 21
174.013900000000010
  0
LINE
  8
PT3-Grafika_wekt5
  6
CONTINUOUS
 62
     7
 10
263.1726
 20
174.013900000000010
 11
263.3331
 21
173.392499999999980
  0
LINE
  8
PT3-Grafika_wekt5
  6
CONTINUOUS
 62
     7
 10
263.3331
 20
173.392499999999980
 11
263.6348
 21
172.801400000000000
  0
LINE
  8
PT3-Grafika_wekt5
  6
CONTINUOUS
 62
     7
 10
263.6348
 20
172.801400000000000
 11
264.0689
 21
172.258800000000010
  0
LINE
  8
PT3-Grafika_wekt5
  6
CONTINUOUS
 62
     7
 10
264.0689
 20
172.258800000000010
 11
264.6219
 21
171.780900000000000
  0
LINE
  8
PT3-Grafika_wekt5
  6
CONTINUOUS
 62
     7
 10
264.6219
 20
171.780900000000000
 11
265.2771
 21
171.382200000000010
  0
LINE
  8
PT3-Grafika_wekt5
  6
CONTINUOUS
 62
     7
 10
265.2771
 20
171.382200000000010
 11
266.0146
 21
171.075100000000020
  0
LINE
  8
PT3-Grafika_wekt5
  6
CONTINUOUS
 62
     7
 10
266.0146
 20
171.075100000000020
 11
266.812
 21
170.868499999999980
  0
LINE
  8
PT3-Grafika_wekt5
  6
CONTINUOUS
 62
     7
 10
266.812
 20
170.868499999999980
 11
267.6451
 21
170.769200000000010
  0
LINE
  8
PT3-Grafika_wekt5
  6
CONTINUOUS
 62
     7
 10
267.6451
 20
170.769200000000010
 11
268.4885
 21
170.779799999999990
  0
LINE
  8
PT3-Grafika_wekt5
  6
CONTINUOUS
 62
     7
 10
268.4885
 20
170.779799999999990
 11
269.3167
 21
170.900199999999980
  0
LINE
  8
PT3-Grafika_wekt5
  6
CONTINUOUS
 62
     7
 10
269.3167
 20
170.900199999999980
 11
270.1045
 21
171.126700000000000
  0
LINE
  8
PT3-Grafika_wekt5
  6
CONTINUOUS
 62
     7
 10
270.1045
 20
171.126700000000000
 11
270.8278
 21
171.452299999999980
  0
LINE
  8
PT3-Grafika_wekt5
  6
CONTINUOUS
 62
     7
 10
270.8278
 20
171.452299999999980
 11
271.4647
 21
171.867200000000000
  0
LINE
  8
PT3-Grafika_wekt5
  6
CONTINUOUS
 62
     7
 10
271.4647
 20
171.867200000000000
 11
271.996
 21
172.358800000000000
  0
LINE
  8
PT3-Grafika_wekt5
  6
CONTINUOUS
 62
     7
 10
271.996
 20
172.358800000000000
 11
272.4054
 21
172.912199999999980
  0
LINE
  8
PT3-Grafika_wekt5
  6
CONTINUOUS
 62
     7
 10
272.4054
 20
172.912199999999980
 11
272.6806
 21
173.510499999999980
  0
LINE
  8
PT3-Grafika_wekt5
  6
CONTINUOUS
 62
     7
 10
272.6806
 20
173.510499999999980
 11
272.8131
 21
174.135499999999980
  0
LINE
  8
PT3-Grafika_wekt5
  6
CONTINUOUS
 62
     7
 10
272.8131
 20
174.135499999999980
 11
272.7988
 21
174.768399999999990
  0
LINE
  8
PT3-Grafika_wekt5
  6
CONTINUOUS
 62
     7
 10
272.7988
 20
174.768399999999990
 11
272.6384
 21
175.389799999999980
  0
LINE
  8
PT3-Grafika_wekt5
  6
CONTINUOUS
 62
     7
 10
272.6384
 20
175.389799999999980
 11
272.3366
 21
175.980799999999990
  0
LINE
  8
PT3-Grafika_wekt5
  6
CONTINUOUS
 62
     7
 10
272.3366
 20
175.980799999999990
 11
271.9027
 21
176.523500000000010
  0
LINE
  8
PT3-Grafika_wekt5
  6
CONTINUOUS
 62
     7
 10
271.9027
 20
176.523500000000010
 11
271.3496
 21
177.001399999999990
  0
LINE
  8
PT3-Grafika_wekt5
  6
CONTINUOUS
 62
     7
 10
271.3496
 20
177.001399999999990
 11
270.6944
 21
177.400000000000010
  0
LINE
  8
PT3-Grafika_wekt5
  6
CONTINUOUS
 62
     7
 10
270.6944
 20
177.400000000000010
 11
269.9569
 21
177.707200000000000
  0
LINE
  8
PT3-Grafika_wekt5
  6
CONTINUOUS
 62
     7
 10
269.9569
 20
177.707200000000000
 11
269.1594
 21
177.913700000000010
  0
LINE
  8
PT3-Grafika_wekt5
  6
CONTINUOUS
 62
     7
 10
269.1594
 20
177.913700000000010
 11
268.3264
 21
178.013000000000010
  0
LINE
  8
PT3-Grafika_wekt5
  6
CONTINUOUS
 62
     7
 10
268.3264
 20
178.013000000000010
 11
267.483
 21
178.002399999999990
  0
LINE
  8
PT3-Grafika_wekt5
  6
CONTINUOUS
 62
     7
 10
267.483
 20
178.002399999999990
 11
266.6548
 21
177.882099999999980
  0
LINE
  8
PT3-Grafika_wekt5
  6
CONTINUOUS
 62
     7
 10
266.6548
 20
177.882099999999980
 11
265.8671
 21
177.655599999999990
  0
LINE
  8
PT3-Grafika_wekt5
  6
CONTINUOUS
 62
     7
 10
265.8671
 20
177.655599999999990
 11
265.1438
 21
177.329999999999980
  0
LINE
  8
PT3-Grafika_wekt5
  6
CONTINUOUS
 62
     7
 10
265.1438
 20
177.329999999999980
 11
264.5068
 21
176.915000000000020
  0
LINE
  8
PT3-Grafika_wekt5
  6
CONTINUOUS
 62
     7
 10
264.5068
 20
176.915000000000020
 11
263.9755
 21
176.423400000000020
  0
LINE
  8
PT3-Grafika_wekt5
  6
CONTINUOUS
 62
     7
 10
263.9755
 20
176.423400000000020
 11
263.5661
 21
175.870099999999980
  0
LINE
  8
PT3-Grafika_wekt5
  6
CONTINUOUS
 62
     7
 10
263.5661
 20
175.870099999999980
 11
263.2909
 21
175.271700000000010
  0
LINE
  8
PT3-Grafika_wekt5
  6
CONTINUOUS
 62
     7
 10
263.2909
 20
175.271700000000010
 11
263.1585
 21
174.646700000000010
  0
LINE
  8
PT3-Grafika_wekt5
  6
CONTINUOUS
 62
     7
 10
265.4026
 20
170.344600000000010
 11
265.551
 21
170.292700000000000
  0
LINE
  8
PT3-Grafika_wekt5
  6
CONTINUOUS
 62
     7
 10
267.3212
 20
169.931199999999990
 11
267.4048
 21
169.925700000000010
  0
LINE
  8
PT3-Grafika_wekt5
  6
CONTINUOUS
 62
     7
 10
268.7972
 20
169.940800000000000
 11
269.0281
 21
169.955899999999990
  0
LINE
  8
PT3-Grafika_wekt5
  6
CONTINUOUS
 62
     7
 10
269.0281
 20
169.955899999999990
 11
269.2539
 21
170.001300000000010
  0
LINE
  8
PT3-Grafika_wekt5
  6
CONTINUOUS
 62
     7
 10
269.6609
 20
178.699099999999990
 11
269.7962
 21
178.671899999999990
  0
LINE
  8
PT3-Grafika_wekt5
  6
CONTINUOUS
 62
     7
 10
270.4875
 20
170.316100000000010
 11
270.8235
 21
170.433699999999990
  0
LINE
  8
PT3-Grafika_wekt5
  6
CONTINUOUS
 62
     7
 10
271.3496
 20
177.001399999999990
 11
271.5103
 21
176.862500000000010
  0
LINE
  8
PT3-Grafika_wekt5
  6
CONTINUOUS
 62
     7
 10
271.9027
 20
176.523500000000010
 11
272.0288
 21
176.365700000000000
  0
LINE
  8
PT3-Grafika_wekt5
  6
CONTINUOUS
 62
     7
 10
272.1801
 20
171.193299999999990
 11
272.4343
 21
171.384000000000010
  0
LINE
  8
PT3-Grafika_wekt5
  6
CONTINUOUS
 62
     7
 10
272.6128
 20
177.255000000000000
 11
272.7447
 21
177.113600000000020
  0
LINE
  8
PT3-Grafika_wekt5
  6
CONTINUOUS
 62
     7
 10
273.3337
 20
172.380100000000000
 11
273.3932
 21
172.475900000000000
  0
LINE
  8
PT3-Grafika_wekt5
  6
CONTINUOUS
 62
     7
 10
273.5423
 20
176.066500000000020
 11
273.6261
 21
175.931400000000000
  0
LINE
  8
PT3-Grafika_wekt5
  6
CONTINUOUS
 62
     7
 10
273.6261
 20
175.931400000000000
 11
273.897
 21
175.173200000000010
  0
LINE
  8
PT3-Grafika_wekt5
  6
CONTINUOUS
 62
     7
 10
273.897
 20
175.173200000000010
 11
273.9439
 21
174.771400000000000
  0
LINE
  8
PT3-Grafika_wekt5
  6
CONTINUOUS
 62
     7
 10
273.8553
 20
173.492400000000000
 11
273.897
 21
173.609100000000010
  0
LINE
  8
PT3-Grafika_wekt5
  6
CONTINUOUS
 62
     7
 10
273.897
 20
173.609100000000010
 11
273.9284
 21
173.878199999999990
  0
LINE
  8
PT3-Grafika_wekt5
  6
CONTINUOUS
 62
     7
 10
453.8614
 20
169.887499999999990
 11
454.3616
 21
169.887499999999990
  0
LINE
  8
PT3-Grafika_wekt5
  6
CONTINUOUS
 62
     7
 10
454.3616
 20
169.887499999999990
 11
454.3616
 21
170.187700000000010
  0
LINE
  8
PT3-Grafika_wekt5
  6
CONTINUOUS
 62
     7
 10
454.3616
 20
170.187700000000010
 11
453.8614
 21
170.187700000000010
  0
LINE
  8
PT3-Grafika_wekt5
  6
CONTINUOUS
 62
     7
 10
111.8245
 20
207.080500000000000
 11
111.8245
 21
210.219799999999990
  0
LINE
  8
PT3-Grafika_wekt5
  6
CONTINUOUS
 62
     7
 10
111.8245
 20
210.219799999999990
 11
116.3262
 21
210.219799999999990
  0
LINE
  8
PT3-Grafika_wekt5
  6
CONTINUOUS
 62
     7
 10
116.3262
 20
210.219799999999990
 11
116.3262
 21
210.005300000000010
  0
LINE
  8
PT3-Grafika_wekt5
  6
CONTINUOUS
 62
     7
 10
238.3747
 20
85.820200000000000
 11
238.3777
 21
85.820200000000000
  0
LINE
  8
PT3-Grafika_wekt5
  6
CONTINUOUS
 62
     7
 10
238.3777
 20
85.820200000000000
 11
238.3777
 21
84.070200000000000
  0
LINE
  8
PT3-Grafika_wekt5
  6
CONTINUOUS
 62
     7
 10
238.3777
 20
85.820200000000000
 11
297.5992
 21
85.820200000000000
  0
LINE
  8
PT3-Grafika_wekt5
  6
CONTINUOUS
 62
     7
 10
297.5992
 20
85.820200000000000
 11
297.5992
 21
84.070200000000000
  0
LINE
  8
PT3-Grafika_wekt5
  6
CONTINUOUS
 62
     7
 10
453.8614
 20
86.700600000000009
 11
454.3015
 21
86.699399999999997
  0
LINE
  8
PT3-Grafika_wekt5
  6
CONTINUOUS
 62
     7
 10
371.6117
 20
206.673800000000000
 11
371.6117
 21
215.223900000000010
  0
LINE
  8
PT3-Grafika_wekt5
  6
CONTINUOUS
 62
     7
 10
371.6117
 20
215.223900000000010
 11
380.6153
 21
215.223900000000010
  0
LINE
  8
PT3-Grafika_wekt5
  6
CONTINUOUS
 62
     7
 10
380.6153
 20
215.223900000000010
 11
380.6153
 21
206.673800000000000
  0
LINE
  8
PT3-Grafika_wekt5
  6
CONTINUOUS
 62
     7
 10
241.3759
 20
85.820200000000000
 11
241.3786
 21
85.820200000000000
  0
LINE
  8
PT3-Grafika_wekt5
  6
CONTINUOUS
 62
     7
 10
241.3786
 20
85.820200000000000
 11
241.3786
 21
87.571599999999989
  0
LINE
  8
PT3-Grafika_wekt5
  6
CONTINUOUS
 62
     7
 10
241.3786
 20
87.571599999999989
 11
241.3759
 21
87.571599999999989
  0
LINE
  8
PT3-Grafika_wekt5
  6
CONTINUOUS
 62
     7
 10
241.3786
 20
85.820200000000000
 11
294.5978
 21
85.820200000000000
  0
LINE
  8
PT3-Grafika_wekt5
  6
CONTINUOUS
 62
     7
 10
294.5978
 20
85.820200000000000
 11
294.5978
 21
87.571599999999989
  0
LINE
  8
PT3-Grafika_wekt5
  6
CONTINUOUS
 62
     7
 10
294.5978
 20
87.571599999999989
 11
241.3786
 21
87.571599999999989
  0
LINE
  8
PT3-Grafika_wekt5
  6
CONTINUOUS
 62
     7
 10
244.3771
 20
88.822599999999994
 11
244.3771
 21
89.323000000000008
  0
LINE
  8
PT3-Grafika_wekt5
  6
CONTINUOUS
 62
     7
 10
244.3771
 20
89.323000000000008
 11
244.3794
 21
89.323000000000008
  0
LINE
  8
PT3-Grafika_wekt5
  6
CONTINUOUS
 62
     7
 10
244.3794
 20
89.323000000000008
 11
244.3794
 21
87.571599999999989
  0
LINE
  8
PT3-Grafika_wekt5
  6
CONTINUOUS
 62
     7
 10
244.3794
 20
89.323000000000008
 11
291.5964
 21
89.323000000000008
  0
LINE
  8
PT3-Grafika_wekt5
  6
CONTINUOUS
 62
     7
 10
291.5964
 20
89.323000000000008
 11
291.5964
 21
87.571599999999989
  0
LINE
  8
PT3-Grafika_wekt5
  6
CONTINUOUS
 62
     7
 10
453.8614
 20
86.700600000000009
 11
454.3015
 21
86.699399999999997
  0
LINE
  8
PT3-Grafika_wekt5
  6
CONTINUOUS
 62
     7
 10
232.8727
 20
206.821100000000000
 11
232.8727
 21
215.223900000000010
  0
LINE
  8
PT3-Grafika_wekt5
  6
CONTINUOUS
 62
     7
 10
232.8727
 20
215.223900000000010
 11
239.2753
 21
215.223900000000010
  0
LINE
  8
PT3-Grafika_wekt5
  6
CONTINUOUS
 62
     7
 10
239.2753
 20
215.223900000000010
 11
239.2753
 21
206.821100000000000
  0
LINE
  8
PT3-Grafika_wekt5
  6
CONTINUOUS
 62
     7
 10
111.8245
 20
207.080500000000000
 11
111.8245
 21
210.219799999999990
  0
LINE
  8
PT3-Grafika_wekt5
  6
CONTINUOUS
 62
     7
 10
111.8245
 20
210.219799999999990
 11
116.3262
 21
210.219799999999990
  0
LINE
  8
PT3-Grafika_wekt5
  6
CONTINUOUS
 62
     7
 10
116.3262
 20
210.219799999999990
 11
116.3262
 21
210.005300000000010
  0
LINE
  8
PT3-Grafika_wekt5
  6
CONTINUOUS
 62
     7
 10
57.2022
 20
186.604699999999980
 11
57.2022
 21
195.207800000000020
  0
LINE
  8
PT3-Grafika_wekt5
  6
CONTINUOUS
 62
     7
 10
57.2022
 20
195.207800000000020
 11
63.6048
 21
195.207800000000020
  0
LINE
  8
PT3-Grafika_wekt5
  6
CONTINUOUS
 62
     7
 10
63.6048
 20
195.207800000000020
 11
63.6048
 21
186.604699999999980
  0
LINE
  8
PT3-Grafika_wekt5
  6
CONTINUOUS
 62
     7
 10
45.697
 20
84.070200000000000
 11
45.697
 21
88.822599999999994
  0
LINE
  8
PT3-Grafika_wekt5
  6
CONTINUOUS
 62
     7
 10
45.697
 20
88.822599999999994
 11
244.3771
 21
88.822599999999994
  0
LINE
  8
PT3-Grafika_wekt5
  6
CONTINUOUS
 62
     7
 10
46.1973
 20
88.822599999999994
 11
46.1973
 21
89.222900000000010
  0
LINE
  8
PT3-Grafika_wekt5
  6
CONTINUOUS
 62
     7
 10
46.1973
 20
111.332200000000000
 11
46.1973
 21
125.151700000000010
  0
LINE
  8
PT3-Grafika_wekt5
  6
CONTINUOUS
 62
     7
 10
46.1973
 20
125.151700000000010
 11
46.1973
 21
88.822599999999994
  0
LINE
  8
PT3-Grafika_wekt5
  6
CONTINUOUS
 62
     7
 10
46.1973
 20
125.151700000000010
 11
46.1973
 21
135.860300000000000
  0
LINE
  8
PT3-Grafika_wekt5
  6
CONTINUOUS
 62
     7
 10
249.3787
 20
125.151700000000010
 11
249.3787
 21
89.323000000000008
  0
LINE
  8
PT3-Grafika_wekt5
  6
CONTINUOUS
 62
     7
 10
46.1973
 20
136.160500000000010
 11
46.1973
 21
159.845599999999990
  0
LINE
  8
PT3-Grafika_wekt5
  6
CONTINUOUS
 62
     7
 10
46.1973
 20
159.845599999999990
 11
46.1973
 21
125.151700000000010
  0
LINE
  8
PT3-Grafika_wekt5
  6
CONTINUOUS
 62
     7
 10
46.1973
 20
164.444799999999990
 11
46.1973
 21
169.887499999999990
  0
LINE
  8
PT3-Grafika_wekt5
  6
CONTINUOUS
 62
     7
 10
46.1973
 20
170.187700000000010
 11
46.1973
 21
182.478399999999990
  0
LINE
  8
PT3-Grafika_wekt5
  6
CONTINUOUS
 62
     7
 10
46.1973
 20
182.478399999999990
 11
46.1973
 21
164.444799999999990
  0
LINE
  8
PT3-Grafika_wekt5
  6
CONTINUOUS
 62
     7
 10
56.4514
 20
99.331099999999992
 11
56.4514
 21
118.846600000000000
  0
LINE
  8
PT3-Grafika_wekt5
  6
CONTINUOUS
 62
     7
 10
56.4514
 20
118.846600000000000
 11
73.0581
 21
118.846600000000000
  0
LINE
  8
PT3-Grafika_wekt5
  6
CONTINUOUS
 62
     7
 10
73.0581
 20
118.846600000000000
 11
73.0581
 21
99.331099999999992
  0
LINE
  8
PT3-Grafika_wekt5
  6
CONTINUOUS
 62
     7
 10
58.7523
 20
136.360600000000010
 11
58.7523
 21
152.173299999999980
  0
LINE
  8
PT3-Grafika_wekt5
  6
CONTINUOUS
 62
     7
 10
58.7523
 20
152.173299999999980
 11
70.7571
 21
152.173299999999980
  0
LINE
  8
PT3-Grafika_wekt5
  6
CONTINUOUS
 62
     7
 10
70.7571
 20
152.173299999999980
 11
70.7571
 21
136.660900000000000
  0
LINE
  8
PT3-Grafika_wekt5
  6
CONTINUOUS
 62
     7
 10
82.4619
 20
99.331099999999992
 11
82.4619
 21
118.846600000000000
  0
LINE
  8
PT3-Grafika_wekt5
  6
CONTINUOUS
 62
     7
 10
82.4619
 20
118.846600000000000
 11
99.0686
 21
118.846600000000000
  0
LINE
  8
PT3-Grafika_wekt5
  6
CONTINUOUS
 62
     7
 10
99.0686
 20
118.846600000000000
 11
99.0686
 21
99.631300000000010
  0
LINE
  8
PT3-Grafika_wekt5
  6
CONTINUOUS
 62
     7
 10
84.7628
 20
136.360600000000010
 11
84.7628
 21
152.173299999999980
  0
LINE
  8
PT3-Grafika_wekt5
  6
CONTINUOUS
 62
     7
 10
84.7628
 20
152.173299999999980
 11
96.7676
 21
152.173299999999980
  0
LINE
  8
PT3-Grafika_wekt5
  6
CONTINUOUS
 62
     7
 10
96.7676
 20
152.173299999999980
 11
96.7676
 21
136.660900000000000
  0
LINE
  8
PT3-Grafika_wekt5
  6
CONTINUOUS
 62
     7
 10
108.4724
 20
99.331099999999992
 11
108.4724
 21
118.846600000000000
  0
LINE
  8
PT3-Grafika_wekt5
  6
CONTINUOUS
 62
     7
 10
108.4724
 20
118.846600000000000
 11
125.0791
 21
118.846600000000000
  0
LINE
  8
PT3-Grafika_wekt5
  6
CONTINUOUS
 62
     7
 10
125.0791
 20
118.846600000000000
 11
125.0791
 21
99.631300000000010
  0
LINE
  8
PT3-Grafika_wekt5
  6
CONTINUOUS
 62
     7
 10
110.7732
 20
136.360600000000010
 11
110.7732
 21
152.173299999999980
  0
LINE
  8
PT3-Grafika_wekt5
  6
CONTINUOUS
 62
     7
 10
110.7732
 20
152.173299999999980
 11
122.7781
 21
152.173299999999980
  0
LINE
  8
PT3-Grafika_wekt5
  6
CONTINUOUS
 62
     7
 10
122.7781
 20
152.173299999999980
 11
122.7781
 21
136.660900000000000
  0
LINE
  8
PT3-Grafika_wekt5
  6
CONTINUOUS
 62
     7
 10
138.8346
 20
99.631300000000010
 11
138.8346
 21
118.846600000000000
  0
LINE
  8
PT3-Grafika_wekt5
  6
CONTINUOUS
 62
     7
 10
138.8346
 20
118.846600000000000
 11
144.837
 21
118.846600000000000
  0
LINE
  8
PT3-Grafika_wekt5
  6
CONTINUOUS
 62
     7
 10
144.837
 20
118.846600000000000
 11
144.837
 21
99.631300000000010
  0
LINE
  8
PT3-Grafika_wekt5
  6
CONTINUOUS
 62
     7
 10
141.936
 20
136.660900000000000
 11
141.936
 21
152.173299999999980
  0
LINE
  8
PT3-Grafika_wekt5
  6
CONTINUOUS
 62
     7
 10
141.936
 20
152.173299999999980
 11
153.9408
 21
152.173299999999980
  0
LINE
  8
PT3-Grafika_wekt5
  6
CONTINUOUS
 62
     7
 10
153.9408
 20
152.173299999999980
 11
153.9408
 21
136.660900000000000
  0
LINE
  8
PT3-Grafika_wekt5
  6
CONTINUOUS
 62
     7
 10
151.0395
 20
99.331099999999992
 11
151.0395
 21
118.846600000000000
  0
LINE
  8
PT3-Grafika_wekt5
  6
CONTINUOUS
 62
     7
 10
151.0395
 20
118.846600000000000
 11
157.0419
 21
118.846600000000000
  0
LINE
  8
PT3-Grafika_wekt5
  6
CONTINUOUS
 62
     7
 10
157.0419
 20
118.846600000000000
 11
157.0419
 21
99.631300000000010
  0
LINE
  8
PT3-Grafika_wekt5
  6
CONTINUOUS
 62
     7
 10
164.695
 20
164.444799999999990
 11
164.695
 21
183.947400000000020
  0
LINE
  8
PT3-Grafika_wekt5
  6
CONTINUOUS
 62
     7
 10
171.3977
 20
99.331099999999992
 11
171.3977
 21
118.846600000000000
  0
LINE
  8
PT3-Grafika_wekt5
  6
CONTINUOUS
 62
     7
 10
171.3977
 20
118.846600000000000
 11
188.0043
 21
118.846600000000000
  0
LINE
  8
PT3-Grafika_wekt5
  6
CONTINUOUS
 62
     7
 10
188.0043
 20
118.846600000000000
 11
188.0043
 21
99.631300000000010
  0
LINE
  8
PT3-Grafika_wekt5
  6
CONTINUOUS
 62
     7
 10
172.198
 20
169.887499999999990
 11
172.198
 21
181.897099999999990
  0
LINE
  8
PT3-Grafika_wekt5
  6
CONTINUOUS
 62
     7
 10
172.198
 20
181.897099999999990
 11
187.204
 21
181.897099999999990
  0
LINE
  8
PT3-Grafika_wekt5
  6
CONTINUOUS
 62
     7
 10
187.204
 20
181.897099999999990
 11
187.204
 21
170.187700000000010
  0
LINE
  8
PT3-Grafika_wekt5
  6
CONTINUOUS
 62
     7
 10
173.6986
 20
136.360600000000010
 11
173.6986
 21
152.173299999999980
  0
LINE
  8
PT3-Grafika_wekt5
  6
CONTINUOUS
 62
     7
 10
173.6986
 20
152.173299999999980
 11
185.7034
 21
152.173299999999980
  0
LINE
  8
PT3-Grafika_wekt5
  6
CONTINUOUS
 62
     7
 10
185.7034
 20
152.173299999999980
 11
185.7034
 21
136.660900000000000
  0
LINE
  8
PT3-Grafika_wekt5
  6
CONTINUOUS
 62
     7
 10
187.204
 20
169.887499999999990
 11
172.198
 21
169.887499999999990
  0
LINE
  8
PT3-Grafika_wekt5
  6
CONTINUOUS
 62
     7
 10
194.707
 20
164.444799999999990
 11
194.707
 21
183.947400000000020
  0
LINE
  8
PT3-Grafika_wekt5
  6
CONTINUOUS
 62
     7
 10
197.4081
 20
99.331099999999992
 11
197.4081
 21
118.846600000000000
  0
LINE
  8
PT3-Grafika_wekt5
  6
CONTINUOUS
 62
     7
 10
197.4081
 20
118.846600000000000
 11
214.0148
 21
118.846600000000000
  0
LINE
  8
PT3-Grafika_wekt5
  6
CONTINUOUS
 62
     7
 10
214.0148
 20
118.846600000000000
 11
214.0148
 21
99.631300000000010
  0
LINE
  8
PT3-Grafika_wekt5
  6
CONTINUOUS
 62
     7
 10
199.7091
 20
136.360600000000010
 11
199.7091
 21
152.173299999999980
  0
LINE
  8
PT3-Grafika_wekt5
  6
CONTINUOUS
 62
     7
 10
199.7091
 20
152.173299999999980
 11
211.7139
 21
152.173299999999980
  0
LINE
  8
PT3-Grafika_wekt5
  6
CONTINUOUS
 62
     7
 10
211.7139
 20
152.173299999999980
 11
211.7139
 21
136.660900000000000
  0
LINE
  8
PT3-Grafika_wekt5
  6
CONTINUOUS
 62
     7
 10
223.4186
 20
99.331099999999992
 11
223.4186
 21
118.846600000000000
  0
LINE
  8
PT3-Grafika_wekt5
  6
CONTINUOUS
 62
     7
 10
223.4186
 20
118.846600000000000
 11
240.0253
 21
118.846600000000000
  0
LINE
  8
PT3-Grafika_wekt5
  6
CONTINUOUS
 62
     7
 10
240.0253
 20
118.846600000000000
 11
240.0253
 21
99.631300000000010
  0
LINE
  8
PT3-Grafika_wekt5
  6
CONTINUOUS
 62
     7
 10
225.7195
 20
136.360600000000010
 11
225.7195
 21
152.173299999999980
  0
LINE
  8
PT3-Grafika_wekt5
  6
CONTINUOUS
 62
     7
 10
225.7195
 20
152.173299999999980
 11
237.7243
 21
152.173299999999980
  0
LINE
  8
PT3-Grafika_wekt5
  6
CONTINUOUS
 62
     7
 10
237.7243
 20
152.173299999999980
 11
237.7243
 21
136.660900000000000
  0
LINE
  8
PT3-Grafika_wekt5
  6
CONTINUOUS
 62
     7
 10
249.3691
 20
163.945400000000010
 11
249.3787
 21
163.945400000000010
  0
LINE
  8
PT3-Grafika_wekt5
  6
CONTINUOUS
 62
     7
 10
249.3787
 20
125.151700000000010
 11
249.3787
 21
160.318600000000000
  0
LINE
  8
PT3-Grafika_wekt5
  6
CONTINUOUS
 62
     7
 10
249.3787
 20
160.794800000000010
 11
249.3787
 21
183.059900000000000
  0
LINE
  8
PT3-Grafika_wekt5
  6
CONTINUOUS
 62
     7
 10
286.5936
 20
125.151700000000010
 11
286.5936
 21
89.323000000000008
  0
LINE
  8
PT3-Grafika_wekt5
  6
CONTINUOUS
 62
     7
 10
258.9827
 20
89.323000000000008
 11
259.0109
 21
110.282100000000010
  0
LINE
  8
PT3-Grafika_wekt5
  6
CONTINUOUS
 62
     7
 10
259.0109
 20
110.282100000000010
 11
276.99
 21
110.282100000000010
  0
LINE
  8
PT3-Grafika_wekt5
  6
CONTINUOUS
 62
     7
 10
276.99
 20
110.282100000000010
 11
276.99
 21
89.323000000000008
  0
LINE
  8
PT3-Grafika_wekt5
  6
CONTINUOUS
 62
     7
 10
276.99
 20
89.323000000000008
 11
276.3533
 21
89.323000000000008
  0
LINE
  8
PT3-Grafika_wekt5
  6
CONTINUOUS
 62
     7
 10
258.9827
 20
110.339800000000000
 11
258.9827
 21
118.846600000000000
  0
LINE
  8
PT3-Grafika_wekt5
  6
CONTINUOUS
 62
     7
 10
258.9827
 20
118.846600000000000
 11
276.99
 21
118.846600000000000
  0
LINE
  8
PT3-Grafika_wekt5
  6
CONTINUOUS
 62
     7
 10
276.99
 20
118.846600000000000
 11
276.99
 21
110.339800000000000
  0
LINE
  8
PT3-Grafika_wekt5
  6
CONTINUOUS
 62
     7
 10
276.99
 20
110.339800000000000
 11
258.9827
 21
110.339800000000000
  0
LINE
  8
PT3-Grafika_wekt5
  6
CONTINUOUS
 62
     7
 10
258.983
 20
136.360600000000010
 11
258.983
 21
152.173299999999980
  0
LINE
  8
PT3-Grafika_wekt5
  6
CONTINUOUS
 62
     7
 10
258.983
 20
152.173299999999980
 11
276.9903
 21
152.173299999999980
  0
LINE
  8
PT3-Grafika_wekt5
  6
CONTINUOUS
 62
     7
 10
276.9903
 20
152.173299999999980
 11
276.9903
 21
136.660900000000000
  0
LINE
  8
PT3-Grafika_wekt5
  6
CONTINUOUS
 62
     7
 10
262.0126
 20
174.391099999999990
 11
262.3283
 21
173.017000000000000
  0
LINE
  8
PT3-Grafika_wekt5
  6
CONTINUOUS
 62
     7
 10
262.3283
 20
173.017000000000000
 11
262.9838
 21
171.942099999999980
  0
LINE
  8
PT3-Grafika_wekt5
  6
CONTINUOUS
 62
     7
 10
262.9838
 20
171.942099999999980
 11
264.1424
 21
170.963500000000010
  0
LINE
  8
PT3-Grafika_wekt5
  6
CONTINUOUS
 62
     7
 10
264.1424
 20
170.963500000000010
 11
265.4779
 21
170.307599999999980
  0
LINE
  8
PT3-Grafika_wekt5
  6
CONTINUOUS
 62
     7
 10
265.4779
 20
170.307599999999980
 11
267.3509
 21
169.925099999999990
  0
LINE
  8
PT3-Grafika_wekt5
  6
CONTINUOUS
 62
     7
 10
267.3509
 20
169.925099999999990
 11
269.0263
 21
169.943199999999990
  0
LINE
  8
PT3-Grafika_wekt5
  6
CONTINUOUS
 62
     7
 10
269.0263
 20
169.943199999999990
 11
270.7191
 21
170.375299999999980
  0
LINE
  8
PT3-Grafika_wekt5
  6
CONTINUOUS
 62
     7
 10
270.7191
 20
170.375299999999980
 11
272.346
 21
171.286200000000010
  0
LINE
  8
PT3-Grafika_wekt5
  6
CONTINUOUS
 62
     7
 10
272.346
 20
171.286200000000010
 11
273.3659
 21
172.415700000000020
  0
LINE
  8
PT3-Grafika_wekt5
  6
CONTINUOUS
 62
     7
 10
273.3659
 20
172.415700000000020
 11
273.9243
 21
173.644099999999980
  0
LINE
  8
PT3-Grafika_wekt5
  6
CONTINUOUS
 62
     7
 10
273.9243
 20
173.644099999999980
 11
273.9486
 21
175.047000000000000
  0
LINE
  8
PT3-Grafika_wekt5
  6
CONTINUOUS
 62
     7
 10
273.9486
 20
175.047000000000000
 11
273.6329
 21
175.947400000000020
  0
LINE
  8
PT3-Grafika_wekt5
  6
CONTINUOUS
 62
     7
 10
273.6329
 20
175.947400000000020
 11
272.6616
 21
177.222700000000000
  0
LINE
  8
PT3-Grafika_wekt5
  6
CONTINUOUS
 62
     7
 10
272.6616
 20
177.222700000000000
 11
271.2916
 21
178.128400000000000
  0
LINE
  8
PT3-Grafika_wekt5
  6
CONTINUOUS
 62
     7
 10
271.2916
 20
178.128400000000000
 11
269.7375
 21
178.693199999999990
  0
LINE
  8
PT3-Grafika_wekt5
  6
CONTINUOUS
 62
     7
 10
269.7375
 20
178.693199999999990
 11
267.6007
 21
178.857200000000010
  0
LINE
  8
PT3-Grafika_wekt5
  6
CONTINUOUS
 62
     7
 10
267.6007
 20
178.857200000000010
 11
265.6549
 21
178.516300000000000
  0
LINE
  8
PT3-Grafika_wekt5
  6
CONTINUOUS
 62
     7
 10
265.6549
 20
178.516300000000000
 11
264.0037
 21
177.732900000000000
  0
LINE
  8
PT3-Grafika_wekt5
  6
CONTINUOUS
 62
     7
 10
264.0037
 20
177.732900000000000
 11
262.8139
 21
176.644999999999980
  0
LINE
  8
PT3-Grafika_wekt5
  6
CONTINUOUS
 62
     7
 10
262.8139
 20
176.644999999999980
 11
262.3768
 21
175.921499999999980
  0
LINE
  8
PT3-Grafika_wekt5
  6
CONTINUOUS
 62
     7
 10
262.3768
 20
175.921499999999980
 11
262.0126
 21
174.391099999999990
  0
LINE
  8
PT3-Grafika_wekt5
  6
CONTINUOUS
 62
     7
 10
265.1427
 20
89.323000000000008
 11
258.9827
 21
89.323000000000008
  0
LINE
  8
PT3-Grafika_wekt5
  6
CONTINUOUS
 62
     7
 10
265.3636
 20
89.323000000000008
 11
276.3516
 21
89.323000000000008
  0
LINE
  8
PT3-Grafika_wekt5
  6
CONTINUOUS
 62
     7
 10
286.5936
 20
125.151700000000010
 11
286.5936
 21
160.179700000000000
  0
LINE
  8
PT3-Grafika_wekt5
  6
CONTINUOUS
 62
     7
 10
286.5936
 20
160.179700000000000
 11
286.5936
 21
160.318700000000010
  0
LINE
  8
PT3-Grafika_wekt5
  6
CONTINUOUS
 62
     7
 10
286.5936
 20
160.794800000000010
 11
286.5936
 21
183.060400000000020
  0
LINE
  8
PT3-Grafika_wekt5
  6
CONTINUOUS
 62
     7
 10
286.5936
 20
163.945600000000010
 11
286.604
 21
163.945600000000010
  0
LINE
  8
PT3-Grafika_wekt5
  6
CONTINUOUS
 62
     7
 10
286.594
 20
160.179700000000000
 11
286.5936
 21
160.179700000000000
  0
LINE
  8
PT3-Grafika_wekt5
  6
CONTINUOUS
 62
     7
 10
291.5964
 20
88.822599999999994
 11
449.8598
 21
88.822599999999994
  0
LINE
  8
PT3-Grafika_wekt5
  6
CONTINUOUS
 62
     7
 10
294.3772
 20
99.631300000000010
 11
294.3772
 21
118.846600000000000
  0
LINE
  8
PT3-Grafika_wekt5
  6
CONTINUOUS
 62
     7
 10
294.3772
 20
118.846600000000000
 11
310.9839
 21
118.846600000000000
  0
LINE
  8
PT3-Grafika_wekt5
  6
CONTINUOUS
 62
     7
 10
310.9839
 20
118.846600000000000
 11
310.9839
 21
99.631300000000010
  0
LINE
  8
PT3-Grafika_wekt5
  6
CONTINUOUS
 62
     7
 10
296.6786
 20
136.660900000000000
 11
296.6786
 21
152.173299999999980
  0
LINE
  8
PT3-Grafika_wekt5
  6
CONTINUOUS
 62
     7
 10
296.6786
 20
152.173299999999980
 11
308.6835
 21
152.173299999999980
  0
LINE
  8
PT3-Grafika_wekt5
  6
CONTINUOUS
 62
     7
 10
308.6835
 20
152.173299999999980
 11
308.6835
 21
136.660900000000000
  0
LINE
  8
PT3-Grafika_wekt5
  6
CONTINUOUS
 62
     7
 10
319.4378
 20
152.173299999999980
 11
319.4378
 21
136.660900000000000
  0
LINE
  8
PT3-Grafika_wekt5
  6
CONTINUOUS
 62
     7
 10
317.1368
 20
118.846600000000000
 11
317.1368
 21
99.331099999999992
  0
LINE
  8
PT3-Grafika_wekt5
  6
CONTINUOUS
 62
     7
 10
317.1368
 20
118.846600000000000
 11
333.7435
 21
118.846600000000000
  0
LINE
  8
PT3-Grafika_wekt5
  6
CONTINUOUS
 62
     7
 10
333.7435
 20
118.846600000000000
 11
333.7435
 21
99.631300000000010
  0
LINE
  8
PT3-Grafika_wekt5
  6
CONTINUOUS
 62
     7
 10
319.4378
 20
152.173299999999980
 11
331.4426
 21
152.173299999999980
  0
LINE
  8
PT3-Grafika_wekt5
  6
CONTINUOUS
 62
     7
 10
331.4426
 20
152.173299999999980
 11
331.4426
 21
136.660900000000000
  0
LINE
  8
PT3-Grafika_wekt5
  6
CONTINUOUS
 62
     7
 10
333.1933
 20
164.448899999999980
 11
333.1933
 21
183.947400000000020
  0
LINE
  8
PT3-Grafika_wekt5
  6
CONTINUOUS
 62
     7
 10
339.896
 20
118.846600000000000
 11
339.896
 21
99.631300000000010
  0
LINE
  8
PT3-Grafika_wekt5
  6
CONTINUOUS
 62
     7
 10
339.896
 20
118.846600000000000
 11
356.5027
 21
118.846600000000000
  0
LINE
  8
PT3-Grafika_wekt5
  6
CONTINUOUS
 62
     7
 10
356.5027
 20
118.846600000000000
 11
356.5027
 21
99.631300000000010
  0
LINE
  8
PT3-Grafika_wekt5
  6
CONTINUOUS
 62
     7
 10
342.1969
 20
136.660900000000000
 11
342.1969
 21
152.173299999999980
  0
LINE
  8
PT3-Grafika_wekt5
  6
CONTINUOUS
 62
     7
 10
342.1969
 20
152.173299999999980
 11
354.2018
 21
152.173299999999980
  0
LINE
  8
PT3-Grafika_wekt5
  6
CONTINUOUS
 62
     7
 10
354.2018
 20
152.173299999999980
 11
354.2018
 21
136.660900000000000
  0
LINE
  8
PT3-Grafika_wekt5
  6
CONTINUOUS
 62
     7
 10
362.6546
 20
99.631300000000010
 11
362.6546
 21
118.846600000000000
  0
LINE
  8
PT3-Grafika_wekt5
  6
CONTINUOUS
 62
     7
 10
362.6546
 20
118.846600000000000
 11
379.2613
 21
118.846600000000000
  0
LINE
  8
PT3-Grafika_wekt5
  6
CONTINUOUS
 62
     7
 10
379.2613
 20
118.846600000000000
 11
379.2613
 21
99.631300000000010
  0
LINE
  8
PT3-Grafika_wekt5
  6
CONTINUOUS
 62
     7
 10
363.2054
 20
164.448899999999980
 11
363.2054
 21
183.947400000000020
  0
LINE
  8
PT3-Grafika_wekt5
  6
CONTINUOUS
 62
     7
 10
364.9556
 20
136.660900000000000
 11
364.9556
 21
152.173299999999980
  0
LINE
  8
PT3-Grafika_wekt5
  6
CONTINUOUS
 62
     7
 10
364.9556
 20
152.173299999999980
 11
376.9604
 21
152.173299999999980
  0
LINE
  8
PT3-Grafika_wekt5
  6
CONTINUOUS
 62
     7
 10
376.9604
 20
152.173299999999980
 11
376.9604
 21
136.660900000000000
  0
LINE
  8
PT3-Grafika_wekt5
  6
CONTINUOUS
 62
     7
 10
385.4138
 20
99.631300000000010
 11
385.4138
 21
118.846600000000000
  0
LINE
  8
PT3-Grafika_wekt5
  6
CONTINUOUS
 62
     7
 10
385.4138
 20
118.846600000000000
 11
402.0205
 21
118.846600000000000
  0
LINE
  8
PT3-Grafika_wekt5
  6
CONTINUOUS
 62
     7
 10
402.0205
 20
118.846600000000000
 11
402.0203
 21
118.846600000000000
  0
LINE
  8
PT3-Grafika_wekt5
  6
CONTINUOUS
 62
     7
 10
387.7153
 20
136.660900000000000
 11
387.7153
 21
152.173299999999980
  0
LINE
  8
PT3-Grafika_wekt5
  6
CONTINUOUS
 62
     7
 10
387.7153
 20
152.173299999999980
 11
399.7201
 21
152.173299999999980
  0
LINE
  8
PT3-Grafika_wekt5
  6
CONTINUOUS
 62
     7
 10
399.7201
 20
152.173299999999980
 11
399.7199
 21
152.173299999999980
  0
LINE
  8
PT3-Grafika_wekt5
  6
CONTINUOUS
 62
     7
 10
399.7201
 20
136.660900000000000
 11
399.7201
 21
152.173299999999980
  0
LINE
  8
PT3-Grafika_wekt5
  6
CONTINUOUS
 62
     7
 10
433.2336
 20
152.173299999999980
 11
433.2336
 21
136.360600000000010
  0
LINE
  8
PT3-Grafika_wekt5
  6
CONTINUOUS
 62
     7
 10
430.9327
 20
99.331099999999992
 11
430.9327
 21
118.846600000000000
  0
LINE
  8
PT3-Grafika_wekt5
  6
CONTINUOUS
 62
     7
 10
402.0205
 20
118.846600000000000
 11
402.0205
 21
99.631300000000010
  0
LINE
  8
PT3-Grafika_wekt5
  6
CONTINUOUS
 62
     7
 10
430.9327
 20
118.846600000000000
 11
447.5394
 21
118.846600000000000
  0
LINE
  8
PT3-Grafika_wekt5
  6
CONTINUOUS
 62
     7
 10
447.5394
 20
118.846600000000000
 11
447.5392
 21
118.846600000000000
  0
LINE
  8
PT3-Grafika_wekt5
  6
CONTINUOUS
 62
     7
 10
433.2336
 20
152.173299999999980
 11
445.2384
 21
152.173299999999980
  0
LINE
  8
PT3-Grafika_wekt5
  6
CONTINUOUS
 62
     7
 10
445.2384
 20
152.173299999999980
 11
445.2383
 21
152.173299999999980
  0
LINE
  8
PT3-Grafika_wekt5
  6
CONTINUOUS
 62
     7
 10
445.2384
 20
136.660900000000000
 11
445.2384
 21
152.173299999999980
  0
LINE
  8
PT3-Grafika_wekt5
  6
CONTINUOUS
 62
     7
 10
447.5394
 20
99.631300000000010
 11
447.5394
 21
118.846600000000000
  0
LINE
  8
PT3-Grafika_wekt5
  6
CONTINUOUS
 62
     7
 10
453.8614
 20
84.070200000000000
 11
453.8614
 21
88.822599999999994
  0
LINE
  8
PT3-Grafika_wekt5
  6
CONTINUOUS
 62
     7
 10
453.8614
 20
88.822599999999994
 11
449.8598
 21
88.822599999999994
  0
LINE
  8
PT3-Grafika_wekt5
  6
CONTINUOUS
 62
     7
 10
453.8614
 20
88.822599999999994
 11
453.8614
 21
125.151700000000010
  0
LINE
  8
PT3-Grafika_wekt5
  6
CONTINUOUS
 62
     7
 10
453.8614
 20
125.151700000000010
 11
453.8614
 21
159.845599999999990
  0
LINE
  8
PT3-Grafika_wekt5
  6
CONTINUOUS
 62
     7
 10
453.8614
 20
164.444799999999990
 11
453.8614
 21
182.549100000000010
  0
LINE
  8
PT3-Grafika_wekt5
  6
CONTINUOUS
 62
     7
 10
380.6153
 20
215.223900000000010
 11
393.3294
 21
215.223900000000010
  0
LINE
  8
PT3-Grafika_wekt5
  6
CONTINUOUS
 62
     7
 10
393.3294
 20
215.223900000000010
 11
393.3294
 21
203.770400000000000
  0
LINE
  8
PT3-Grafika_wekt5
  6
CONTINUOUS
 62
     7
 10
190.4556
 20
206.821000000000000
 11
190.4556
 21
215.223900000000010
  0
LINE
  8
PT3-Grafika_wekt5
  6
CONTINUOUS
 62
     7
 10
190.4556
 20
215.223900000000010
 11
196.8582
 21
215.223900000000010
  0
LINE
  8
PT3-Grafika_wekt5
  6
CONTINUOUS
 62
     7
 10
196.8582
 20
215.223900000000010
 11
196.8582
 21
206.821000000000000
  0
LINE
  8
PT3-Grafika_wekt5
  6
CONTINUOUS
 62
     7
 10
310.6979
 20
183.487799999999990
 11
310.6979
 21
200.211799999999980
  0
LINE
  8
PT3-Grafika_wekt5
  6
CONTINUOUS
 62
     7
 10
310.6979
 20
200.211799999999980
 11
310.6979
 21
189.337100000000020
  0
LINE
  8
PT3-Grafika_wekt5
  6
CONTINUOUS
 62
     7
 10
310.6979
 20
200.211799999999980
 11
314.4994
 21
200.211799999999980
  0
LINE
  8
PT3-Grafika_wekt5
  6
CONTINUOUS
 62
     7
 10
314.4994
 20
200.211799999999980
 11
314.4994
 21
183.487799999999990
  0
LINE
  8
PT3-Grafika_wekt5
  6
CONTINUOUS
 62
     7
 10
340.6963
 20
169.887499999999990
 11
340.6964
 21
169.887499999999990
  0
LINE
  8
PT3-Grafika_wekt5
  6
CONTINUOUS
 62
     7
 10
340.6964
 20
169.887499999999990
 11
340.6964
 21
170.187700000000010
  0
LINE
  8
PT3-Grafika_wekt5
  6
CONTINUOUS
 62
     7
 10
340.6964
 20
170.187700000000010
 11
340.6963
 21
170.187700000000010
  0
LINE
  8
PT3-Grafika_wekt5
  6
CONTINUOUS
 62
     7
 10
340.6964
 20
169.887499999999990
 11
355.7024
 21
169.887499999999990
  0
LINE
  8
PT3-Grafika_wekt5
  6
CONTINUOUS
 62
     7
 10
355.7024
 20
169.887499999999990
 11
355.7024
 21
170.187700000000010
  0
LINE
  8
PT3-Grafika_wekt5
  6
CONTINUOUS
 62
     7
 10
355.7024
 20
170.187700000000010
 11
340.6964
 21
170.187700000000010
  0
LINE
  8
PT3-Grafika_wekt5
  6
CONTINUOUS
 62
     7
 10
24.7938
 20
84.070200000000000
 11
475.1251
 21
84.070200000000000
  0
LINE
  8
PT3-Grafika_wekt5
  6
CONTINUOUS
 62
     7
 10
190.4556
 20
206.821000000000000
 11
196.8582
 21
206.821000000000000
  0
LINE
  8
PT3-Grafika_wekt5
  6
CONTINUOUS
 62
     7
 10
232.8727
 20
206.821100000000000
 11
239.2753
 21
206.821100000000000
  0
LINE
  8
PT3-Grafika_wekt5
  6
CONTINUOUS
 62
     7
 10
164.695
 20
164.444799999999990
 11
194.707
 21
164.444799999999990
  0
LINE
  8
PT3-Grafika_wekt5
  6
CONTINUOUS
 62
     7
 10
310.6979
 20
183.487799999999990
 11
314.4994
 21
183.487799999999990
  0
LINE
  8
PT3-Grafika_wekt5
  6
CONTINUOUS
 62
     7
 10
371.6117
 20
206.673800000000000
 11
380.6153
 21
206.673800000000000
  0
LINE
  8
PT3-Grafika_wekt5
  6
CONTINUOUS
 62
     7
 10
403.2306
 20
193.060299999999980
 11
409.815
 21
193.060299999999980
  0
LINE
  8
PT3-Grafika_wekt5
  6
CONTINUOUS
 62
     7
 10
340.7327
 20
169.701599999999980
 11
340.7327
 21
170.001800000000000
  0
LINE
  8
PT3-Grafika_wekt5
  6
CONTINUOUS
 62
     7
 10
340.7327
 20
170.001800000000000
 11
341.433
 21
170.702400000000010
  0
LINE
  8
PT3-Grafika_wekt5
  6
CONTINUOUS
 62
     7
 10
341.433
 20
170.702400000000010
 11
341.433
 21
181.010600000000010
  0
LINE
  8
PT3-Grafika_wekt5
  6
CONTINUOUS
 62
     7
 10
341.433
 20
181.010600000000010
 11
340.7327
 21
181.711200000000020
  0
LINE
  8
PT3-Grafika_wekt5
  6
CONTINUOUS
 62
     7
 10
340.7327
 20
181.711200000000020
 11
355.7387
 21
181.711200000000020
  0
LINE
  8
PT3-Grafika_wekt5
  6
CONTINUOUS
 62
     7
 10
355.7387
 20
181.711200000000020
 11
355.0384
 21
181.010600000000010
  0
LINE
  8
PT3-Grafika_wekt5
  6
CONTINUOUS
 62
     7
 10
355.0384
 20
181.010600000000010
 11
341.433
 21
181.010600000000010
  0
LINE
  8
PT3-Grafika_wekt5
  6
CONTINUOUS
 62
     7
 10
340.7327
 20
170.001800000000000
 11
355.7387
 21
170.001800000000000
  0
LINE
  8
PT3-Grafika_wekt5
  6
CONTINUOUS
 62
     7
 10
355.7387
 20
170.001800000000000
 11
355.0384
 21
170.702400000000010
  0
LINE
  8
PT3-Grafika_wekt5
  6
CONTINUOUS
 62
     7
 10
355.0384
 20
170.702400000000010
 11
341.433
 21
170.702400000000010
  0
LINE
  8
PT3-Grafika_wekt5
  6
CONTINUOUS
 62
     7
 10
355.0384
 20
170.702400000000010
 11
355.0384
 21
181.010600000000010
  0
LINE
  8
PT3-Grafika_wekt5
  6
CONTINUOUS
 62
     7
 10
355.7387
 20
169.701599999999980
 11
340.7327
 21
169.701599999999980
  0
LINE
  8
PT3-Grafika_wekt5
  6
CONTINUOUS
 62
     7
 10
355.7387
 20
170.001800000000000
 11
355.7387
 21
169.701599999999980
  0
LINE
  8
PT3-Grafika_wekt5
  6
CONTINUOUS
 62
     7
 10
340.7327
 20
169.701599999999980
 11
340.7327
 21
181.711200000000020
  0
LINE
  8
PT3-Grafika_wekt5
  6
CONTINUOUS
 62
     7
 10
340.7327
 20
181.711200000000020
 11
355.7387
 21
181.711200000000020
  0
LINE
  8
PT3-Grafika_wekt5
  6
CONTINUOUS
 62
     7
 10
355.7387
 20
181.711200000000020
 11
355.7387
 21
170.001800000000000
  0
LINE
  8
PT3-Grafika_wekt5
  6
CONTINUOUS
 62
     7
 10
355.7387
 20
169.701599999999980
 11
340.7327
 21
169.701599999999980
  0
ENDSEC
  0
EOF
