  0
SECTION
  2
HEADER
  9
$ACADVER
  1
AC1004
  9
$EXTMIN
 10
0.0
 20
0.0
  9
$EXTMAX
 10
570.000000000000000
 20
390.000000000000000
  9
$LIMMIN
 10
0.0
 20
0.0
  9
$LIMMAX
 10
570.000000000000000
 20
390.000000000000000
  9
$CLAYER
  8
PT2-Rzut2
  0
ENDSEC
  0
SECTION
  2
TABLES
  0
TABLE
  2
LTYPE
 70
11
  0
LTYPE
  2
CONTINUOUS
 70
     0
  3
Solid line
 72
    65
 73
     0
 40
     0.0
  0
LTYPE
  2
GESTRICHELT
 70
     0
  3
__ __ __ __ __ __ __ __ __ __ __ __ __ __ __
 72
    65
 73
     2
 40
     0.75
 49
0.5
 49
-0.25
  0
LTYPE
  2
VERDECKT
 70
     0
  3
_ _ _ _ _ _ _ _ _ _ _ _ _ _ _ _ _ _ _ _ _ _
 72
    65
 73
     2
 40
     0.25
 49
0.125
 49
-0.125
  0
LTYPE
  2
MITTELLINIE
 70
     0
  3
____ _ ____ _ ____ _ ____ _ ____ _ ____ _ __
 72
    65
 73
     4
 40
     2.0
 49
1.25
 49
-0.25
 49
0.25
 49
-0.25
  0
LTYPE
  2
PHANTOM
 70
     0
  3
_____ _ _ _____ _ _ _____ _ _ _____ _ _ ____
 72
    65
 73
     6
 40
     2.5
 49
1.25
 49
-0.25
 49
0.25
 49
-0.25
 49
0.25
 49
-0.25
  0
LTYPE
  2
PUNKTIERT
 70
     0
  3
............................................
 72
    65
 73
     2
 40
     0.25
 49
0.0
 49
-0.25
  0
LTYPE
  2
STRICHPUNKTIERT
 70
     0
  3
__ . __ . __ . __ . __ . __ . __ . __ . __ .
 72
    65
 73
     4
 40
     1.0
 49
0.5
 49
-0.25
 49
0.0
 49
-0.25
  0
LTYPE
  2
RAND
 70
     0
  3
__ __ . __ __ . __ __ . __ __ . __ __ . __ _
 72
    65
 73
     6
 40
     1.75
 49
0.5
 49
-0.25
 49
0.5
 49
-0.25
 49
0.0
 49
-0.25
  0
LTYPE
  2
TRENNLINIE
 70
     0
  3
__ . . __ . . __ . . __ . . __ . . __ . . __
 72
    65
 73
     6
 40
     1.25
 49
0.5
 49
-0.25
 49
0.0
 49
-0.25
 49
0.0
 49
-0.25
  0
LTYPE
  2
ENG_PUNKTIERT
 70
     0
  3
Schließen
 72
    65
 73
     2
 40
     0.1
 49
0.05
 49
-0.05
  0
LTYPE
  2
CLOSE
 70
     0
  3

 72
    65
 73
     0
 40
     0.0
  0
ENDTAB
  0
TABLE
  2
LAYER
 70
   10
  0
LAYER
  2
PT1-Tabelka_rysu1
 70
     0
 62
    -7
  6
CONTINUOUS
  0
LAYER
  2
PT2-Rzut2
 70
     0
 62
     7
  6
CONTINUOUS
  0
LAYER
  2
PT2-Dachy3
 70
     0
 62
     7
  6
CONTINUOUS
  0
LAYER
  2
PT2-Opis4
 70
     0
 62
     7
  6
CONTINUOUS
  0
LAYER
  2
PT2-Wymiarowanie5
 70
     0
 62
     7
  6
CONTINUOUS
  0
LAYER
  2
PT2-Symbole_prze6
 70
     0
 62
     7
  6
CONTINUOUS
  0
LAYER
  2
PT3-Rzut7
 70
     0
 62
     7
  6
CONTINUOUS
  0
LAYER
  2
PT3-Dachy8
 70
     0
 62
     7
  6
CONTINUOUS
  0
LAYER
  2
PT4-Rzut9
 70
     0
 62
     7
  6
CONTINUOUS
  0
LAYER
  2
PT4-Dachy10
 70
     0
 62
     7
  6
CONTINUOUS
  0
ENDTAB
  0
TABLE
  2
STYLE
 70
    1
  0
STYLE
  2
STANDARD
 70
    0
 40
0.0
 41
1.0
 50
0.0
71
     0
 42
0.2
  3
txt
  4

  0
ENDTAB
  0
ENDSEC
  0
SECTION
  2
ENTITIES
  0
POLYLINE
  8
PT1-Tabelka_rysu1
  6
CONTINUOUS
 62
     7
 66
     1
 70
     1
  0
VERTEX
  8
PT1-Tabelka_rysu1
 10
561.8037
 20
6.271000000000015
  0
VERTEX
  8
PT1-Tabelka_rysu1
 10
562.862
 20
6.271000000000015
  0
VERTEX
  8
PT1-Tabelka_rysu1
 10
562.862
 20
67.301600000000008
  0
VERTEX
  8
PT1-Tabelka_rysu1
 10
561.8037
 20
67.301600000000008
  0
SEQEND
  8
PT1-Tabelka_rysu1
  0
LINE
  8
PT1-Tabelka_rysu1
  6
CONTINUOUS
 62
     7
 10
561.8037
 20
7.329299999999989
 11
561.8037
 21
68.359899999999982
  0
LINE
  8
PT1-Tabelka_rysu1
  6
CONTINUOUS
 62
     7
 10
561.8037
 20
68.359899999999982
 11
489.837
 21
68.359899999999982
  0
LINE
  8
PT1-Tabelka_rysu1
  6
CONTINUOUS
 62
     7
 10
489.837
 20
7.329299999999989
 11
489.837
 21
68.359899999999982
  0
LINE
  8
PT2-Rzut2
  6
GESTRICHELT
 62
     7
 10
259.3909
 20
176.132100000000010
 11
261.8909
 21
176.132100000000010
  0
LINE
  8
PT2-Rzut2
  6
GESTRICHELT
 62
     7
 10
259.3909
 20
176.132100000000010
 11
261.8909
 21
176.132100000000010
  0
LINE
  8
PT2-Rzut2
  6
CONTINUOUS
 62
     7
 10
249.8865
 20
151.084599999999990
 11
249.8864
 21
152.284600000000010
  0
LINE
  8
PT2-Rzut2
  6
CONTINUOUS
 62
     7
 10
251.0865
 20
151.084700000000000
 11
251.0864
 21
152.284699999999990
  0
LINE
  8
PT2-Rzut2
  6
CONTINUOUS
 62
     7
 10
249.8865
 20
151.084599999999990
 11
249.8864
 21
152.284600000000010
  0
LINE
  8
PT2-Rzut2
  6
CONTINUOUS
 62
     7
 10
251.0865
 20
151.084700000000000
 11
251.0864
 21
152.284699999999990
  0
LINE
  8
PT2-Rzut2
  6
GESTRICHELT
 62
     7
 10
59.3866
 20
244.886699999999990
 11
59.3866
 21
85.884200000000021
  0
LINE
  8
PT2-Rzut2
  6
GESTRICHELT
 62
     7
 10
59.3866
 20
85.884200000000021
 11
262.4866
 21
85.884200000000021
  0
LINE
  8
PT2-Rzut2
  6
GESTRICHELT
 62
     7
 10
262.4888
 20
117.453599999999990
 11
262.4862
 21
79.884200000000021
  0
LINE
  8
PT2-Rzut2
  6
GESTRICHELT
 62
     7
 10
262.4862
 20
79.884200000000021
 11
299.6862
 21
79.884200000000021
  0
LINE
  8
PT2-Rzut2
  6
GESTRICHELT
 62
     7
 10
299.6862
 20
79.881700000000023
 11
299.6837
 21
117.454400000000020
  0
LINE
  8
PT2-Rzut2
  6
GESTRICHELT
 62
     7
 10
299.6833
 20
85.884599999999978
 11
466.8866
 21
85.905899999999974
  0
LINE
  8
PT2-Rzut2
  6
GESTRICHELT
 62
     7
 10
466.8866
 20
85.905899999999974
 11
466.8866
 21
244.884199999999990
  0
LINE
  8
PT2-Rzut2
  6
GESTRICHELT
 62
     7
 10
466.8866
 20
244.884199999999990
 11
293.3864
 21
244.884199999999990
  0
LINE
  8
PT2-Rzut2
  6
GESTRICHELT
 62
     7
 10
293.3864
 20
244.884199999999990
 11
293.3905
 21
180.134199999999990
  0
LINE
  8
PT2-Rzut2
  6
GESTRICHELT
 62
     7
 10
293.393
 20
180.134199999999990
 11
263.3907
 21
180.132299999999990
  0
LINE
  8
PT2-Rzut2
  6
GESTRICHELT
 62
     7
 10
263.3907
 20
180.129799999999990
 11
263.3866
 21
244.884199999999990
  0
LINE
  8
PT2-Rzut2
  6
GESTRICHELT
 62
     7
 10
263.3866
 20
244.881700000000000
 11
263.3866
 21
314.871100000000010
  0
LINE
  8
PT2-Rzut2
  6
CONTINUOUS
 62
     7
 10
230.0544
 20
327.331500000000010
 11
231.5947
 21
331.452999999999970
  0
LINE
  8
PT2-Rzut2
  6
CONTINUOUS
 62
     7
 10
271.1998
 20
316.658400000000030
 11
146.1866
 21
363.357199999999980
  0
LINE
  8
PT2-Rzut2
  6
CONTINUOUS
 62
     7
 10
219.5112
 20
335.969499999999980
 11
217.9711
 21
331.848500000000000
  0
LINE
  8
PT2-Rzut2
  6
GESTRICHELT
 62
     7
 10
154.1866
 20
355.692500000000000
 11
154.1866
 21
244.884199999999990
  0
LINE
  8
PT2-Rzut2
  6
GESTRICHELT
 62
     7
 10
154.1866
 20
244.884199999999990
 11
59.3866
 21
244.884199999999990
  0
LINE
  8
PT2-Rzut2
  6
GESTRICHELT
 62
     7
 10
65.5866
 20
92.081700000000012
 11
65.5866
 21
150.384400000000000
  0
LINE
  8
PT2-Rzut2
  6
CONTINUOUS
 62
     7
 10
70.3872
 20
155.585900000000010
 11
70.3868
 21
150.384400000000000
  0
LINE
  8
PT2-Rzut2
  6
CONTINUOUS
 62
     7
 10
76.7871
 20
150.384400000000000
 11
76.7867
 21
155.583900000000000
  0
LINE
  8
PT2-Rzut2
  6
GESTRICHELT
 62
     7
 10
177.8366
 20
92.084200000000010
 11
65.5866
 21
92.084200000000010
  0
LINE
  8
PT2-Rzut2
  6
GESTRICHELT
 62
     7
 10
65.5866
 20
151.584399999999990
 11
65.5866
 21
179.184400000000010
  0
LINE
  8
PT2-Rzut2
  6
CONTINUOUS
 62
     7
 10
129.488
 20
215.883900000000010
 11
129.4883
 21
224.884500000000000
  0
LINE
  8
PT2-Rzut2
  6
GESTRICHELT
 62
     7
 10
206.6366
 20
92.084200000000010
 11
179.0366
 21
92.084200000000010
  0
LINE
  8
PT2-Rzut2
  6
CONTINUOUS
 62
     7
 10
76.7867
 20
155.583900000000000
 11
70.3872
 21
155.585900000000010
  0
LINE
  8
PT2-Rzut2
  6
GESTRICHELT
 62
     7
 10
65.5866
 20
180.384400000000000
 11
65.5866
 21
238.684200000000000
  0
LINE
  8
PT2-Rzut2
  6
GESTRICHELT
 62
     7
 10
65.5841
 20
238.684200000000000
 11
158.1866
 21
238.684200000000000
  0
LINE
  8
PT2-Rzut2
  6
CONTINUOUS
 62
     7
 10
129.4883
 20
224.884500000000000
 11
124.9839
 21
224.883700000000000
  0
LINE
  8
PT2-Rzut2
  6
CONTINUOUS
 62
     7
 10
124.9839
 20
224.886200000000000
 11
124.984
 21
215.884500000000000
  0
LINE
  8
PT2-Rzut2
  6
CONTINUOUS
 62
     7
 10
124.9815
 20
215.884500000000000
 11
129.488
 21
215.883900000000010
  0
LINE
  8
PT2-Rzut2
  6
GESTRICHELT
 62
     7
 10
295.6851
 20
89.897400000000005
 11
295.6859
 21
83.884299999999996
  0
LINE
  8
PT2-Rzut2
  6
GESTRICHELT
 62
     7
 10
295.6884
 20
83.884299999999996
 11
266.4865
 21
83.884299999999996
  0
LINE
  8
PT2-Rzut2
  6
GESTRICHELT
 62
     7
 10
266.4865
 20
83.884299999999996
 11
266.487
 21
92.061500000000024
  0
LINE
  8
PT2-Rzut2
  6
GESTRICHELT
 62
     7
 10
262.4871
 20
92.084200000000010
 11
207.8366
 21
92.084200000000010
  0
LINE
  8
PT2-Rzut2
  6
GESTRICHELT
 62
     7
 10
158.1866
 20
238.684200000000000
 11
158.1866
 21
354.173400000000020
  0
LINE
  8
PT2-Rzut2
  6
CONTINUOUS
 62
     7
 10
146.1866
 20
358.682999999999990
 11
269.6006
 21
312.548200000000010
  0
LINE
  8
PT2-Rzut2
  6
GESTRICHELT
 62
     7
 10
230.0521
 20
327.332299999999980
 11
259.3866
 21
316.382700000000000
  0
LINE
  8
PT2-Rzut2
  6
GESTRICHELT
 62
     7
 10
259.3866
 20
316.385200000000000
 11
259.3866
 21
244.884199999999990
  0
LINE
  8
PT2-Rzut2
  6
GESTRICHELT
 62
     7
 10
259.3866
 20
244.886699999999990
 11
259.3909
 21
176.131900000000000
  0
LINE
  8
PT2-Rzut2
  6
CONTINUOUS
 62
     7
 10
221.7866
 20
298.384200000000020
 11
230.7866
 21
298.384200000000020
  0
LINE
  8
PT2-Rzut2
  6
CONTINUOUS
 62
     7
 10
230.7866
 20
298.381700000000020
 11
230.7866
 21
302.483200000000010
  0
LINE
  8
PT2-Rzut2
  6
CONTINUOUS
 62
     7
 10
230.7891
 20
302.483200000000010
 11
221.7866
 21
302.484399999999990
  0
LINE
  8
PT2-Rzut2
  6
CONTINUOUS
 62
     7
 10
221.7866
 20
302.486899999999990
 11
221.7866
 21
298.384200000000020
  0
LINE
  8
PT2-Rzut2
  6
CONTINUOUS
 62
     7
 10
222.9866
 20
299.581700000000010
 11
222.9866
 21
300.984199999999990
  0
LINE
  8
PT2-Rzut2
  6
CONTINUOUS
 62
     7
 10
222.9841
 20
300.984199999999990
 11
224.3866
 21
300.984199999999990
  0
LINE
  8
PT2-Rzut2
  6
CONTINUOUS
 62
     7
 10
224.3866
 20
300.986699999999980
 11
224.3866
 21
299.584200000000010
  0
LINE
  8
PT2-Rzut2
  6
CONTINUOUS
 62
     7
 10
224.3891
 20
299.584200000000010
 11
222.9866
 21
299.584200000000010
  0
LINE
  8
PT2-Rzut2
  6
CONTINUOUS
 62
     7
 10
229.5891
 20
299.584200000000010
 11
228.1866
 21
299.584200000000010
  0
LINE
  8
PT2-Rzut2
  6
CONTINUOUS
 62
     7
 10
228.1866
 20
299.581700000000010
 11
228.1866
 21
300.984199999999990
  0
LINE
  8
PT2-Rzut2
  6
CONTINUOUS
 62
     7
 10
228.1841
 20
300.983600000000020
 11
229.5866
 21
300.984199999999990
  0
LINE
  8
PT2-Rzut2
  6
CONTINUOUS
 62
     7
 10
229.5866
 20
300.986699999999980
 11
229.5866
 21
299.584200000000010
  0
LINE
  8
PT2-Rzut2
  6
CONTINUOUS
 62
     7
 10
226.9891
 20
299.584200000000010
 11
225.5866
 21
299.584200000000010
  0
LINE
  8
PT2-Rzut2
  6
CONTINUOUS
 62
     7
 10
225.5866
 20
299.581700000000010
 11
225.5866
 21
300.984199999999990
  0
LINE
  8
PT2-Rzut2
  6
CONTINUOUS
 62
     7
 10
225.5841
 20
300.983900000000010
 11
226.9866
 21
300.984199999999990
  0
LINE
  8
PT2-Rzut2
  6
CONTINUOUS
 62
     7
 10
226.9866
 20
300.986699999999980
 11
226.9866
 21
299.584200000000010
  0
LINE
  8
PT2-Rzut2
  6
GESTRICHELT
 62
     7
 10
297.3866
 20
240.884199999999990
 11
326.3856
 21
240.884199999999990
  0
LINE
  8
PT2-Rzut2
  6
GESTRICHELT
 62
     7
 10
326.3856
 20
240.886699999999990
 11
326.3861
 21
212.117600000000010
  0
LINE
  8
PT2-Rzut2
  6
GESTRICHELT
 62
     7
 10
297.3908
 20
176.134500000000000
 11
297.3866
 21
240.884199999999990
  0
LINE
  8
PT2-Rzut2
  6
GESTRICHELT
 62
     7
 10
328.8831
 20
240.884199999999990
 11
462.8866
 21
240.884199999999990
  0
LINE
  8
PT2-Rzut2
  6
CONTINUOUS
 62
     7
 10
411.5774
 20
179.938099999999990
 11
384.379
 21
179.932999999999990
  0
LINE
  8
PT2-Rzut2
  6
CONTINUOUS
 62
     7
 10
384.379
 20
176.129899999999990
 11
411.5792
 21
176.134999999999990
  0
LINE
  8
PT2-Rzut2
  6
CONTINUOUS
 62
     7
 10
393.6214
 20
150.859600000000000
 11
393.6217
 21
154.643100000000000
  0
LINE
  8
PT2-Rzut2
  6
CONTINUOUS
 62
     7
 10
393.6241
 20
154.643100000000000
 11
382.0701
 21
154.642300000000010
  0
LINE
  8
PT2-Rzut2
  6
GESTRICHELT
 62
     7
 10
462.8866
 20
240.884199999999990
 11
462.8866
 21
180.384400000000000
  0
LINE
  8
PT2-Rzut2
  6
GESTRICHELT
 62
     7
 10
462.8866
 20
179.184400000000010
 11
462.8866
 21
151.584399999999990
  0
LINE
  8
PT2-Rzut2
  6
CONTINUOUS
 62
     7
 10
435.6771
 20
133.713599999999990
 11
416.2761
 21
133.711099999999990
  0
LINE
  8
PT2-Rzut2
  6
GESTRICHELT
 62
     7
 10
462.8866
 20
150.384400000000000
 11
462.8866
 21
89.905399999999986
  0
LINE
  8
PT2-Rzut2
  6
GESTRICHELT
 62
     7
 10
462.8891
 20
89.905399999999986
 11
376.2671
 21
89.894299999999987
  0
LINE
  8
PT2-Rzut2
  6
CONTINUOUS
 62
     7
 10
435.6752
 20
129.908900000000020
 11
435.6771
 21
133.713599999999990
  0
LINE
  8
PT2-Rzut2
  6
GESTRICHELT
 62
     7
 10
375.0671
 20
89.894299999999987
 11
347.4671
 21
89.890300000000025
  0
LINE
  8
PT2-Rzut2
  6
CONTINUOUS
 62
     7
 10
382.0711
 20
150.859100000000010
 11
393.6214
 21
150.859600000000000
  0
LINE
  8
PT2-Rzut2
  6
CONTINUOUS
 62
     7
 10
392.3458
 20
150.859600000000000
 11
392.421
 21
150.859600000000000
  0
LINE
  8
PT2-Rzut2
  6
GESTRICHELT
 62
     7
 10
346.2671
 20
89.890499999999975
 11
299.6856
 21
89.884599999999978
  0
LINE
  8
PT2-Rzut2
  6
CONTINUOUS
 62
     7
 10
323.7821
 20
126.184300000000010
 11
323.7807
 21
114.584400000000020
  0
LINE
  8
PT2-Rzut2
  6
CONTINUOUS
 62
     7
 10
323.7782
 20
114.584400000000020
 11
327.5846
 21
114.583900000000030
  0
LINE
  8
PT2-Rzut2
  6
CONTINUOUS
 62
     7
 10
327.5846
 20
114.581399999999970
 11
327.584
 21
126.184300000000010
  0
LINE
  8
PT2-Rzut2
  6
GESTRICHELT
 62
     7
 10
91.0864
 20
247.973700000000010
 11
91.0845
 21
276.984199999999990
  0
LINE
  8
PT2-Rzut2
  6
GESTRICHELT
 62
     7
 10
91.0821
 20
276.984199999999990
 11
151.0863
 21
276.984199999999990
  0
LINE
  8
PT2-Rzut2
  6
GESTRICHELT
 62
     7
 10
151.0863
 20
276.986699999999980
 11
151.0845
 21
247.983800000000000
  0
LINE
  8
PT2-Rzut2
  6
GESTRICHELT
 62
     7
 10
151.0845
 20
247.983800000000000
 11
91.0864
 21
247.976200000000010
  0
LINE
  8
PT2-Rzut2
  6
GESTRICHELT
 62
     7
 10
87.0843
 20
280.986699999999980
 11
87.0866
 21
245.084000000000000
  0
LINE
  8
PT2-Rzut2
  6
GESTRICHELT
 62
     7
 10
87.0841
 20
245.075700000000010
 11
153.9843
 21
245.084200000000010
  0
LINE
  8
PT2-Rzut2
  6
GESTRICHELT
 62
     7
 10
153.9843
 20
245.084200000000010
 11
153.9866
 21
280.984199999999990
  0
LINE
  8
PT2-Rzut2
  6
GESTRICHELT
 62
     7
 10
153.9891
 20
280.984199999999990
 11
87.0843
 21
280.984199999999990
  0
LINE
  8
PT2-Rzut2
  6
CONTINUOUS
 62
     7
 10
229.3524
 20
328.875000000000000
 11
228.0391
 21
329.365900000000010
  0
LINE
  8
PT2-Rzut2
  6
CONTINUOUS
 62
     7
 10
228.0383
 20
329.363600000000020
 11
228.739
 21
331.238699999999990
  0
LINE
  8
PT2-Rzut2
  6
CONTINUOUS
 62
     7
 10
228.7367
 20
331.239600000000000
 11
230.0506
 21
330.748800000000020
  0
LINE
  8
PT2-Rzut2
  6
CONTINUOUS
 62
     7
 10
230.0515
 20
330.751100000000010
 11
229.3501
 21
328.875800000000030
  0
LINE
  8
PT2-Rzut2
  6
CONTINUOUS
 62
     7
 10
226.9174
 20
329.785200000000030
 11
224.386
 21
330.731499999999980
  0
LINE
  8
PT2-Rzut2
  6
CONTINUOUS
 62
     7
 10
224.3851
 20
330.729199999999990
 11
225.0856
 21
332.603500000000000
  0
LINE
  8
PT2-Rzut2
  6
CONTINUOUS
 62
     7
 10
225.0833
 20
332.604400000000000
 11
227.6149
 21
331.658700000000010
  0
LINE
  8
PT2-Rzut2
  6
CONTINUOUS
 62
     7
 10
227.6158
 20
331.661000000000000
 11
226.9151
 21
329.786099999999980
  0
LINE
  8
PT2-Rzut2
  6
CONTINUOUS
 62
     7
 10
223.2643
 20
331.150800000000000
 11
221.9506
 21
331.641900000000020
  0
LINE
  8
PT2-Rzut2
  6
CONTINUOUS
 62
     7
 10
221.9498
 20
331.639500000000000
 11
222.65
 21
333.513300000000020
  0
LINE
  8
PT2-Rzut2
  6
CONTINUOUS
 62
     7
 10
222.6476
 20
333.514200000000020
 11
223.9615
 21
333.023399999999980
  0
LINE
  8
PT2-Rzut2
  6
CONTINUOUS
 62
     7
 10
223.9623
 20
333.025800000000000
 11
223.262
 21
331.151700000000010
  0
LINE
  8
PT2-Rzut2
  6
CONTINUOUS
 62
     7
 10
220.8289
 20
332.061199999999990
 11
219.5152
 21
332.552300000000000
  0
LINE
  8
PT2-Rzut2
  6
CONTINUOUS
 62
     7
 10
219.5144
 20
332.549899999999980
 11
220.2144
 21
334.423099999999980
  0
LINE
  8
PT2-Rzut2
  6
CONTINUOUS
 62
     7
 10
220.212
 20
334.423999999999980
 11
221.5258
 21
333.933200000000000
  0
LINE
  8
PT2-Rzut2
  6
CONTINUOUS
 62
     7
 10
221.5267
 20
333.935600000000020
 11
220.8266
 21
332.062099999999990
  0
LINE
  8
PT2-Rzut2
  6
GESTRICHELT
 62
     7
 10
259.3909
 20
176.131900000000000
 11
297.3908
 21
176.134500000000000
  0
LINE
  8
PT2-Rzut2
  6
CONTINUOUS
 62
     7
 10
324.9788
 20
119.598900000000010
 11
326.3842
 21
119.598900000000010
  0
LINE
  8
PT2-Rzut2
  6
CONTINUOUS
 62
     7
 10
326.3842
 20
119.601400000000010
 11
326.383
 21
118.384900000000020
  0
LINE
  8
PT2-Rzut2
  6
CONTINUOUS
 62
     7
 10
326.3855
 20
118.384900000000020
 11
324.9812
 21
118.384200000000020
  0
LINE
  8
PT2-Rzut2
  6
CONTINUOUS
 62
     7
 10
324.9812
 20
118.381700000000020
 11
324.9813
 21
119.598900000000010
  0
LINE
  8
PT2-Rzut2
  6
CONTINUOUS
 62
     7
 10
326.3869
 20
120.798900000000000
 11
324.9813
 21
120.798900000000000
  0
LINE
  8
PT2-Rzut2
  6
CONTINUOUS
 62
     7
 10
324.9813
 20
120.796400000000010
 11
324.9812
 21
122.384200000000020
  0
LINE
  8
PT2-Rzut2
  6
CONTINUOUS
 62
     7
 10
324.9812
 20
122.384200000000020
 11
326.3845
 21
122.384200000000020
  0
LINE
  8
PT2-Rzut2
  6
CONTINUOUS
 62
     7
 10
326.3845
 20
122.386700000000020
 11
326.3844
 21
120.798900000000000
  0
LINE
  8
PT2-Rzut2
  6
CONTINUOUS
 62
     7
 10
417.4761
 20
131.109699999999980
 11
417.4761
 21
132.511199999999970
  0
LINE
  8
PT2-Rzut2
  6
CONTINUOUS
 62
     7
 10
417.4736
 20
132.511199999999970
 11
418.8764
 21
132.511399999999980
  0
LINE
  8
PT2-Rzut2
  6
CONTINUOUS
 62
     7
 10
418.8764
 20
132.513899999999980
 11
418.8764
 21
131.111899999999990
  0
LINE
  8
PT2-Rzut2
  6
CONTINUOUS
 62
     7
 10
418.8789
 20
131.112000000000020
 11
417.4761
 21
131.112199999999970
  0
LINE
  8
PT2-Rzut2
  6
CONTINUOUS
 62
     7
 10
416.2761
 20
133.711099999999990
 11
416.2761
 21
129.912399999999990
  0
LINE
  8
PT2-Rzut2
  6
CONTINUOUS
 62
     7
 10
420.0764
 20
131.109199999999990
 11
420.0764
 21
132.511599999999990
  0
LINE
  8
PT2-Rzut2
  6
CONTINUOUS
 62
     7
 10
420.0739
 20
132.511599999999990
 11
421.4767
 21
132.511700000000020
  0
LINE
  8
PT2-Rzut2
  6
CONTINUOUS
 62
     7
 10
421.4767
 20
132.514200000000020
 11
421.4764
 21
131.111400000000000
  0
LINE
  8
PT2-Rzut2
  6
CONTINUOUS
 62
     7
 10
421.4789
 20
131.111499999999980
 11
420.0764
 21
131.111699999999980
  0
LINE
  8
PT2-Rzut2
  6
CONTINUOUS
 62
     7
 10
422.6764
 20
131.108700000000000
 11
422.6767
 21
132.511900000000030
  0
LINE
  8
PT2-Rzut2
  6
CONTINUOUS
 62
     7
 10
422.6743
 20
132.511900000000030
 11
424.0757
 21
132.512099999999980
  0
LINE
  8
PT2-Rzut2
  6
CONTINUOUS
 62
     7
 10
424.0757
 20
132.514599999999970
 11
424.0757
 21
131.110999999999990
  0
LINE
  8
PT2-Rzut2
  6
CONTINUOUS
 62
     7
 10
424.0782
 20
131.110999999999990
 11
422.6764
 21
131.111200000000000
  0
LINE
  8
PT2-Rzut2
  6
CONTINUOUS
 62
     7
 10
425.2758
 20
131.108200000000010
 11
425.2758
 21
132.512200000000010
  0
LINE
  8
PT2-Rzut2
  6
CONTINUOUS
 62
     7
 10
425.2733
 20
132.512200000000010
 11
426.6764
 21
132.512400000000010
  0
LINE
  8
PT2-Rzut2
  6
CONTINUOUS
 62
     7
 10
426.6764
 20
132.514900000000010
 11
426.6764
 21
131.110500000000000
  0
LINE
  8
PT2-Rzut2
  6
CONTINUOUS
 62
     7
 10
426.6789
 20
131.110500000000000
 11
425.2758
 21
131.110700000000010
  0
LINE
  8
PT2-Rzut2
  6
CONTINUOUS
 62
     7
 10
427.8764
 20
131.111400000000000
 11
427.8764
 21
132.512600000000020
  0
LINE
  8
PT2-Rzut2
  6
CONTINUOUS
 62
     7
 10
427.8739
 20
132.512600000000020
 11
429.2761
 21
132.512700000000000
  0
LINE
  8
PT2-Rzut2
  6
CONTINUOUS
 62
     7
 10
429.2761
 20
132.515199999999990
 11
429.2758
 21
131.110000000000010
  0
LINE
  8
PT2-Rzut2
  6
CONTINUOUS
 62
     7
 10
429.2783
 20
131.110000000000010
 11
427.8764
 21
131.111400000000000
  0
LINE
  8
PT2-Rzut2
  6
CONTINUOUS
 62
     7
 10
430.4758
 20
131.107300000000010
 11
430.4761
 21
132.512900000000000
  0
LINE
  8
PT2-Rzut2
  6
CONTINUOUS
 62
     7
 10
430.4736
 20
132.512900000000000
 11
431.8758
 21
132.513100000000010
  0
LINE
  8
PT2-Rzut2
  6
CONTINUOUS
 62
     7
 10
431.8758
 20
132.515600000000010
 11
431.8758
 21
131.109500000000030
  0
LINE
  8
PT2-Rzut2
  6
CONTINUOUS
 62
     7
 10
431.8783
 20
131.109500000000030
 11
430.4758
 21
131.109800000000010
  0
LINE
  8
PT2-Rzut2
  6
CONTINUOUS
 62
     7
 10
433.0733
 20
132.513199999999980
 11
434.4765
 21
132.513399999999990
  0
LINE
  8
PT2-Rzut2
  6
CONTINUOUS
 62
     7
 10
434.4765
 20
132.515899999999990
 11
434.4758
 21
131.109100000000010
  0
LINE
  8
PT2-Rzut2
  6
CONTINUOUS
 62
     7
 10
434.4783
 20
131.109100000000010
 11
433.0758
 21
131.109300000000020
  0
LINE
  8
PT2-Rzut2
  6
CONTINUOUS
 62
     7
 10
433.0758
 20
131.106800000000020
 11
433.0757
 21
132.513199999999980
  0
LINE
  8
PT2-Rzut2
  6
CONTINUOUS
 62
     7
 10
416.2761
 20
129.912399999999990
 11
435.6752
 21
129.908900000000020
  0
LINE
  8
PT2-Rzut2
  6
CONTINUOUS
 62
     7
 10
392.4233
 20
152.059599999999990
 11
391.0711
 21
152.059599999999990
  0
LINE
  8
PT2-Rzut2
  6
CONTINUOUS
 62
     7
 10
391.0711
 20
152.059599999999990
 11
391.0707
 21
153.443299999999990
  0
LINE
  8
PT2-Rzut2
  6
CONTINUOUS
 62
     7
 10
391.0682
 20
153.443299999999990
 11
392.4213
 21
153.443199999999990
  0
LINE
  8
PT2-Rzut2
  6
CONTINUOUS
 62
     7
 10
392.4213
 20
153.445699999999990
 11
392.4208
 21
152.059599999999990
  0
LINE
  8
PT2-Rzut2
  6
CONTINUOUS
 62
     7
 10
389.8736
 20
152.059500000000010
 11
388.4711
 21
152.059400000000010
  0
LINE
  8
PT2-Rzut2
  6
CONTINUOUS
 62
     7
 10
388.4711
 20
152.056900000000010
 11
388.4707
 21
153.443400000000000
  0
LINE
  8
PT2-Rzut2
  6
CONTINUOUS
 62
     7
 10
388.4682
 20
153.443400000000000
 11
389.8707
 21
153.443299999999990
  0
LINE
  8
PT2-Rzut2
  6
CONTINUOUS
 62
     7
 10
389.8707
 20
153.445799999999990
 11
389.8711
 21
152.059500000000010
  0
LINE
  8
PT2-Rzut2
  6
CONTINUOUS
 62
     7
 10
387.2736
 20
152.059300000000010
 11
385.8703
 21
152.059200000000000
  0
LINE
  8
PT2-Rzut2
  6
CONTINUOUS
 62
     7
 10
385.8708
 20
152.056700000000010
 11
385.8704
 21
153.443600000000000
  0
LINE
  8
PT2-Rzut2
  6
CONTINUOUS
 62
     7
 10
385.8679
 20
153.443600000000000
 11
387.2707
 21
153.443500000000000
  0
LINE
  8
PT2-Rzut2
  6
CONTINUOUS
 62
     7
 10
387.2707
 20
153.446000000000000
 11
387.2711
 21
152.059300000000010
  0
LINE
  8
PT2-Rzut2
  6
CONTINUOUS
 62
     7
 10
390.7764
 20
178.734199999999990
 11
392.1788
 21
178.734500000000000
  0
LINE
  8
PT2-Rzut2
  6
CONTINUOUS
 62
     7
 10
392.1788
 20
178.736999999999990
 11
392.179
 21
177.331600000000010
  0
LINE
  8
PT2-Rzut2
  6
CONTINUOUS
 62
     7
 10
392.1815
 20
177.331600000000010
 11
390.779
 21
177.331200000000000
  0
LINE
  8
PT2-Rzut2
  6
CONTINUOUS
 62
     7
 10
390.779
 20
177.328700000000000
 11
390.7789
 21
178.734199999999990
  0
LINE
  8
PT2-Rzut2
  6
CONTINUOUS
 62
     7
 10
393.3763
 20
178.734700000000000
 11
394.7788
 21
178.735000000000010
  0
LINE
  8
PT2-Rzut2
  6
CONTINUOUS
 62
     7
 10
394.7788
 20
178.737500000000010
 11
394.779
 21
177.332200000000000
  0
LINE
  8
PT2-Rzut2
  6
CONTINUOUS
 62
     7
 10
394.7815
 20
177.332200000000000
 11
393.379
 21
177.331899999999990
  0
LINE
  8
PT2-Rzut2
  6
CONTINUOUS
 62
     7
 10
393.379
 20
177.329399999999990
 11
393.3788
 21
178.734700000000000
  0
LINE
  8
PT2-Rzut2
  6
CONTINUOUS
 62
     7
 10
395.9763
 20
178.735199999999990
 11
397.3791
 21
178.735500000000000
  0
LINE
  8
PT2-Rzut2
  6
CONTINUOUS
 62
     7
 10
397.3791
 20
178.738000000000000
 11
397.379
 21
177.334000000000000
  0
LINE
  8
PT2-Rzut2
  6
CONTINUOUS
 62
     7
 10
397.3815
 20
177.332900000000000
 11
395.979
 21
177.332500000000010
  0
LINE
  8
PT2-Rzut2
  6
CONTINUOUS
 62
     7
 10
395.979
 20
177.330099999999990
 11
395.9788
 21
178.735199999999990
  0
LINE
  8
PT2-Rzut2
  6
CONTINUOUS
 62
     7
 10
398.5767
 20
178.735700000000010
 11
399.9788
 21
178.735999999999990
  0
LINE
  8
PT2-Rzut2
  6
CONTINUOUS
 62
     7
 10
399.9788
 20
178.738499999999990
 11
399.979
 21
177.333599999999990
  0
LINE
  8
PT2-Rzut2
  6
CONTINUOUS
 62
     7
 10
399.9815
 20
177.333599999999990
 11
398.579
 21
177.333200000000010
  0
LINE
  8
PT2-Rzut2
  6
CONTINUOUS
 62
     7
 10
398.579
 20
177.330700000000010
 11
398.5792
 21
178.734600000000000
  0
LINE
  8
PT2-Rzut2
  6
CONTINUOUS
 62
     7
 10
401.1788
 20
178.735099999999990
 11
402.579
 21
178.736500000000010
  0
LINE
  8
PT2-Rzut2
  6
CONTINUOUS
 62
     7
 10
402.579
 20
178.739000000000000
 11
402.5788
 21
177.334200000000010
  0
LINE
  8
PT2-Rzut2
  6
CONTINUOUS
 62
     7
 10
402.5813
 20
177.334200000000010
 11
401.179
 21
177.333900000000000
  0
LINE
  8
PT2-Rzut2
  6
CONTINUOUS
 62
     7
 10
401.179
 20
177.331400000000000
 11
401.1788
 21
178.735099999999990
  0
LINE
  8
PT2-Rzut2
  6
CONTINUOUS
 62
     7
 10
403.7788
 20
177.331500000000010
 11
403.779
 21
178.736300000000000
  0
LINE
  8
PT2-Rzut2
  6
CONTINUOUS
 62
     7
 10
403.7765
 20
178.736300000000000
 11
405.1786
 21
178.736600000000010
  0
LINE
  8
PT2-Rzut2
  6
CONTINUOUS
 62
     7
 10
405.1786
 20
178.736600000000010
 11
405.1786
 21
177.333800000000000
  0
LINE
  8
PT2-Rzut2
  6
CONTINUOUS
 62
     7
 10
405.1811
 20
177.333800000000000
 11
403.7788
 21
177.334000000000000
  0
LINE
  8
PT2-Rzut2
  6
CONTINUOUS
 62
     7
 10
324.9808
 20
115.781799999999980
 11
324.9824
 21
117.184199999999980
  0
LINE
  8
PT2-Rzut2
  6
CONTINUOUS
 62
     7
 10
324.9799
 20
117.184199999999980
 11
326.3844
 21
117.184900000000030
  0
LINE
  8
PT2-Rzut2
  6
CONTINUOUS
 62
     7
 10
326.3844
 20
117.187400000000030
 11
326.3845
 21
115.784100000000020
  0
LINE
  8
PT2-Rzut2
  6
CONTINUOUS
 62
     7
 10
326.387
 20
115.784100000000020
 11
324.9808
 21
115.784200000000000
  0
LINE
  8
PT2-Rzut2
  6
CONTINUOUS
 62
     7
 10
245.9841
 20
151.084100000000010
 11
249.8865
 21
151.084599999999990
  0
LINE
  8
PT2-Rzut2
  6
CONTINUOUS
 62
     7
 10
251.0865
 20
151.084700000000000
 11
252.3869
 21
151.084900000000000
  0
LINE
  8
PT2-Rzut2
  6
CONTINUOUS
 62
     7
 10
252.3869
 20
151.082400000000010
 11
252.3866
 21
155.584200000000010
  0
LINE
  8
PT2-Rzut2
  6
CONTINUOUS
 62
     7
 10
252.3891
 20
155.584200000000010
 11
245.9869
 21
155.585900000000010
  0
LINE
  8
PT2-Rzut2
  6
CONTINUOUS
 62
     7
 10
245.9869
 20
155.588400000000010
 11
245.9866
 21
151.084100000000010
  0
LINE
  8
PT2-Rzut2
  6
CONTINUOUS
 62
     7
 10
251.1893
 20
152.284699999999990
 11
249.7871
 21
152.284699999999990
  0
LINE
  8
PT2-Rzut2
  6
CONTINUOUS
 62
     7
 10
249.7871
 20
152.284699999999990
 11
249.7867
 21
154.384899999999990
  0
LINE
  8
PT2-Rzut2
  6
CONTINUOUS
 62
     7
 10
249.7841
 20
154.384899999999990
 11
251.1867
 21
154.384500000000000
  0
LINE
  8
PT2-Rzut2
  6
CONTINUOUS
 62
     7
 10
251.1867
 20
154.387000000000000
 11
251.1868
 21
152.284699999999990
  0
LINE
  8
PT2-Rzut2
  6
CONTINUOUS
 62
     7
 10
248.5896
 20
152.284400000000010
 11
247.1864
 21
152.284200000000000
  0
LINE
  8
PT2-Rzut2
  6
CONTINUOUS
 62
     7
 10
247.1867
 20
152.281700000000000
 11
247.1868
 21
154.385500000000010
  0
LINE
  8
PT2-Rzut2
  6
CONTINUOUS
 62
     7
 10
247.1843
 20
154.385500000000010
 11
248.5866
 21
154.385200000000000
  0
LINE
  8
PT2-Rzut2
  6
CONTINUOUS
 62
     7
 10
248.5866
 20
154.387700000000000
 11
248.5871
 21
152.284400000000010
  0
LINE
  8
PT2-Rzut2
  6
CONTINUOUS
 62
     7
 10
203.5841
 20
151.084200000000010
 11
209.9865
 21
151.084200000000010
  0
LINE
  8
PT2-Rzut2
  6
CONTINUOUS
 62
     7
 10
209.9865
 20
151.081700000000010
 11
209.9862
 21
155.583599999999990
  0
LINE
  8
PT2-Rzut2
  6
CONTINUOUS
 62
     7
 10
209.9887
 20
155.583599999999990
 11
203.5869
 21
155.585700000000000
  0
LINE
  8
PT2-Rzut2
  6
CONTINUOUS
 62
     7
 10
203.5869
 20
155.588200000000000
 11
203.5866
 21
151.084200000000010
  0
LINE
  8
PT2-Rzut2
  6
CONTINUOUS
 62
     7
 10
208.7889
 20
152.284200000000000
 11
207.3863
 21
152.284200000000000
  0
LINE
  8
PT2-Rzut2
  6
CONTINUOUS
 62
     7
 10
207.3863
 20
152.281700000000000
 11
207.3867
 21
154.384400000000000
  0
LINE
  8
PT2-Rzut2
  6
CONTINUOUS
 62
     7
 10
207.3842
 20
154.384400000000000
 11
208.7863
 21
154.383999999999990
  0
LINE
  8
PT2-Rzut2
  6
CONTINUOUS
 62
     7
 10
208.7863
 20
154.386500000000010
 11
208.7864
 21
152.284200000000000
  0
LINE
  8
PT2-Rzut2
  6
CONTINUOUS
 62
     7
 10
206.1888
 20
152.284200000000000
 11
204.7865
 21
152.284200000000000
  0
LINE
  8
PT2-Rzut2
  6
CONTINUOUS
 62
     7
 10
204.7867
 20
152.281700000000000
 11
204.7868
 21
154.385300000000000
  0
LINE
  8
PT2-Rzut2
  6
CONTINUOUS
 62
     7
 10
204.7843
 20
154.385300000000000
 11
206.1866
 21
154.384800000000010
  0
LINE
  8
PT2-Rzut2
  6
CONTINUOUS
 62
     7
 10
206.1866
 20
154.387300000000010
 11
206.1862
 21
152.284200000000000
  0
LINE
  8
PT2-Rzut2
  6
CONTINUOUS
 62
     7
 10
112.7843
 20
151.084499999999990
 11
119.1864
 21
151.082900000000000
  0
LINE
  8
PT2-Rzut2
  6
CONTINUOUS
 62
     7
 10
119.1864
 20
151.080400000000000
 11
119.187
 21
155.583900000000000
  0
LINE
  8
PT2-Rzut2
  6
CONTINUOUS
 62
     7
 10
119.1895
 20
155.583900000000000
 11
112.7871
 21
155.585900000000010
  0
LINE
  8
PT2-Rzut2
  6
CONTINUOUS
 62
     7
 10
112.7871
 20
155.588400000000010
 11
112.7868
 21
151.084499999999990
  0
LINE
  8
PT2-Rzut2
  6
CONTINUOUS
 62
     7
 10
117.9891
 20
152.283199999999990
 11
116.5871
 21
152.283600000000010
  0
LINE
  8
PT2-Rzut2
  6
CONTINUOUS
 62
     7
 10
116.5871
 20
152.281100000000010
 11
116.5869
 21
154.384700000000010
  0
LINE
  8
PT2-Rzut2
  6
CONTINUOUS
 62
     7
 10
116.5844
 20
154.384700000000010
 11
117.9869
 21
154.384199999999990
  0
LINE
  8
PT2-Rzut2
  6
CONTINUOUS
 62
     7
 10
117.9869
 20
154.386699999999990
 11
117.9866
 21
152.283199999999990
  0
LINE
  8
PT2-Rzut2
  6
CONTINUOUS
 62
     7
 10
115.3896
 20
152.283899999999990
 11
113.9868
 21
152.284200000000000
  0
LINE
  8
PT2-Rzut2
  6
CONTINUOUS
 62
     7
 10
113.9869
 20
152.281700000000000
 11
113.987
 21
154.385500000000010
  0
LINE
  8
PT2-Rzut2
  6
CONTINUOUS
 62
     7
 10
113.9845
 20
154.385500000000010
 11
115.3869
 21
154.385099999999990
  0
LINE
  8
PT2-Rzut2
  6
CONTINUOUS
 62
     7
 10
115.3869
 20
154.387599999999990
 11
115.3871
 21
152.283899999999990
  0
LINE
  8
PT2-Rzut2
  6
CONTINUOUS
 62
     7
 10
75.5894
 20
152.285300000000010
 11
74.1876
 21
152.284899999999990
  0
LINE
  8
PT2-Rzut2
  6
CONTINUOUS
 62
     7
 10
74.1876
 20
152.282400000000000
 11
74.1874
 21
154.384700000000010
  0
LINE
  8
PT2-Rzut2
  6
CONTINUOUS
 62
     7
 10
74.185
 20
154.384700000000010
 11
75.5868
 21
154.384199999999990
  0
LINE
  8
PT2-Rzut2
  6
CONTINUOUS
 62
     7
 10
75.5868
 20
154.386699999999990
 11
75.5869
 21
152.285300000000010
  0
LINE
  8
PT2-Rzut2
  6
CONTINUOUS
 62
     7
 10
72.9901
 20
152.284600000000010
 11
71.5865
 21
152.284200000000000
  0
LINE
  8
PT2-Rzut2
  6
CONTINUOUS
 62
     7
 10
71.5869
 20
152.281700000000000
 11
71.587
 21
154.385500000000010
  0
LINE
  8
PT2-Rzut2
  6
CONTINUOUS
 62
     7
 10
71.5845
 20
154.385500000000010
 11
72.9875
 21
154.385099999999990
  0
LINE
  8
PT2-Rzut2
  6
CONTINUOUS
 62
     7
 10
72.9875
 20
154.387599999999990
 11
72.9876
 21
152.284600000000010
  0
LINE
  8
PT2-Rzut2
  6
CONTINUOUS
 62
     7
 10
129.4865
 20
182.482499999999990
 11
129.487
 21
188.884600000000010
  0
LINE
  8
PT2-Rzut2
  6
CONTINUOUS
 62
     7
 10
129.4894
 20
188.884600000000010
 11
124.9861
 21
188.883999999999990
  0
LINE
  8
PT2-Rzut2
  6
CONTINUOUS
 62
     7
 10
124.9861
 20
188.886500000000010
 11
124.9873
 21
182.484199999999990
  0
LINE
  8
PT2-Rzut2
  6
CONTINUOUS
 62
     7
 10
124.9848
 20
182.484199999999990
 11
129.4865
 21
182.485000000000010
  0
LINE
  8
PT2-Rzut2
  6
CONTINUOUS
 62
     7
 10
128.2869
 20
187.687000000000010
 11
128.2868
 21
186.284100000000000
  0
LINE
  8
PT2-Rzut2
  6
CONTINUOUS
 62
     7
 10
128.2893
 20
186.284100000000000
 11
126.1866
 21
186.284200000000000
  0
LINE
  8
PT2-Rzut2
  6
CONTINUOUS
 62
     7
 10
126.1866
 20
186.281700000000000
 11
126.1863
 21
187.684200000000000
  0
LINE
  8
PT2-Rzut2
  6
CONTINUOUS
 62
     7
 10
126.1839
 20
187.684200000000000
 11
128.2869
 21
187.684500000000010
  0
LINE
  8
PT2-Rzut2
  6
CONTINUOUS
 62
     7
 10
128.2867
 20
185.086600000000000
 11
128.2866
 21
183.684599999999990
  0
LINE
  8
PT2-Rzut2
  6
CONTINUOUS
 62
     7
 10
128.2891
 20
183.684800000000000
 11
126.1871
 21
183.684400000000010
  0
LINE
  8
PT2-Rzut2
  6
CONTINUOUS
 62
     7
 10
126.1871
 20
183.681900000000010
 11
126.1868
 21
185.084200000000010
  0
LINE
  8
PT2-Rzut2
  6
CONTINUOUS
 62
     7
 10
126.1843
 20
185.084200000000010
 11
128.2867
 21
185.084100000000010
  0
LINE
  8
PT2-Rzut2
  6
CONTINUOUS
 62
     7
 10
128.2876
 20
223.686800000000010
 11
128.2874
 21
222.283800000000010
  0
LINE
  8
PT2-Rzut2
  6
CONTINUOUS
 62
     7
 10
128.2899
 20
222.283800000000010
 11
126.1839
 21
222.283800000000010
  0
LINE
  8
PT2-Rzut2
  6
CONTINUOUS
 62
     7
 10
126.1839
 20
222.281299999999990
 11
126.1839
 21
223.683899999999990
  0
LINE
  8
PT2-Rzut2
  6
CONTINUOUS
 62
     7
 10
126.1814
 20
223.683899999999990
 11
128.2876
 21
223.684300000000010
  0
LINE
  8
PT2-Rzut2
  6
CONTINUOUS
 62
     7
 10
128.2872
 20
221.086299999999990
 11
128.287
 21
219.683899999999990
  0
LINE
  8
PT2-Rzut2
  6
CONTINUOUS
 62
     7
 10
128.2895
 20
219.683899999999990
 11
126.184
 21
219.684300000000010
  0
LINE
  8
PT2-Rzut2
  6
CONTINUOUS
 62
     7
 10
126.184
 20
219.681800000000010
 11
126.1839
 21
221.083900000000000
  0
LINE
  8
PT2-Rzut2
  6
CONTINUOUS
 62
     7
 10
126.1814
 20
221.083900000000000
 11
128.2872
 21
221.083800000000000
  0
LINE
  8
PT2-Rzut2
  6
CONTINUOUS
 62
     7
 10
128.2868
 20
218.486400000000000
 11
128.2866
 21
217.084599999999990
  0
LINE
  8
PT2-Rzut2
  6
CONTINUOUS
 62
     7
 10
128.2891
 20
217.084000000000000
 11
126.184
 21
217.084300000000010
  0
LINE
  8
PT2-Rzut2
  6
CONTINUOUS
 62
     7
 10
126.184
 20
217.081799999999990
 11
126.184
 21
218.484299999999990
  0
LINE
  8
PT2-Rzut2
  6
CONTINUOUS
 62
     7
 10
126.1815
 20
218.484299999999990
 11
128.2868
 21
218.483900000000010
  0
LINE
  8
PT2-Rzut2
  6
CONTINUOUS
 62
     7
 10
193.0825
 20
227.480099999999990
 11
197.5865
 21
227.480400000000000
  0
LINE
  8
PT2-Rzut2
  6
CONTINUOUS
 62
     7
 10
197.5865
 20
227.477900000000010
 11
197.5857
 21
233.880500000000010
  0
LINE
  8
PT2-Rzut2
  6
CONTINUOUS
 62
     7
 10
197.5882
 20
233.880500000000010
 11
193.0866
 21
233.880799999999990
  0
LINE
  8
PT2-Rzut2
  6
CONTINUOUS
 62
     7
 10
193.0866
 20
233.883299999999990
 11
193.085
 21
227.480099999999990
  0
LINE
  8
PT2-Rzut2
  6
CONTINUOUS
 62
     7
 10
196.3888
 20
228.680299999999990
 11
194.2863
 21
228.680200000000010
  0
LINE
  8
PT2-Rzut2
  6
CONTINUOUS
 62
     7
 10
194.2853
 20
228.677699999999990
 11
194.2863
 21
230.080199999999990
  0
LINE
  8
PT2-Rzut2
  6
CONTINUOUS
 62
     7
 10
194.2838
 20
230.080199999999990
 11
196.3862
 21
230.080000000000010
  0
LINE
  8
PT2-Rzut2
  6
CONTINUOUS
 62
     7
 10
196.3862
 20
230.082500000000010
 11
196.3863
 21
228.680299999999990
  0
LINE
  8
PT2-Rzut2
  6
CONTINUOUS
 62
     7
 10
196.3858
 20
232.683100000000000
 11
196.386
 21
231.280000000000000
  0
LINE
  8
PT2-Rzut2
  6
CONTINUOUS
 62
     7
 10
196.3885
 20
231.280000000000000
 11
194.2863
 21
231.280200000000010
  0
LINE
  8
PT2-Rzut2
  6
CONTINUOUS
 62
     7
 10
194.286
 20
231.277700000000010
 11
194.2863
 21
232.680700000000000
  0
LINE
  8
PT2-Rzut2
  6
CONTINUOUS
 62
     7
 10
194.2838
 20
232.680700000000000
 11
196.3858
 21
232.680600000000000
  0
LINE
  8
PT2-Rzut2
  6
GESTRICHELT
 62
     7
 10
177.8366
 20
116.869500000000020
 11
177.8366
 21
85.884200000000021
  0
LINE
  8
PT2-Rzut2
  6
GESTRICHELT
 62
     7
 10
207.8366
 20
85.884200000000021
 11
207.8366
 21
116.869399999999980
  0
LINE
  8
PT2-Rzut2
  6
GESTRICHELT
 62
     7
 10
376.2671
 20
85.894299999999987
 11
376.2671
 21
116.869399999999980
  0
LINE
  8
PT2-Rzut2
  6
GESTRICHELT
 62
     7
 10
346.2671
 20
116.869500000000020
 11
346.2671
 21
85.890499999999975
  0
LINE
  8
PT2-Rzut2
  6
GESTRICHELT
 62
     7
 10
435.9013
 20
150.384400000000000
 11
466.8866
 21
150.384400000000000
  0
LINE
  8
PT2-Rzut2
  6
GESTRICHELT
 62
     7
 10
466.8866
 20
180.384400000000000
 11
435.9014
 21
180.384400000000000
  0
LINE
  8
PT2-Rzut2
  6
GESTRICHELT
 62
     7
 10
90.3719
 20
180.384400000000000
 11
59.3866
 21
180.384400000000000
  0
LINE
  8
PT2-Rzut2
  6
CONTINUOUS
 62
     7
 10
70.3868
 20
150.384400000000000
 11
76.7871
 21
150.384400000000000
  0
LINE
  8
PT2-Dachy3
  6
CONTINUOUS
 62
     7
 10
87.9113
 20
147.384400000000000
 11
102.6754
 21
165.384099999999990
  0
LINE
  8
PT2-Rzut2
  6
GESTRICHELT
 62
     7
 10
326.3866
 20
240.886699999999990
 11
326.3866
 21
212.117999999999990
  0
LINE
  8
PT2-Rzut2
  6
GESTRICHELT
 62
     7
 10
328.8866
 20
213.899000000000000
 11
328.8866
 21
244.884199999999990
  0
LINE
  8
PT2-Dachy3
  6
CONTINUOUS
 62
     7
 10
138.8866
 20
165.384199999999990
 11
54.3866
 21
80.884200000000021
  0
LINE
  8
PT2-Dachy3
  6
CONTINUOUS
 62
     7
 10
54.3866
 20
80.884200000000021
 11
257.4866
 21
80.884200000000021
  0
LINE
  8
PT2-Dachy3
  6
CONTINUOUS
 62
     7
 10
257.4866
 20
112.451500000000010
 11
281.0866
 21
136.051500000000000
  0
LINE
  8
PT2-Dachy3
  6
CONTINUOUS
 62
     7
 10
281.0866
 20
136.051500000000000
 11
304.6866
 21
112.451500000000010
  0
LINE
  8
PT2-Dachy3
  6
CONTINUOUS
 62
     7
 10
304.6866
 20
80.884200000000021
 11
471.8866
 21
80.884200000000021
  0
LINE
  8
PT2-Dachy3
  6
CONTINUOUS
 62
     7
 10
471.8866
 20
80.884200000000021
 11
422.8596
 21
129.911200000000010
  0
LINE
  8
PT2-Dachy3
  6
CONTINUOUS
 62
     7
 10
387.3866
 20
165.384199999999990
 11
183.8866
 21
165.384199999999990
  0
LINE
  8
PT2-Dachy3
  6
CONTINUOUS
 62
     7
 10
183.8866
 20
165.384199999999990
 11
175.2366
 21
174.034200000000000
  0
LINE
  8
PT2-Dachy3
  6
CONTINUOUS
 62
     7
 10
175.2366
 20
174.034200000000000
 11
166.5866
 21
165.384199999999990
  0
LINE
  8
PT2-Dachy3
  6
CONTINUOUS
 62
     7
 10
166.5866
 20
165.384199999999990
 11
138.8866
 21
165.384199999999990
  0
LINE
  8
PT2-Dachy3
  6
CONTINUOUS
 62
     7
 10
257.4866
 20
112.451500000000010
 11
257.4866
 21
74.884500000000003
  0
LINE
  8
PT2-Dachy3
  6
CONTINUOUS
 62
     7
 10
257.4866
 20
74.884500000000003
 11
304.6866
 21
74.884500000000003
  0
LINE
  8
PT2-Dachy3
  6
CONTINUOUS
 62
     7
 10
281.0866
 20
74.884500000000003
 11
281.0866
 21
136.051500000000000
  0
LINE
  8
PT2-Dachy3
  6
CONTINUOUS
 62
     7
 10
304.6866
 20
74.884500000000003
 11
304.6866
 21
112.451500000000010
  0
LINE
  8
PT2-Dachy3
  6
CONTINUOUS
 62
     7
 10
471.8866
 20
80.884200000000021
 11
471.8866
 21
249.884300000000000
  0
LINE
  8
PT2-Dachy3
  6
CONTINUOUS
 62
     7
 10
471.8866
 20
249.884300000000000
 11
401.9388
 21
179.936299999999990
  0
LINE
  8
PT2-Dachy3
  6
CONTINUOUS
 62
     7
 10
471.8866
 20
249.884300000000000
 11
268.3866
 21
249.884300000000000
  0
LINE
  8
PT2-Dachy3
  6
CONTINUOUS
 62
     7
 10
268.3866
 20
249.884300000000000
 11
183.8866
 21
165.384199999999990
  0
LINE
  8
PT2-Dachy3
  6
CONTINUOUS
 62
     7
 10
268.3866
 20
249.884300000000000
 11
268.3866
 21
313.002000000000010
  0
LINE
  8
PT2-Dachy3
  6
CONTINUOUS
 62
     7
 10
175.2366
 20
192.834200000000010
 11
175.2366
 21
174.034200000000000
  0
LINE
  8
PT2-Dachy3
  6
CONTINUOUS
 62
     7
 10
149.1866
 20
357.561600000000000
 11
149.1866
 21
285.984199999999990
  0
LINE
  8
PT2-Dachy3
  6
CONTINUOUS
 62
     7
 10
149.1866
 20
285.984199999999990
 11
208.7866
 21
226.384199999999990
  0
LINE
  8
PT2-Dachy3
  6
CONTINUOUS
 62
     7
 10
149.1866
 20
285.984199999999990
 11
82.0866
 21
285.984199999999990
  0
LINE
  8
PT2-Dachy3
  6
CONTINUOUS
 62
     7
 10
82.0866
 20
285.984199999999990
 11
175.2366
 21
192.834200000000010
  0
LINE
  8
PT2-Dachy3
  6
CONTINUOUS
 62
     7
 10
82.0866
 20
285.984199999999990
 11
82.0866
 21
249.884300000000000
  0
LINE
  8
PT2-Dachy3
  6
CONTINUOUS
 62
     7
 10
82.0866
 20
249.884300000000000
 11
166.5866
 21
165.384199999999990
  0
LINE
  8
PT2-Dachy3
  6
CONTINUOUS
 62
     7
 10
82.0866
 20
249.884300000000000
 11
54.3866
 21
249.884300000000000
  0
LINE
  8
PT2-Dachy3
  6
CONTINUOUS
 62
     7
 10
54.3866
 20
249.884300000000000
 11
138.8866
 21
165.384199999999990
  0
LINE
  8
PT2-Dachy3
  6
CONTINUOUS
 62
     7
 10
54.3866
 20
249.884300000000000
 11
54.3866
 21
80.884200000000021
  0
LINE
  8
PT2-Dachy3
  6
CONTINUOUS
 62
     7
 10
343.2597
 20
225.844900000000000
 11
343.2597
 21
216.029200000000000
  0
LINE
  8
PT2-Dachy3
  6
CONTINUOUS
 62
     7
 10
343.2597
 20
216.029200000000000
 11
335.4982
 21
216.029200000000000
  0
LINE
  8
PT2-Dachy3
  6
CONTINUOUS
 62
     7
 10
335.4982
 20
216.029200000000000
 11
335.4982
 21
225.844900000000000
  0
LINE
  8
PT2-Dachy3
  6
CONTINUOUS
 62
     7
 10
335.4982
 20
225.844900000000000
 11
343.2597
 21
225.844900000000000
  0
LINE
  8
PT2-Dachy3
  6
CONTINUOUS
 62
     7
 10
361.2597
 20
225.844900000000000
 11
361.2597
 21
216.029200000000000
  0
LINE
  8
PT2-Dachy3
  6
CONTINUOUS
 62
     7
 10
361.2597
 20
216.029200000000000
 11
353.4981
 21
216.029200000000000
  0
LINE
  8
PT2-Dachy3
  6
CONTINUOUS
 62
     7
 10
353.4981
 20
216.029200000000000
 11
353.4981
 21
225.844900000000000
  0
LINE
  8
PT2-Dachy3
  6
CONTINUOUS
 62
     7
 10
353.4981
 20
225.844900000000000
 11
361.2597
 21
225.844900000000000
  0
LINE
  8
PT2-Dachy3
  6
CONTINUOUS
 62
     7
 10
379.2597
 20
225.844900000000000
 11
379.2597
 21
216.029200000000000
  0
LINE
  8
PT2-Dachy3
  6
CONTINUOUS
 62
     7
 10
379.2597
 20
216.029200000000000
 11
371.4981
 21
216.029200000000000
  0
LINE
  8
PT2-Dachy3
  6
CONTINUOUS
 62
     7
 10
371.4981
 20
216.029200000000000
 11
371.4981
 21
225.844900000000000
  0
LINE
  8
PT2-Dachy3
  6
CONTINUOUS
 62
     7
 10
371.4981
 20
225.844900000000000
 11
379.2597
 21
225.844900000000000
  0
LINE
  8
PT2-Dachy3
  6
CONTINUOUS
 62
     7
 10
343.2597
 20
213.526000000000010
 11
343.2597
 21
211.184200000000000
  0
LINE
  8
PT2-Dachy3
  6
CONTINUOUS
 62
     7
 10
335.4982
 20
211.184200000000000
 11
335.4982
 21
213.526000000000010
  0
LINE
  8
PT2-Dachy3
  6
CONTINUOUS
 62
     7
 10
335.4982
 20
213.526000000000010
 11
343.2597
 21
213.526000000000010
  0
LINE
  8
PT2-Dachy3
  6
CONTINUOUS
 62
     7
 10
361.2597
 20
213.526000000000010
 11
361.2597
 21
211.184200000000000
  0
LINE
  8
PT2-Dachy3
  6
CONTINUOUS
 62
     7
 10
353.4981
 20
211.184200000000000
 11
353.4981
 21
213.526000000000010
  0
LINE
  8
PT2-Dachy3
  6
CONTINUOUS
 62
     7
 10
353.4981
 20
213.526000000000010
 11
361.2597
 21
213.526000000000010
  0
LINE
  8
PT2-Dachy3
  6
CONTINUOUS
 62
     7
 10
379.2597
 20
213.526000000000010
 11
379.2597
 21
211.184200000000000
  0
LINE
  8
PT2-Dachy3
  6
CONTINUOUS
 62
     7
 10
371.4981
 20
211.184200000000000
 11
371.4981
 21
213.526000000000010
  0
LINE
  8
PT2-Dachy3
  6
CONTINUOUS
 62
     7
 10
371.4981
 20
213.526000000000010
 11
379.2597
 21
213.526000000000010
  0
LINE
  8
PT3-Rzut7
  6
GESTRICHELT
 62
     7
 10
120.2848
 20
368.336200000000020
 11
146.1866
 21
358.660500000000010
  0
LINE
  8
PT3-Dachy8
  6
CONTINUOUS
 62
     3
 10
116.8382
 20
367.575100000000020
 11
147.6078
 21
356.081099999999990
  0
LINE
  8
PT3-Dachy8
  6
CONTINUOUS
 62
     3
 10
231.5982
 20
331.451700000000020
 11
247.6618
 21
374.439599999999980
  0
LINE
  8
PT3-Dachy8
  6
GESTRICHELT
 62
     3
 10
120.2871
 20
368.335300000000020
 11
122.5674
 21
374.439599999999980
  0
LINE
  8
PT3-Dachy8
  6
CONTINUOUS
 62
     7
 10
119.3023
 20
374.439599999999980
 11
116.7202
 21
367.533700000000010
  0
LINE
  8
PT4-Rzut9
  6
CONTINUOUS
 62
     7
 10
237.1455
 20
334.308499999999980
 11
252.1424
 21
374.439599999999980
  0
LINE
  8
PT4-Dachy10
  6
GESTRICHELT
 62
     3
 10
268.4213
 20
317.696399999999980
 11
289.6228
 21
374.439599999999980
  0
LINE
  8
PT4-Dachy10
  6
CONTINUOUS
 62
     7
 10
269.8866
 20
313.046699999999990
 11
292.8405
 21
374.439599999999980
  0
LINE
  8
PT2-Rzut2
  6
GESTRICHELT
 62
     7
 10
65.5866
 20
179.184400000000010
 11
91.3562
 21
179.184400000000010
  0
LINE
  8
PT2-Rzut2
  6
GESTRICHELT
 62
     7
 10
65.5866
 20
151.584399999999990
 11
70.3869
 21
151.584399999999990
  0
LINE
  8
PT2-Rzut2
  6
GESTRICHELT
 62
     7
 10
76.787
 20
151.584399999999990
 11
91.3563
 21
151.584399999999990
  0
LINE
  8
PT2-Rzut2
  6
CONTINUOUS
 62
     7
 10
71.5869
 20
152.281700000000000
 11
72.9875
 21
154.387599999999990
  0
LINE
  8
PT2-Rzut2
  6
CONTINUOUS
 62
     7
 10
74.1876
 20
152.282400000000000
 11
75.5868
 21
154.386699999999990
  0
LINE
  8
PT2-Rzut2
  6
CONTINUOUS
 62
     7
 10
113.9869
 20
152.281700000000000
 11
115.3869
 21
154.387599999999990
  0
LINE
  8
PT2-Rzut2
  6
CONTINUOUS
 62
     7
 10
116.5871
 20
152.281100000000010
 11
117.9869
 21
154.386699999999990
  0
LINE
  8
PT2-Rzut2
  6
CONTINUOUS
 62
     7
 10
126.1871
 20
183.681900000000010
 11
128.2867
 21
185.084100000000010
  0
LINE
  8
PT2-Rzut2
  6
CONTINUOUS
 62
     7
 10
126.1866
 20
186.281700000000000
 11
128.2869
 21
187.684500000000010
  0
LINE
  8
PT2-Rzut2
  6
CONTINUOUS
 62
     7
 10
126.1839
 20
222.281299999999990
 11
128.2876
 21
223.684300000000010
  0
LINE
  8
PT2-Rzut2
  6
CONTINUOUS
 62
     7
 10
126.184
 20
219.681800000000010
 11
128.2872
 21
221.083800000000000
  0
LINE
  8
PT2-Rzut2
  6
CONTINUOUS
 62
     7
 10
126.184
 20
217.081799999999990
 11
128.2868
 21
218.483900000000010
  0
LINE
  8
PT2-Rzut2
  6
CONTINUOUS
 62
     7
 10
194.286
 20
231.277700000000010
 11
196.3858
 21
232.680600000000000
  0
LINE
  8
PT2-Rzut2
  6
CONTINUOUS
 62
     7
 10
194.2853
 20
228.677699999999990
 11
196.3862
 21
230.080000000000010
  0
LINE
  8
PT2-Rzut2
  6
CONTINUOUS
 62
     7
 10
222.9866
 20
299.581700000000010
 11
224.3866
 21
300.986699999999980
  0
LINE
  8
PT2-Rzut2
  6
CONTINUOUS
 62
     7
 10
225.5866
 20
299.581700000000010
 11
226.9866
 21
300.986699999999980
  0
LINE
  8
PT2-Rzut2
  6
CONTINUOUS
 62
     7
 10
228.1866
 20
299.581700000000010
 11
229.5866
 21
300.986699999999980
  0
LINE
  8
PT2-Rzut2
  6
CONTINUOUS
 62
     7
 10
249.8865
 20
151.088699999999990
 11
251.0865
 21
151.084700000000000
  0
LINE
  8
PT2-Rzut2
  6
CONTINUOUS
 62
     7
 10
247.1582
 20
152.212099999999990
 11
248.5866
 21
154.385200000000000
  0
LINE
  8
PT2-Rzut2
  6
CONTINUOUS
 62
     7
 10
249.7871
 20
152.284699999999990
 11
251.1867
 21
154.387000000000000
  0
LINE
  8
PT2-Rzut2
  6
CONTINUOUS
 62
     7
 10
204.7867
 20
152.281700000000000
 11
206.1866
 21
154.387300000000010
  0
LINE
  8
PT2-Rzut2
  6
CONTINUOUS
 62
     7
 10
207.3863
 20
152.281700000000000
 11
208.7863
 21
154.386500000000010
  0
LINE
  8
PT2-Rzut2
  6
GESTRICHELT
 62
     7
 10
179.0366
 20
92.084200000000010
 11
179.0366
 21
117.853799999999980
  0
LINE
  8
PT2-Rzut2
  6
GESTRICHELT
 62
     7
 10
206.6366
 20
92.084200000000010
 11
206.6366
 21
117.853799999999980
  0
LINE
  8
PT2-Rzut2
  6
CONTINUOUS
 62
     7
 10
324.9813
 20
120.796400000000010
 11
326.3845
 21
122.386700000000020
  0
LINE
  8
PT2-Rzut2
  6
CONTINUOUS
 62
     7
 10
324.9812
 20
118.381700000000020
 11
326.3842
 21
119.601400000000010
  0
LINE
  8
PT2-Rzut2
  6
CONTINUOUS
 62
     7
 10
324.9808
 20
115.784200000000000
 11
326.3844
 21
117.187400000000030
  0
LINE
  8
PT2-Rzut2
  6
GESTRICHELT
 62
     7
 10
347.4671
 20
117.853799999999980
 11
347.4671
 21
89.890300000000025
  0
LINE
  8
PT2-Rzut2
  6
GESTRICHELT
 62
     7
 10
375.0671
 20
117.853799999999980
 11
375.0671
 21
89.894299999999987
  0
LINE
  8
PT2-Rzut2
  6
CONTINUOUS
 62
     7
 10
433.0758
 20
131.106800000000020
 11
434.4765
 21
132.515899999999990
  0
LINE
  8
PT2-Rzut2
  6
CONTINUOUS
 62
     7
 10
430.4758
 20
131.109800000000010
 11
431.8758
 21
132.515600000000010
  0
LINE
  8
PT2-Rzut2
  6
CONTINUOUS
 62
     7
 10
427.8764
 20
131.111400000000000
 11
429.2761
 21
132.515199999999990
  0
LINE
  8
PT2-Rzut2
  6
CONTINUOUS
 62
     7
 10
425.2758
 20
131.108200000000010
 11
426.6764
 21
132.514900000000010
  0
LINE
  8
PT2-Rzut2
  6
CONTINUOUS
 62
     7
 10
422.6764
 20
131.108700000000000
 11
424.0757
 21
132.514599999999970
  0
LINE
  8
PT2-Rzut2
  6
CONTINUOUS
 62
     7
 10
420.0764
 20
131.111699999999980
 11
421.4767
 21
132.514200000000020
  0
LINE
  8
PT2-Rzut2
  6
CONTINUOUS
 62
     7
 10
417.4761
 20
131.109699999999980
 11
418.8764
 21
132.513899999999980
  0
LINE
  8
PT2-Rzut2
  6
CONTINUOUS
 62
     7
 10
385.8708
 20
152.056700000000010
 11
387.2707
 21
153.446000000000000
  0
LINE
  8
PT2-Rzut2
  6
CONTINUOUS
 62
     7
 10
388.4711
 20
152.056900000000010
 11
389.8707
 21
153.445799999999990
  0
LINE
  8
PT2-Rzut2
  6
CONTINUOUS
 62
     7
 10
391.0711
 20
152.059599999999990
 11
392.4213
 21
153.445699999999990
  0
LINE
  8
PT2-Rzut2
  6
CONTINUOUS
 62
     7
 10
403.7788
 20
177.334000000000000
 11
405.1786
 21
178.736600000000010
  0
LINE
  8
PT2-Rzut2
  6
CONTINUOUS
 62
     7
 10
401.179
 20
177.331400000000000
 11
402.579
 21
178.739000000000000
  0
LINE
  8
PT2-Rzut2
  6
CONTINUOUS
 62
     7
 10
398.579
 20
177.330700000000010
 11
399.9788
 21
178.738499999999990
  0
LINE
  8
PT2-Rzut2
  6
CONTINUOUS
 62
     7
 10
395.979
 20
177.321400000000010
 11
397.3791
 21
178.738000000000000
  0
LINE
  8
PT2-Rzut2
  6
CONTINUOUS
 62
     7
 10
393.379
 20
177.329399999999990
 11
394.7788
 21
178.737500000000010
  0
LINE
  8
PT2-Rzut2
  6
CONTINUOUS
 62
     7
 10
390.779
 20
177.328700000000000
 11
392.1788
 21
178.736999999999990
  0
LINE
  8
PT2-Rzut2
  6
GESTRICHELT
 62
     7
 10
434.9171
 20
179.184400000000010
 11
462.8866
 21
179.184400000000010
  0
LINE
  8
PT2-Rzut2
  6
GESTRICHELT
 62
     7
 10
434.9171
 20
151.584399999999990
 11
462.8866
 21
151.584399999999990
  0
LINE
  8
PT2-Rzut2
  6
CONTINUOUS
 62
     7
 10
219.5144
 20
332.549899999999980
 11
221.5259
 21
333.933200000000000
  0
LINE
  8
PT2-Rzut2
  6
CONTINUOUS
 62
     7
 10
221.9498
 20
331.639500000000000
 11
223.9623
 21
333.025800000000000
  0
LINE
  8
PT2-Rzut2
  6
CONTINUOUS
 62
     7
 10
224.3851
 20
330.729199999999990
 11
227.6158
 21
331.661000000000000
  0
LINE
  8
PT2-Rzut2
  6
CONTINUOUS
 62
     7
 10
228.0383
 20
329.363600000000020
 11
230.0515
 21
330.751100000000010
  0
LINE
  8
PT2-Dachy3
  6
CONTINUOUS
 62
     7
 10
56.3866
 20
183.384400000000000
 11
87.9113
 21
183.384400000000000
  0
LINE
  8
PT2-Dachy3
  6
CONTINUOUS
 62
     7
 10
56.3866
 20
147.384400000000000
 11
87.9113
 21
147.384400000000000
  0
LINE
  8
PT2-Dachy3
  6
CONTINUOUS
 62
     7
 10
56.3866
 20
183.384400000000000
 11
56.3866
 21
147.384400000000000
  0
LINE
  8
PT2-Dachy3
  6
CONTINUOUS
 62
     7
 10
87.9113
 20
183.384400000000000
 11
102.6754
 21
165.384099999999990
  0
LINE
  8
PT2-Dachy3
  6
CONTINUOUS
 62
     7
 10
56.3866
 20
165.384400000000000
 11
102.6754
 21
165.384099999999990
  0
LINE
  8
PT2-Dachy3
  6
CONTINUOUS
 62
     7
 10
174.8366
 20
114.408700000000010
 11
192.8366
 21
129.173400000000020
  0
LINE
  8
PT2-Dachy3
  6
CONTINUOUS
 62
     7
 10
174.8366
 20
114.408700000000010
 11
174.8366
 21
82.884200000000021
  0
LINE
  8
PT2-Dachy3
  6
CONTINUOUS
 62
     7
 10
174.8366
 20
82.884200000000021
 11
210.8366
 21
82.884200000000021
  0
LINE
  8
PT2-Dachy3
  6
CONTINUOUS
 62
     7
 10
210.8366
 20
82.884200000000021
 11
210.8366
 21
114.408700000000010
  0
LINE
  8
PT2-Dachy3
  6
CONTINUOUS
 62
     7
 10
192.8366
 20
129.173400000000020
 11
210.8366
 21
114.408700000000010
  0
LINE
  8
PT2-Dachy3
  6
CONTINUOUS
 62
     7
 10
192.8366
 20
82.884200000000021
 11
192.8366
 21
129.173400000000020
  0
LINE
  8
PT2-Dachy3
  6
CONTINUOUS
 62
     7
 10
208.7866
 20
335.281799999999980
 11
208.7866
 21
226.384199999999990
  0
LINE
  8
PT2-Dachy3
  6
CONTINUOUS
 62
     7
 10
208.7866
 20
226.384199999999990
 11
175.2366
 21
192.834200000000010
  0
LINE
  8
PT2-Dachy3
  6
CONTINUOUS
 62
     7
 10
291.8866
 20
247.884199999999990
 11
331.8866
 21
247.884199999999990
  0
LINE
  8
PT2-Dachy3
  6
CONTINUOUS
 62
     7
 10
291.8866
 20
247.884199999999990
 11
291.8866
 21
216.036100000000000
  0
LINE
  8
PT2-Dachy3
  6
CONTINUOUS
 62
     7
 10
291.8866
 20
216.036100000000000
 11
311.8866
 21
201.788299999999990
  0
LINE
  8
PT2-Dachy3
  6
CONTINUOUS
 62
     7
 10
311.8866
 20
201.788299999999990
 11
331.8866
 21
216.036200000000010
  0
LINE
  8
PT2-Dachy3
  6
CONTINUOUS
 62
     7
 10
331.8866
 20
247.884199999999990
 11
331.8866
 21
216.036200000000010
  0
LINE
  8
PT2-Dachy3
  6
CONTINUOUS
 62
     7
 10
311.8866
 20
247.884199999999990
 11
311.8866
 21
201.788299999999990
  0
LINE
  8
PT2-Dachy3
  6
CONTINUOUS
 62
     7
 10
335.4982
 20
211.184200000000000
 11
335.4982
 21
203.710299999999990
  0
LINE
  8
PT2-Dachy3
  6
CONTINUOUS
 62
     7
 10
343.2597
 20
211.184200000000000
 11
343.2597
 21
203.710299999999990
  0
LINE
  8
PT2-Dachy3
  6
CONTINUOUS
 62
     7
 10
353.4981
 20
211.184200000000000
 11
353.4981
 21
203.710299999999990
  0
LINE
  8
PT2-Dachy3
  6
CONTINUOUS
 62
     7
 10
361.2597
 20
211.184200000000000
 11
361.2597
 21
203.710299999999990
  0
LINE
  8
PT2-Dachy3
  6
CONTINUOUS
 62
     7
 10
371.4981
 20
211.184200000000000
 11
371.4981
 21
203.710299999999990
  0
LINE
  8
PT2-Dachy3
  6
CONTINUOUS
 62
     7
 10
379.2597
 20
211.184200000000000
 11
379.2597
 21
203.710299999999990
  0
LINE
  8
PT2-Dachy3
  6
GESTRICHELT
 62
     7
 10
335.4982
 20
213.526000000000010
 11
339.379
 21
203.710299999999990
  0
LINE
  8
PT2-Dachy3
  6
GESTRICHELT
 62
     7
 10
339.379
 20
203.710299999999990
 11
343.2597
 21
213.526000000000010
  0
LINE
  8
PT2-Dachy3
  6
GESTRICHELT
 62
     7
 10
353.4981
 20
213.526000000000010
 11
357.3789
 21
203.710299999999990
  0
LINE
  8
PT2-Dachy3
  6
GESTRICHELT
 62
     7
 10
357.3789
 20
203.710299999999990
 11
361.2597
 21
213.526000000000010
  0
LINE
  8
PT2-Dachy3
  6
GESTRICHELT
 62
     7
 10
371.4981
 20
213.526000000000010
 11
375.3789
 21
203.710299999999990
  0
LINE
  8
PT2-Dachy3
  6
GESTRICHELT
 62
     7
 10
375.3789
 20
203.710299999999990
 11
379.2597
 21
213.526000000000010
  0
LINE
  8
PT2-Dachy3
  6
GESTRICHELT
 62
     7
 10
335.4982
 20
225.844900000000000
 11
339.379
 21
216.029200000000000
  0
LINE
  8
PT2-Dachy3
  6
GESTRICHELT
 62
     7
 10
339.379
 20
216.029200000000000
 11
343.2597
 21
225.844900000000000
  0
LINE
  8
PT2-Dachy3
  6
GESTRICHELT
 62
     7
 10
353.4981
 20
225.844900000000000
 11
357.4827
 21
216.029200000000000
  0
LINE
  8
PT2-Dachy3
  6
GESTRICHELT
 62
     7
 10
357.4827
 20
216.029200000000000
 11
361.2597
 21
225.844900000000000
  0
LINE
  8
PT2-Dachy3
  6
GESTRICHELT
 62
     7
 10
371.4981
 20
225.844900000000000
 11
375.3789
 21
216.029200000000000
  0
LINE
  8
PT2-Dachy3
  6
GESTRICHELT
 62
     7
 10
375.3789
 20
216.029200000000000
 11
379.2597
 21
225.844900000000000
  0
LINE
  8
PT2-Dachy3
  6
CONTINUOUS
 62
     7
 10
423.5978
 20
165.384400000000000
 11
438.3621
 21
183.384400000000000
  0
LINE
  8
PT2-Dachy3
  6
CONTINUOUS
 62
     7
 10
438.3621
 20
183.384400000000000
 11
469.8866
 21
183.384400000000000
  0
LINE
  8
PT2-Dachy3
  6
CONTINUOUS
 62
     7
 10
469.8866
 20
183.384400000000000
 11
469.8866
 21
147.384400000000000
  0
LINE
  8
PT2-Dachy3
  6
CONTINUOUS
 62
     7
 10
469.8866
 20
147.384400000000000
 11
438.3621
 21
147.384400000000000
  0
LINE
  8
PT2-Dachy3
  6
CONTINUOUS
 62
     7
 10
423.5978
 20
165.384400000000000
 11
438.3621
 21
147.384400000000000
  0
LINE
  8
PT2-Dachy3
  6
CONTINUOUS
 62
     7
 10
423.5978
 20
165.384400000000000
 11
469.8918
 21
165.384400000000000
  0
LINE
  8
PT2-Dachy3
  6
CONTINUOUS
 62
     7
 10
387.3866
 20
165.384199999999990
 11
398.1349
 21
176.132499999999990
  0
LINE
  8
PT2-Dachy3
  6
CONTINUOUS
 62
     7
 10
387.3866
 20
165.384199999999990
 11
419.0594
 21
133.711400000000030
  0
LINE
  8
PT2-Dachy3
  6
CONTINUOUS
 62
     7
 10
343.2671
 20
114.408700000000010
 11
361.2671
 21
129.173400000000020
  0
LINE
  8
PT2-Dachy3
  6
CONTINUOUS
 62
     7
 10
343.2671
 20
114.408700000000010
 11
343.2671
 21
82.884099999999989
  0
LINE
  8
PT2-Dachy3
  6
CONTINUOUS
 62
     7
 10
379.2671
 20
114.408700000000010
 11
379.2671
 21
82.884099999999989
  0
LINE
  8
PT2-Dachy3
  6
CONTINUOUS
 62
     7
 10
361.2671
 20
129.173400000000020
 11
379.2671
 21
114.408700000000010
  0
LINE
  8
PT2-Dachy3
  6
CONTINUOUS
 62
     7
 10
343.2671
 20
82.884099999999989
 11
379.2671
 21
82.884099999999989
  0
LINE
  8
PT2-Dachy3
  6
CONTINUOUS
 62
     7
 10
361.2671
 20
129.173400000000020
 11
361.2671
 21
82.884099999999989
  0
LINE
  8
PT3-Rzut7
  6
GESTRICHELT
 62
     7
 10
109.1308
 20
374.439599999999980
 11
303.2906
 21
374.439599999999980
  0
POLYLINE
  8
PT1-Tabelka_rysu1
  6
CONTINUOUS
 62
     7
 66
     1
 70
     1
  0
VERTEX
  8
PT1-Tabelka_rysu1
 10
490.7131
 20
6.213500000000011
  0
VERTEX
  8
PT1-Tabelka_rysu1
 10
562.6798
 20
6.213500000000011
  0
VERTEX
  8
PT1-Tabelka_rysu1
 10
562.6798
 20
7.271799999999985
  0
VERTEX
  8
PT1-Tabelka_rysu1
 10
490.7131
 20
7.271799999999985
  0
SEQEND
  8
PT1-Tabelka_rysu1
  0
LINE
  8
PT1-Tabelka_rysu1
  6
CONTINUOUS
 62
     7
 10
489.6548
 20
7.271700000000010
 11
561.6215
 21
7.271700000000010
  0
LINE
  8
PT1-Tabelka_rysu1
  6
CONTINUOUS
 62
     7
 10
490.3603
 20
7.977300000000014
 11
560.9159
 21
7.977300000000014
  0
LINE
  8
PT1-Tabelka_rysu1
  6
CONTINUOUS
 62
     7
 10
560.9159
 20
7.977300000000014
 11
560.9159
 21
53.132900000000006
  0
LINE
  8
PT1-Tabelka_rysu1
  6
CONTINUOUS
 62
     7
 10
560.9159
 20
53.132900000000006
 11
490.3603
 21
53.132900000000006
  0
LINE
  8
PT1-Tabelka_rysu1
  6
CONTINUOUS
 62
     7
 10
490.3603
 20
7.977300000000014
 11
490.3603
 21
53.132900000000006
  0
LINE
  8
PT1-Tabelka_rysu1
  6
CONTINUOUS
 62
     7
 10
490.3603
 20
24.910700000000020
 11
560.9159
 21
24.910700000000020
  0
TEXT
  8
PT1-Tabelka_rysu1
  6
CONTINUOUS
 62
     7
 10
491.065900000000000
 20
22.760300000000029
 40
1.797600000000000
  1
Skala:
  0
TEXT
  8
PT1-Tabelka_rysu1
  6
CONTINUOUS
 62
     7
 10
491.065900000000000
 20
22.760300000000029
 40
1.797600000000000
  1
1 : 100
  0
LINE
  8
PT1-Tabelka_rysu1
  6
CONTINUOUS
 62
     7
 10
513.6437
 20
24.910700000000020
 11
513.6437
 21
21.382900000000006
  0
TEXT
  8
PT1-Tabelka_rysu1
  6
CONTINUOUS
 62
     7
 10
514.349200000000000
 20
22.760300000000029
 40
1.797600000000000
  1
Data:
  0
TEXT
  8
PT1-Tabelka_rysu1
  6
CONTINUOUS
 62
     7
 10
514.349200000000000
 20
22.760300000000029
 40
1.797600000000000
  1
07.2004
  0
LINE
  8
PT1-Tabelka_rysu1
  6
CONTINUOUS
 62
     7
 10
536.927
 20
24.910700000000020
 11
536.927
 21
21.382900000000006
  0
TEXT
  8
PT1-Tabelka_rysu1
  6
CONTINUOUS
 62
     7
 10
537.932199999999970
 20
22.760300000000029
 40
1.797600000000000
  1
11-P-04/A
  0
LINE
  8
PT1-Tabelka_rysu1
  6
CONTINUOUS
 62
     7
 10
490.3603
 20
28.438400000000001
 11
560.9159
 21
28.438400000000001
  0
TEXT
  8
PT1-Tabelka_rysu1
  6
CONTINUOUS
 62
     7
 10
491.065900000000000
 20
26.288099999999986
 40
1.797600000000000
  1
Branża:  architektoniczna
  0
TEXT
  8
PT1-Tabelka_rysu1
  6
CONTINUOUS
 62
     7
 10
491.065900000000000
 20
50.629700000000014
 40
1.797600000000000
  1
Projekt: Rozbudowa Szkoły Podstawowej i Gimnazjum
  0
TEXT
  8
PT1-Tabelka_rysu1
  6
CONTINUOUS
 62
     7
 10
491.065900000000000
 20
47.933300000000031
 40
1.797600000000000
  1
              w Rzerzęczycach
  0
LINE
  8
PT1-Tabelka_rysu1
  6
CONTINUOUS
 62
     7
 10
490.3603
 20
45.019000000000005
 11
560.9159
 21
45.019000000000005
  0
TEXT
  8
PT1-Tabelka_rysu1
  6
CONTINUOUS
 62
     7
 10
491.215700000000030
 20
42.515800000000013
 40
1.797600000000000
  1
Inwestor: Urząd Gminy w Kłomnicach
  0
TEXT
  8
PT1-Tabelka_rysu1
  6
CONTINUOUS
 62
     7
 10
491.215700000000030
 20
39.819399999999973
 40
1.797600000000000
  1
                ul. Strażacka 20, 42-270 Kłomnice
  0
LINE
  8
PT1-Tabelka_rysu1
  6
CONTINUOUS
 62
     7
 10
490.3603
 20
36.905100000000004
 11
560.9159
 21
36.905100000000004
  0
TEXT
  8
PT1-Tabelka_rysu1
  6
CONTINUOUS
 62
     7
 10
491.065900000000000
 20
34.991500000000030
 40
1.797600000000000
  1
Projektował: Beata Król-Stroba UAB-VIII/83861/102/90
  0
TEXT
  8
PT1-Tabelka_rysu1
  6
CONTINUOUS
 62
     7
 10
502.707499999999980
 20
50.629700000000014
 40
1.797600000000000
  1

  0
TEXT
  8
PT1-Tabelka_rysu1
  6
CONTINUOUS
 62
     7
 10
502.707499999999980
 20
38.988100000000031
 40
1.797600000000000
  1
 
  0
LINE
  8
PT1-Tabelka_rysu1
  6
CONTINUOUS
 62
     7
 10
490.3603
 20
21.382900000000006
 11
560.9159
 21
21.382900000000006
  0
TEXT
  8
PT1-Tabelka_rysu1
  6
CONTINUOUS
 62
     7
 10
491.065900000000000
 20
18.526900000000012
 40
1.797600000000000
  1

  0
TEXT
  8
PT1-Tabelka_rysu1
  6
CONTINUOUS
 62
     7
 10
490.989300000000010
 20
32.096600000000024
 40
1.797600000000000
  1
Sprawdził: Witold Dominik   -  Decyzja Nr 65
  0
TEXT
  8
PT1-Tabelka_rysu1
  6
CONTINUOUS
 62
     7
 10
491.073500000000020
 20
29.317100000000039
 40
1.797600000000000
  1
Opracował: Michał Urbańczyk
  0
TEXT
  8
PT1-Tabelka_rysu1
  6
CONTINUOUS
 62
     7
 10
491.117399999999980
 20
19.004099999999994
 40
1.797600000000000
  1
Nazwa rysunku:
  0
TEXT
  8
PT1-Tabelka_rysu1
  6
CONTINUOUS
 62
     7
 10
490.776700000000010
 20
9.767699999999991
 40
2.500000000000000
  1
RZUT DACHU
  0
TEXT
  8
PT1-Tabelka_rysu1
  6
CONTINUOUS
 62
     7
 10
490.740900000000010
 20
14.221600000000024
 40
2.500000000000000
  1
Szkoła
  0
LINE
  8
PT1-Tabelka_rysu1
  6
CONTINUOUS
 62
     7
 10
456.2788
 20
326.525100000000010
 11
456.2788
 21
306.443199999999990
  0
LINE
  8
PT1-Tabelka_rysu1
  6
CONTINUOUS
 62
     7
 10
456.2785
 20
306.443199999999990
 11
481.9302
 21
306.443199999999990
  0
LINE
  8
PT1-Tabelka_rysu1
  6
CONTINUOUS
 62
     7
 10
481.9302
 20
306.443499999999970
 11
481.9302
 21
305.685400000000020
  0
LINE
  8
PT1-Tabelka_rysu1
  6
CONTINUOUS
 62
     7
 10
481.9299
 20
305.685400000000020
 11
486.6285
 21
305.685400000000020
  0
LINE
  8
PT1-Tabelka_rysu1
  6
CONTINUOUS
 62
     7
 10
486.6285
 20
305.685100000000030
 11
486.6285
 21
306.443199999999990
  0
LINE
  8
PT1-Tabelka_rysu1
  6
CONTINUOUS
 62
     7
 10
486.6281
 20
306.443199999999990
 11
507.2406
 21
306.445899999999990
  0
LINE
  8
PT1-Tabelka_rysu1
  6
CONTINUOUS
 62
     7
 10
507.2406
 20
306.446199999999980
 11
507.2406
 21
306.443199999999990
  0
LINE
  8
PT1-Tabelka_rysu1
  6
CONTINUOUS
 62
     7
 10
507.2403
 20
306.443199999999990
 11
507.7458
 21
306.443199999999990
  0
LINE
  8
PT1-Tabelka_rysu1
  6
CONTINUOUS
 62
     7
 10
507.7458
 20
306.442900000000010
 11
507.7458
 21
326.524800000000030
  0
LINE
  8
PT1-Tabelka_rysu1
  6
CONTINUOUS
 62
     7
 10
507.7462
 20
326.524800000000030
 11
485.8329
 21
326.524800000000030
  0
LINE
  8
PT1-Tabelka_rysu1
  6
CONTINUOUS
 62
     7
 10
485.8329
 20
326.525100000000010
 11
485.8329
 21
318.346900000000010
  0
LINE
  8
PT1-Tabelka_rysu1
  6
CONTINUOUS
 62
     7
 10
485.8332
 20
318.346900000000010
 11
482.0692
 21
318.346900000000010
  0
LINE
  8
PT1-Tabelka_rysu1
  6
CONTINUOUS
 62
     7
 10
482.0692
 20
318.347199999999990
 11
482.0692
 21
306.443199999999990
  0
LINE
  8
PT1-Tabelka_rysu1
  6
CONTINUOUS
 62
     7
 10
482.0695
 20
306.443199999999990
 11
482.0439
 21
306.443199999999990
  0
LINE
  8
PT1-Tabelka_rysu1
  6
CONTINUOUS
 62
     7
 10
482.0439
 20
306.442900000000010
 11
482.0439
 21
334.023000000000020
  0
LINE
  8
PT1-Tabelka_rysu1
  6
CONTINUOUS
 62
     7
 10
468.252
 20
340.695800000000020
 11
468.252
 21
326.524800000000030
  0
LINE
  8
PT1-Tabelka_rysu1
  6
CONTINUOUS
 62
     7
 10
468.2523
 20
326.524800000000030
 11
456.2788
 21
326.524800000000030
  0
LINE
  8
PT1-Tabelka_rysu1
  6
CONTINUOUS
 62
     7
 10
459.777
 20
331.084499999999990
 11
459.7773
 21
326.524800000000030
  0
LINE
  8
PT1-Tabelka_rysu1
  6
CONTINUOUS
 62
     7
 10
468.252
 20
331.084200000000010
 11
459.777
 21
331.084200000000010
  0
LINE
  8
PT1-Tabelka_rysu1
  6
CONTINUOUS
 62
     7
 10
473.5084
 20
367.827999999999970
 11
463.9705
 21
342.295200000000020
  0
LINE
  8
PT1-Tabelka_rysu1
  6
CONTINUOUS
 62
     7
 10
463.9702
 20
342.295300000000000
 11
476.3078
 21
337.686500000000020
  0
LINE
  8
PT1-Tabelka_rysu1
  6
CONTINUOUS
 62
     7
 10
482.484
 20
335.379399999999980
 11
491.169
 21
358.620000000000000
  0
LINE
  8
PT1-Tabelka_rysu1
  6
CONTINUOUS
 62
     7
 10
491.169
 20
358.620000000000000
 11
495.4282
 21
357.028599999999980
  0
LINE
  8
PT1-Tabelka_rysu1
  6
CONTINUOUS
 62
     7
 10
495.4281
 20
357.028300000000000
 11
498.4346
 21
365.073600000000000
  0
LINE
  8
PT1-Tabelka_rysu1
  6
CONTINUOUS
 62
     7
 10
498.4349
 20
365.073500000000020
 11
494.0571
 21
366.709200000000010
  0
LINE
  8
PT1-Tabelka_rysu1
  6
CONTINUOUS
 62
     7
 10
494.0572
 20
366.709499999999990
 11
493.5553
 21
365.366400000000000
  0
LINE
  8
PT1-Tabelka_rysu1
  6
CONTINUOUS
 62
     7
 10
493.5553
 20
365.366400000000000
 11
475.1568
 21
372.240700000000000
  0
LINE
  8
PT1-Tabelka_rysu1
  6
CONTINUOUS
 62
     7
 10
475.1568
 20
372.240700000000000
 11
473.5082
 21
367.827699999999990
  0
LINE
  8
PT1-Tabelka_rysu1
  6
CONTINUOUS
 62
     7
 10
473.5084
 20
367.827999999999970
 11
463.9705
 21
342.295200000000020
  0
LINE
  8
PT1-Tabelka_rysu1
  6
CONTINUOUS
 62
     7
 10
463.9702
 20
342.295300000000000
 11
476.3078
 21
337.686500000000020
  0
LINE
  8
PT1-Tabelka_rysu1
  6
CONTINUOUS
 62
     7
 10
473.5084
 20
367.827999999999970
 11
463.9705
 21
342.295200000000020
  0
LINE
  8
PT1-Tabelka_rysu1
  6
CONTINUOUS
 62
     7
 10
463.9702
 20
342.295300000000000
 11
482.484
 21
335.379399999999980
  0
LINE
  8
PT1-Tabelka_rysu1
  6
CONTINUOUS
 62
     7
 10
482.484
 20
335.379399999999980
 11
482.0439
 21
334.023000000000020
  0
POLYLINE
  8
PT1-Tabelka_rysu1
  6
CONTINUOUS
 62
     7
 66
     1
 70
     1
  0
VERTEX
  8
PT1-Tabelka_rysu1
 10
468.252
 20
340.695800000000020
  0
VERTEX
  8
PT1-Tabelka_rysu1
 10
482.484
 20
335.379399999999980
  0
VERTEX
  8
PT1-Tabelka_rysu1
 10
482.0439
 20
334.023000000000020
  0
VERTEX
  8
PT1-Tabelka_rysu1
 10
482.0692
 20
318.346900000000010
  0
VERTEX
  8
PT1-Tabelka_rysu1
 10
485.8332
 20
318.346900000000010
  0
VERTEX
  8
PT1-Tabelka_rysu1
 10
485.8329
 20
326.524800000000030
  0
VERTEX
  8
PT1-Tabelka_rysu1
 10
507.7462
 20
326.524800000000030
  0
VERTEX
  8
PT1-Tabelka_rysu1
 10
507.7458
 20
306.443199999999990
  0
VERTEX
  8
PT1-Tabelka_rysu1
 10
486.6281
 20
306.443199999999990
  0
VERTEX
  8
PT1-Tabelka_rysu1
 10
486.6285
 20
306.064200000000030
  0
VERTEX
  8
PT1-Tabelka_rysu1
 10
481.9302
 20
306.064500000000010
  0
VERTEX
  8
PT1-Tabelka_rysu1
 10
482.0695
 20
306.443199999999990
  0
VERTEX
  8
PT1-Tabelka_rysu1
 10
456.2788
 20
306.443199999999990
  0
VERTEX
  8
PT1-Tabelka_rysu1
 10
456.2788
 20
326.524800000000030
  0
VERTEX
  8
PT1-Tabelka_rysu1
 10
459.7773
 20
326.524800000000030
  0
VERTEX
  8
PT1-Tabelka_rysu1
 10
459.777
 20
331.084200000000010
  0
VERTEX
  8
PT1-Tabelka_rysu1
 10
468.252
 20
331.084200000000010
  0
SEQEND
  8
PT1-Tabelka_rysu1
  0
LINE
  8
PT1-Tabelka_rysu1
  6
CONTINUOUS
 62
     7
 10
468.252
 20
340.695800000000020
 11
482.484
 21
335.379399999999980
  0
LINE
  8
PT2-Symbole_prze6
  6
ENG_PUNKTIERT
 62
     7
 10
307.0223
 20
295.648599999999990
 11
307.0223
 21
61.355399999999975
  0
POLYLINE
  8
PT2-Symbole_prze6
  6
ENG_PUNKTIERT
 62
     7
 66
     1
 70
     1
  0
VERTEX
  8
PT2-Symbole_prze6
 10
309.0223
 20
295.648599999999990
  0
VERTEX
  8
PT2-Symbole_prze6
 10
312.0223
 20
291.898599999999990
  0
VERTEX
  8
PT2-Symbole_prze6
 10
309.0223
 20
288.148599999999990
  0
SEQEND
  8
PT2-Symbole_prze6
  0
POLYLINE
  8
PT2-Symbole_prze6
  6
ENG_PUNKTIERT
 62
     7
 66
     1
 70
     1
  0
VERTEX
  8
PT2-Symbole_prze6
 10
309.0223
 20
61.355399999999975
  0
VERTEX
  8
PT2-Symbole_prze6
 10
312.0223
 20
65.105399999999975
  0
VERTEX
  8
PT2-Symbole_prze6
 10
309.0223
 20
68.855399999999975
  0
SEQEND
  8
PT2-Symbole_prze6
  0
TEXT
  8
PT2-Symbole_prze6
  6
CONTINUOUS
 62
     7
 10
303.651799999999980
 20
60.814700000000016
 40
3.370500000000000
  1
A
  0
TEXT
  8
PT2-Symbole_prze6
  6
CONTINUOUS
 62
     7
 10
303.651799999999980
 20
291.580100000000020
 40
3.370500000000000
  1
A
  0
LINE
  8
PT2-Symbole_prze6
  6
ENG_PUNKTIERT
 62
     7
 10
287.1323
 20
275.988600000000020
 11
41.4023
 21
275.988600000000020
  0
POLYLINE
  8
PT2-Symbole_prze6
  6
ENG_PUNKTIERT
 62
     7
 66
     1
 70
     1
  0
VERTEX
  8
PT2-Symbole_prze6
 10
287.1323
 20
273.988600000000020
  0
VERTEX
  8
PT2-Symbole_prze6
 10
283.3823
 20
270.988600000000020
  0
VERTEX
  8
PT2-Symbole_prze6
 10
279.6323
 20
273.988600000000020
  0
SEQEND
  8
PT2-Symbole_prze6
  0
POLYLINE
  8
PT2-Symbole_prze6
  6
ENG_PUNKTIERT
 62
     7
 66
     1
 70
     1
  0
VERTEX
  8
PT2-Symbole_prze6
 10
41.4023
 20
273.988600000000020
  0
VERTEX
  8
PT2-Symbole_prze6
 10
45.1523
 20
270.988600000000020
  0
VERTEX
  8
PT2-Symbole_prze6
 10
48.9023
 20
273.988600000000020
  0
SEQEND
  8
PT2-Symbole_prze6
  0
TEXT
  8
PT2-Symbole_prze6
  6
CONTINUOUS
 62
     7
 10
45.282800000000002
 20
278.909699999999990
 40
2.921100000000000
 50
180.000000000000000
  1
C
  0
TEXT
  8
PT2-Symbole_prze6
  6
CONTINUOUS
 62
     7
 10
287.132299999999990
 20
278.909699999999990
 40
2.921100000000000
 50
180.000000000000000
  1
C
  0
LINE
  8
PT2-Dachy3
  6
CONTINUOUS
 62
     7
 10
335.4982
 20
203.710299999999990
 11
343.2597
 21
203.710299999999990
  0
LINE
  8
PT2-Dachy3
  6
CONTINUOUS
 62
     7
 10
353.4981
 20
203.710299999999990
 11
361.2597
 21
203.710299999999990
  0
LINE
  8
PT2-Dachy3
  6
CONTINUOUS
 62
     7
 10
371.4981
 20
203.710299999999990
 11
379.2597
 21
203.710299999999990
  0
LINE
  8
PT2-Dachy3
  6
CONTINUOUS
 62
     7
 10
80.5866
 20
251.384300000000000
 11
52.8866
 21
251.384300000000000
  0
LINE
  8
PT2-Dachy3
  6
CONTINUOUS
 62
     7
 10
52.8866
 20
251.384300000000000
 11
52.8866
 21
79.384200000000021
  0
LINE
  8
PT2-Dachy3
  6
CONTINUOUS
 62
     7
 10
56.3866
 20
183.384400000000000
 11
56.3866
 21
184.895500000000000
  0
LINE
  8
PT2-Dachy3
  6
CONTINUOUS
 62
     7
 10
56.3866
 20
184.895500000000000
 11
87.9113
 21
184.895500000000000
  0
LINE
  8
PT2-Dachy3
  6
CONTINUOUS
 62
     7
 10
87.9113
 20
184.895500000000000
 11
87.9113
 21
183.384400000000000
  0
LINE
  8
PT2-Dachy3
  6
CONTINUOUS
 62
     7
 10
56.3866
 20
147.384400000000000
 11
56.3866
 21
145.855799999999990
  0
LINE
  8
PT2-Dachy3
  6
CONTINUOUS
 62
     7
 10
56.3866
 20
145.855799999999990
 11
87.9113
 21
145.855799999999990
  0
LINE
  8
PT2-Dachy3
  6
CONTINUOUS
 62
     7
 10
87.9113
 20
145.855799999999990
 11
87.9113
 21
147.384400000000000
  0
LINE
  8
PT2-Dachy3
  6
CONTINUOUS
 62
     7
 10
80.5866
 20
251.384300000000000
 11
80.5866
 21
287.484199999999990
  0
LINE
  8
PT2-Dachy3
  6
CONTINUOUS
 62
     7
 10
80.5866
 20
287.484199999999990
 11
147.6866
 21
287.484199999999990
  0
LINE
  8
PT2-Dachy3
  6
GESTRICHELT
 62
     7
 10
257.4866
 20
80.884200000000021
 11
262.4863
 21
80.884200000000021
  0
LINE
  8
PT2-Dachy3
  6
GESTRICHELT
 62
     7
 10
299.6608
 20
80.884200000000021
 11
304.6866
 21
80.884200000000021
  0
LINE
  8
PT2-Dachy3
  6
GESTRICHELT
 62
     7
 10
299.6862
 20
79.881700000000023
 11
299.6608
 21
79.384200000000021
  0
LINE
  8
PT2-Dachy3
  6
GESTRICHELT
 62
     7
 10
299.6608
 20
79.384200000000021
 11
304.6526
 21
79.384200000000021
  0
LINE
  8
PT2-Dachy3
  6
GESTRICHELT
 62
     7
 10
262.4837
 20
79.884500000000003
 11
262.4621
 21
79.384200000000021
  0
LINE
  8
PT2-Dachy3
  6
GESTRICHELT
 62
     7
 10
262.4621
 20
79.384200000000021
 11
257.4866
 21
79.384200000000021
  0
LINE
  8
PT2-Dachy3
  6
CONTINUOUS
 62
     7
 10
304.734
 20
79.384200000000021
 11
473.3866
 21
79.384200000000021
  0
LINE
  8
PT2-Dachy3
  6
CONTINUOUS
 62
     7
 10
473.3866
 20
79.413400000000024
 11
473.3866
 21
251.384300000000000
  0
LINE
  8
PT2-Dachy3
  6
CONTINUOUS
 62
     7
 10
473.3778
 20
251.384300000000000
 11
269.8866
 21
251.384300000000000
  0
LINE
  8
PT2-Dachy3
  6
CONTINUOUS
 62
     7
 10
269.8866
 20
251.536000000000000
 11
269.8866
 21
312.441300000000010
  0
LINE
  8
PT2-Dachy3
  6
CONTINUOUS
 62
     7
 10
147.6054
 20
358.152699999999980
 11
147.6866
 21
287.484199999999990
  0
LINE
  8
PT2-Dachy3
  6
CONTINUOUS
 62
     7
 10
53.0262
 20
79.384200000000021
 11
257.4866
 21
79.384200000000021
  0
LINE
  8
PT2-Dachy3
  6
CONTINUOUS
 62
     7
 10
174.8366
 20
114.408700000000010
 11
173.3366
 21
114.408700000000010
  0
LINE
  8
PT2-Dachy3
  6
CONTINUOUS
 62
     7
 10
173.3366
 20
114.408700000000010
 11
173.3366
 21
82.884200000000021
  0
LINE
  8
PT2-Dachy3
  6
CONTINUOUS
 62
     7
 10
173.3366
 20
82.884200000000021
 11
174.8366
 21
82.884200000000021
  0
LINE
  8
PT2-Dachy3
  6
CONTINUOUS
 62
     7
 10
210.8366
 20
114.408700000000010
 11
212.3366
 21
114.408700000000010
  0
LINE
  8
PT2-Dachy3
  6
CONTINUOUS
 62
     7
 10
212.3366
 20
114.408700000000010
 11
212.3366
 21
82.884200000000021
  0
LINE
  8
PT2-Dachy3
  6
CONTINUOUS
 62
     7
 10
212.3366
 20
82.884200000000021
 11
210.8366
 21
82.884200000000021
  0
LINE
  8
PT2-Dachy3
  6
CONTINUOUS
 62
     7
 10
291.8866
 20
247.884199999999990
 11
290.3866
 21
247.884199999999990
  0
LINE
  8
PT2-Dachy3
  6
CONTINUOUS
 62
     7
 10
290.3866
 20
247.884199999999990
 11
290.3639
 21
216.036100000000000
  0
LINE
  8
PT2-Dachy3
  6
GESTRICHELT
 62
     7
 10
290.3639
 20
216.036100000000000
 11
291.9026
 21
216.036100000000000
  0
LINE
  8
PT2-Dachy3
  6
CONTINUOUS
 62
     7
 10
331.8866
 20
247.884199999999990
 11
333.3462
 21
247.884199999999990
  0
LINE
  8
PT2-Dachy3
  6
CONTINUOUS
 62
     7
 10
333.3462
 20
247.884199999999990
 11
333.4488
 21
216.036100000000000
  0
LINE
  8
PT2-Dachy3
  6
CONTINUOUS
 62
     7
 10
333.4488
 20
216.036100000000000
 11
331.9101
 21
216.036100000000000
  0
LINE
  8
PT2-Dachy3
  6
CONTINUOUS
 62
     7
 10
438.3621
 20
183.384400000000000
 11
438.3621
 21
184.895900000000010
  0
LINE
  8
PT2-Dachy3
  6
CONTINUOUS
 62
     7
 10
438.3621
 20
184.895900000000010
 11
469.8866
 21
184.895900000000010
  0
LINE
  8
PT2-Dachy3
  6
CONTINUOUS
 62
     7
 10
469.8866
 20
184.895900000000010
 11
469.8866
 21
183.384400000000000
  0
LINE
  8
PT2-Dachy3
  6
CONTINUOUS
 62
     7
 10
438.3621
 20
147.384400000000000
 11
438.3621
 21
145.884400000000000
  0
LINE
  8
PT2-Dachy3
  6
CONTINUOUS
 62
     7
 10
438.3621
 20
145.884400000000000
 11
469.8866
 21
146.016899999999990
  0
LINE
  8
PT2-Dachy3
  6
CONTINUOUS
 62
     7
 10
469.8866
 20
146.016899999999990
 11
469.8866
 21
147.384400000000000
  0
LINE
  8
PT2-Dachy3
  6
CONTINUOUS
 62
     7
 10
343.2671
 20
114.408700000000010
 11
341.7671
 21
114.408700000000010
  0
LINE
  8
PT2-Dachy3
  6
CONTINUOUS
 62
     7
 10
341.7671
 20
114.408700000000010
 11
341.6443
 21
82.884099999999989
  0
LINE
  8
PT2-Dachy3
  6
CONTINUOUS
 62
     7
 10
341.6443
 20
82.884099999999989
 11
343.2671
 21
82.884099999999989
  0
LINE
  8
PT2-Dachy3
  6
CONTINUOUS
 62
     7
 10
379.2671
 20
114.408700000000010
 11
380.6259
 21
114.408700000000010
  0
LINE
  8
PT2-Dachy3
  6
CONTINUOUS
 62
     7
 10
380.6259
 20
114.408700000000010
 11
380.7285
 21
82.884099999999989
  0
LINE
  8
PT2-Dachy3
  6
CONTINUOUS
 62
     7
 10
380.7285
 20
82.884099999999989
 11
379.2923
 21
82.884099999999989
  0
LINE
  8
PT2-Dachy3
  6
CONTINUOUS
 62
     7
 10
257.4866
 20
112.451500000000010
 11
255.9866
 21
112.451500000000010
  0
LINE
  8
PT2-Dachy3
  6
CONTINUOUS
 62
     7
 10
255.9866
 20
112.451500000000010
 11
255.9866
 21
74.884500000000003
  0
LINE
  8
PT2-Dachy3
  6
CONTINUOUS
 62
     7
 10
255.9866
 20
74.884500000000003
 11
257.4866
 21
74.884500000000003
  0
LINE
  8
PT2-Dachy3
  6
CONTINUOUS
 62
     7
 10
304.6866
 20
112.451500000000010
 11
306.1866
 21
112.451500000000010
  0
LINE
  8
PT2-Dachy3
  6
CONTINUOUS
 62
     7
 10
306.1866
 20
112.451500000000010
 11
306.1866
 21
74.884500000000003
  0
LINE
  8
PT2-Dachy3
  6
CONTINUOUS
 62
     7
 10
306.1866
 20
74.884500000000003
 11
304.6866
 21
74.884500000000003
  0
LINE
  8
PT2-Rzut2
  6
GESTRICHELT
 62
     7
 10
59.3866
 20
150.384400000000000
 11
70.3868
 21
150.384400000000000
  0
LINE
  8
PT2-Rzut2
  6
GESTRICHELT
 62
     7
 10
76.7871
 20
150.384400000000000
 11
90.392
 21
150.384400000000000
  0
LINE
  8
PT2-Rzut2
  6
GESTRICHELT
 62
     7
 10
263.6888
 20
118.589800000000030
 11
263.6871
 21
92.072099999999978
  0
LINE
  8
PT2-Rzut2
  6
GESTRICHELT
 62
     7
 10
298.4837
 20
117.849100000000020
 11
298.4856
 21
89.891099999999994
  0
LINE
  8
PT2-Rzut2
  6
GESTRICHELT
 62
     7
 10
298.4856
 20
89.891099999999994
 11
295.6851
 21
89.897400000000005
  0
LINE
  8
PT2-Rzut2
  6
GESTRICHELT
 62
     7
 10
263.6871
 20
92.072099999999978
 11
266.487
 21
92.061500000000024
  0
LINE
  8
PT3-Rzut7
  6
GESTRICHELT
 62
     7
 10
126.8284
 20
374.415399999999980
 11
125.434
 21
370.682700000000010
  0
LINE
  8
PT3-Rzut7
  6
GESTRICHELT
 62
     7
 10
125.434
 20
370.682700000000010
 11
146.1866
 21
363.116199999999990
  0
LINE
  8
PT4-Dachy10
  6
GESTRICHELT
 62
     7
 10
285.3527
 20
374.439599999999980
 11
264.5693
 21
319.135200000000000
  0
TEXT
  8
PT2-Wymiarowanie5
  6
CONTINUOUS
 62
     7
 10
33.446599999999997
 20
163.068500000000000
 40
2.000000000000000
 50
90.000000000000000
  1
16,9
  0
LINE
  8
PT2-Wymiarowanie5
  6
CONTINUOUS
 62
     7
 10
34.9996
 20
80.884200000000021
 11
34.9996
 21
249.884300000000000
  0
LINE
  8
PT2-Wymiarowanie5
  6
CONTINUOUS
 62
     7
 10
34.9996
 20
79.884200000000021
 11
34.9996
 21
80.884200000000021
  0
LINE
  8
PT2-Wymiarowanie5
  6
CONTINUOUS
 62
     7
 10
34.9996
 20
250.884300000000000
 11
34.9996
 21
249.884300000000000
  0
LINE
  8
PT2-Wymiarowanie5
  6
CONTINUOUS
 62
     7
 10
34.4997
 20
81.384099999999989
 11
35.4995
 21
80.384299999999996
  0
LINE
  8
PT2-Wymiarowanie5
  6
CONTINUOUS
 62
     7
 10
34.4997
 20
250.384199999999990
 11
35.4995
 21
249.384400000000000
  0
LINE
  8
PT2-Wymiarowanie5
  6
CONTINUOUS
 62
     7
 10
33.9996
 20
80.884200000000021
 11
35.9996
 21
80.884200000000021
  0
LINE
  8
PT2-Wymiarowanie5
  6
CONTINUOUS
 62
     7
 10
33.9996
 20
249.884300000000000
 11
35.9996
 21
249.884300000000000
  0
TEXT
  8
PT2-Wymiarowanie5
  6
CONTINUOUS
 62
     7
 10
33.446599999999997
 20
265.618400000000010
 40
2.000000000000000
 50
90.000000000000000
  1
3,61
  0
LINE
  8
PT2-Wymiarowanie5
  6
CONTINUOUS
 62
     7
 10
34.9996
 20
249.884300000000000
 11
34.9996
 21
285.984199999999990
  0
LINE
  8
PT2-Wymiarowanie5
  6
CONTINUOUS
 62
     7
 10
34.9996
 20
248.884300000000000
 11
34.9996
 21
249.884300000000000
  0
LINE
  8
PT2-Wymiarowanie5
  6
CONTINUOUS
 62
     7
 10
34.9996
 20
286.984199999999990
 11
34.9996
 21
285.984199999999990
  0
LINE
  8
PT2-Wymiarowanie5
  6
CONTINUOUS
 62
     7
 10
34.4997
 20
250.384199999999990
 11
35.4995
 21
249.384400000000000
  0
LINE
  8
PT2-Wymiarowanie5
  6
CONTINUOUS
 62
     7
 10
34.4997
 20
286.484100000000010
 11
35.4995
 21
285.484300000000020
  0
LINE
  8
PT2-Wymiarowanie5
  6
CONTINUOUS
 62
     7
 10
33.9996
 20
249.884300000000000
 11
35.9996
 21
249.884300000000000
  0
LINE
  8
PT2-Wymiarowanie5
  6
CONTINUOUS
 62
     7
 10
33.9996
 20
285.984199999999990
 11
35.9996
 21
285.984199999999990
  0
TEXT
  8
PT2-Wymiarowanie5
  6
CONTINUOUS
 62
     7
 10
33.446599999999997
 20
324.711500000000000
 40
2.000000000000000
 50
90.000000000000000
  1
8,21
  0
LINE
  8
PT2-Wymiarowanie5
  6
CONTINUOUS
 62
     7
 10
34.9996
 20
285.984199999999990
 11
34.9996
 21
368.070299999999970
  0
LINE
  8
PT2-Wymiarowanie5
  6
CONTINUOUS
 62
     7
 10
34.9996
 20
284.984199999999990
 11
34.9996
 21
285.984199999999990
  0
LINE
  8
PT2-Wymiarowanie5
  6
CONTINUOUS
 62
     7
 10
34.9996
 20
369.070299999999970
 11
34.9996
 21
368.070299999999970
  0
LINE
  8
PT2-Wymiarowanie5
  6
CONTINUOUS
 62
     7
 10
34.4997
 20
286.484100000000010
 11
35.4995
 21
285.484300000000020
  0
LINE
  8
PT2-Wymiarowanie5
  6
CONTINUOUS
 62
     7
 10
34.4997
 20
368.570299999999970
 11
35.4995
 21
367.570400000000010
  0
LINE
  8
PT2-Wymiarowanie5
  6
CONTINUOUS
 62
     7
 10
33.9996
 20
285.984199999999990
 11
35.9996
 21
285.984199999999990
  0
LINE
  8
PT2-Wymiarowanie5
  6
CONTINUOUS
 62
     7
 10
33.9996
 20
368.070299999999970
 11
35.9996
 21
368.070299999999970
  0
TEXT
  8
PT2-Wymiarowanie5
  6
CONTINUOUS
 62
     7
 10
39.302000000000000
 20
111.818499999999970
 40
2.000000000000000
 50
90.000000000000000
  1
6,65
  0
LINE
  8
PT2-Wymiarowanie5
  6
CONTINUOUS
 62
     7
 10
40.855
 20
80.884200000000021
 11
40.855
 21
147.384400000000000
  0
LINE
  8
PT2-Wymiarowanie5
  6
CONTINUOUS
 62
     7
 10
40.855
 20
79.884200000000021
 11
40.855
 21
80.884200000000021
  0
LINE
  8
PT2-Wymiarowanie5
  6
CONTINUOUS
 62
     7
 10
40.855
 20
148.384400000000000
 11
40.855
 21
147.384400000000000
  0
LINE
  8
PT2-Wymiarowanie5
  6
CONTINUOUS
 62
     7
 10
40.3551
 20
81.384099999999989
 11
41.3549
 21
80.384299999999996
  0
LINE
  8
PT2-Wymiarowanie5
  6
CONTINUOUS
 62
     7
 10
40.3551
 20
147.884300000000000
 11
41.3549
 21
146.884500000000000
  0
LINE
  8
PT2-Wymiarowanie5
  6
CONTINUOUS
 62
     7
 10
39.855
 20
80.884200000000021
 11
41.855
 21
80.884200000000021
  0
LINE
  8
PT2-Wymiarowanie5
  6
CONTINUOUS
 62
     7
 10
39.855
 20
147.384400000000000
 11
41.855
 21
147.384400000000000
  0
TEXT
  8
PT2-Wymiarowanie5
  6
CONTINUOUS
 62
     7
 10
39.302000000000000
 20
154.068600000000000
 40
2.000000000000000
 50
90.000000000000000
  1
1,80
  0
LINE
  8
PT2-Wymiarowanie5
  6
CONTINUOUS
 62
     7
 10
40.855
 20
147.384400000000000
 11
40.855
 21
165.384400000000000
  0
LINE
  8
PT2-Wymiarowanie5
  6
CONTINUOUS
 62
     7
 10
40.855
 20
146.384400000000000
 11
40.855
 21
147.384400000000000
  0
LINE
  8
PT2-Wymiarowanie5
  6
CONTINUOUS
 62
     7
 10
40.855
 20
166.384400000000000
 11
40.855
 21
165.384400000000000
  0
LINE
  8
PT2-Wymiarowanie5
  6
CONTINUOUS
 62
     7
 10
40.3551
 20
147.884300000000000
 11
41.3549
 21
146.884500000000000
  0
LINE
  8
PT2-Wymiarowanie5
  6
CONTINUOUS
 62
     7
 10
40.3551
 20
165.884300000000000
 11
41.3549
 21
164.884400000000000
  0
LINE
  8
PT2-Wymiarowanie5
  6
CONTINUOUS
 62
     7
 10
39.855
 20
147.384400000000000
 11
41.855
 21
147.384400000000000
  0
LINE
  8
PT2-Wymiarowanie5
  6
CONTINUOUS
 62
     7
 10
39.855
 20
165.384400000000000
 11
41.855
 21
165.384400000000000
  0
TEXT
  8
PT2-Wymiarowanie5
  6
CONTINUOUS
 62
     7
 10
39.302000000000000
 20
172.068600000000000
 40
2.000000000000000
 50
90.000000000000000
  1
1,80
  0
LINE
  8
PT2-Wymiarowanie5
  6
CONTINUOUS
 62
     7
 10
40.855
 20
165.384400000000000
 11
40.855
 21
183.384400000000000
  0
LINE
  8
PT2-Wymiarowanie5
  6
CONTINUOUS
 62
     7
 10
40.855
 20
164.384400000000000
 11
40.855
 21
165.384400000000000
  0
LINE
  8
PT2-Wymiarowanie5
  6
CONTINUOUS
 62
     7
 10
40.855
 20
184.384400000000000
 11
40.855
 21
183.384400000000000
  0
LINE
  8
PT2-Wymiarowanie5
  6
CONTINUOUS
 62
     7
 10
40.3551
 20
165.884300000000000
 11
41.3549
 21
164.884400000000000
  0
LINE
  8
PT2-Wymiarowanie5
  6
CONTINUOUS
 62
     7
 10
40.3551
 20
183.884300000000000
 11
41.3549
 21
182.884500000000000
  0
LINE
  8
PT2-Wymiarowanie5
  6
CONTINUOUS
 62
     7
 10
39.855
 20
165.384400000000000
 11
41.855
 21
165.384400000000000
  0
LINE
  8
PT2-Wymiarowanie5
  6
CONTINUOUS
 62
     7
 10
39.855
 20
183.384400000000000
 11
41.855
 21
183.384400000000000
  0
TEXT
  8
PT2-Wymiarowanie5
  6
CONTINUOUS
 62
     7
 10
39.302000000000000
 20
214.318600000000000
 40
2.000000000000000
 50
90.000000000000000
  1
6,65
  0
LINE
  8
PT2-Wymiarowanie5
  6
CONTINUOUS
 62
     7
 10
40.855
 20
183.384400000000000
 11
40.855
 21
249.884300000000000
  0
LINE
  8
PT2-Wymiarowanie5
  6
CONTINUOUS
 62
     7
 10
40.855
 20
182.384400000000000
 11
40.855
 21
183.384400000000000
  0
LINE
  8
PT2-Wymiarowanie5
  6
CONTINUOUS
 62
     7
 10
40.855
 20
250.884300000000000
 11
40.855
 21
249.884300000000000
  0
LINE
  8
PT2-Wymiarowanie5
  6
CONTINUOUS
 62
     7
 10
40.3551
 20
183.884300000000000
 11
41.3549
 21
182.884500000000000
  0
LINE
  8
PT2-Wymiarowanie5
  6
CONTINUOUS
 62
     7
 10
40.3551
 20
250.384199999999990
 11
41.3549
 21
249.384400000000000
  0
LINE
  8
PT2-Wymiarowanie5
  6
CONTINUOUS
 62
     7
 10
39.855
 20
183.384400000000000
 11
41.855
 21
183.384400000000000
  0
LINE
  8
PT2-Wymiarowanie5
  6
CONTINUOUS
 62
     7
 10
39.855
 20
249.884300000000000
 11
41.855
 21
249.884300000000000
  0
LINE
  8
PT2-Wymiarowanie5
  6
CONTINUOUS
 62
     7
 10
72.3784
 20
180.384400000000000
 11
72.3784
 21
183.384400000000000
  0
LINE
  8
PT2-Wymiarowanie5
  6
CONTINUOUS
 62
     7
 10
72.3784
 20
179.384400000000000
 11
72.3784
 21
180.384400000000000
  0
LINE
  8
PT2-Wymiarowanie5
  6
CONTINUOUS
 62
     7
 10
72.3784
 20
184.384400000000000
 11
72.3784
 21
183.384400000000000
  0
LINE
  8
PT2-Wymiarowanie5
  6
CONTINUOUS
 62
     7
 10
71.8785
 20
180.884300000000000
 11
72.8783
 21
179.884500000000000
  0
LINE
  8
PT2-Wymiarowanie5
  6
CONTINUOUS
 62
     7
 10
71.8785
 20
183.884300000000000
 11
72.8783
 21
182.884500000000000
  0
LINE
  8
PT2-Wymiarowanie5
  6
CONTINUOUS
 62
     7
 10
73.3784
 20
180.384400000000000
 11
71.3784
 21
180.384400000000000
  0
LINE
  8
PT2-Wymiarowanie5
  6
CONTINUOUS
 62
     7
 10
73.3784
 20
183.384400000000000
 11
71.3784
 21
183.384400000000000
  0
TEXT
  8
PT2-Wymiarowanie5
  6
CONTINUOUS
 62
     7
 10
71.093299999999999
 20
180.472800000000010
 40
2.000000000000000
 50
90.000000000000000
  1
30
  0
LINE
  8
PT2-Wymiarowanie5
  6
CONTINUOUS
 62
     7
 10
72.5869
 20
150.384400000000000
 11
72.5869
 21
147.384400000000000
  0
LINE
  8
PT2-Wymiarowanie5
  6
CONTINUOUS
 62
     7
 10
72.5869
 20
151.384400000000000
 11
72.5869
 21
150.384400000000000
  0
LINE
  8
PT2-Wymiarowanie5
  6
CONTINUOUS
 62
     7
 10
72.5869
 20
146.384400000000000
 11
72.5869
 21
147.384400000000000
  0
LINE
  8
PT2-Wymiarowanie5
  6
CONTINUOUS
 62
     7
 10
73.0869
 20
149.884500000000000
 11
72.087
 21
150.884300000000000
  0
LINE
  8
PT2-Wymiarowanie5
  6
CONTINUOUS
 62
     7
 10
73.0869
 20
146.884500000000000
 11
72.087
 21
147.884300000000000
  0
LINE
  8
PT2-Wymiarowanie5
  6
CONTINUOUS
 62
     7
 10
71.5869
 20
150.384400000000000
 11
73.5869
 21
150.384400000000000
  0
LINE
  8
PT2-Wymiarowanie5
  6
CONTINUOUS
 62
     7
 10
71.5869
 20
147.384400000000000
 11
73.5869
 21
147.384400000000000
  0
TEXT
  8
PT2-Wymiarowanie5
  6
CONTINUOUS
 62
     7
 10
71.084599999999995
 20
144.630699999999990
 40
2.000000000000000
 50
450.000000000000000
  1
30
  0
LINE
  8
PT2-Wymiarowanie5
  6
CONTINUOUS
 62
     7
 10
56.3866
 20
157.858499999999990
 11
59.3866
 21
157.858499999999990
  0
LINE
  8
PT2-Wymiarowanie5
  6
CONTINUOUS
 62
     7
 10
55.3866
 20
157.858499999999990
 11
56.3866
 21
157.858499999999990
  0
LINE
  8
PT2-Wymiarowanie5
  6
CONTINUOUS
 62
     7
 10
60.3866
 20
157.858499999999990
 11
59.3866
 21
157.858499999999990
  0
LINE
  8
PT2-Wymiarowanie5
  6
CONTINUOUS
 62
     7
 10
56.8866
 20
158.358399999999990
 11
55.8867
 21
157.358499999999990
  0
LINE
  8
PT2-Wymiarowanie5
  6
CONTINUOUS
 62
     7
 10
59.8866
 20
158.358399999999990
 11
58.8867
 21
157.358499999999990
  0
LINE
  8
PT2-Wymiarowanie5
  6
CONTINUOUS
 62
     7
 10
56.3866
 20
156.858499999999990
 11
56.3866
 21
158.858499999999990
  0
LINE
  8
PT2-Wymiarowanie5
  6
CONTINUOUS
 62
     7
 10
59.3866
 20
156.858499999999990
 11
59.3866
 21
158.858499999999990
  0
TEXT
  8
PT2-Wymiarowanie5
  6
CONTINUOUS
 62
     7
 10
56.181800000000003
 20
158.885600000000010
 40
2.000000000000000
  1
30
  0
LINE
  8
PT2-Wymiarowanie5
  6
CONTINUOUS
 62
     7
 10
54.3866
 20
130.433200000000000
 11
59.3866
 21
130.433200000000000
  0
LINE
  8
PT2-Wymiarowanie5
  6
CONTINUOUS
 62
     7
 10
53.3866
 20
130.433200000000000
 11
54.3866
 21
130.433200000000000
  0
LINE
  8
PT2-Wymiarowanie5
  6
CONTINUOUS
 62
     7
 10
60.3866
 20
130.433200000000000
 11
59.3866
 21
130.433200000000000
  0
LINE
  8
PT2-Wymiarowanie5
  6
CONTINUOUS
 62
     7
 10
54.8866
 20
130.933100000000020
 11
53.8867
 21
129.933299999999970
  0
LINE
  8
PT2-Wymiarowanie5
  6
CONTINUOUS
 62
     7
 10
59.8866
 20
130.933100000000020
 11
58.8867
 21
129.933299999999970
  0
LINE
  8
PT2-Wymiarowanie5
  6
CONTINUOUS
 62
     7
 10
54.3866
 20
129.433200000000000
 11
54.3866
 21
131.433200000000000
  0
LINE
  8
PT2-Wymiarowanie5
  6
CONTINUOUS
 62
     7
 10
59.3866
 20
129.433200000000000
 11
59.3866
 21
131.433200000000000
  0
TEXT
  8
PT2-Wymiarowanie5
  6
CONTINUOUS
 62
     7
 10
55.481600000000000
 20
131.927100000000000
 40
2.000000000000000
  1
50
  0
TEXT
  8
PT2-Wymiarowanie5
  6
CONTINUOUS
 62
     7
 10
26.764199999999999
 20
220.943800000000010
 40
2.000000000000000
 50
90.000000000000000
  1
28,63
  0
LINE
  8
PT2-Wymiarowanie5
  6
CONTINUOUS
 62
     7
 10
28.3172
 20
80.884200000000021
 11
28.3172
 21
367.194900000000020
  0
LINE
  8
PT2-Wymiarowanie5
  6
CONTINUOUS
 62
     7
 10
28.3172
 20
79.884200000000021
 11
28.3172
 21
80.884200000000021
  0
LINE
  8
PT2-Wymiarowanie5
  6
CONTINUOUS
 62
     7
 10
28.3172
 20
368.194900000000020
 11
28.3172
 21
367.194900000000020
  0
LINE
  8
PT2-Wymiarowanie5
  6
CONTINUOUS
 62
     7
 10
27.8173
 20
81.384099999999989
 11
28.8171
 21
80.384299999999996
  0
LINE
  8
PT2-Wymiarowanie5
  6
CONTINUOUS
 62
     7
 10
27.8173
 20
367.694799999999990
 11
28.8171
 21
366.694999999999990
  0
LINE
  8
PT2-Wymiarowanie5
  6
CONTINUOUS
 62
     7
 10
27.3172
 20
80.884200000000021
 11
29.3172
 21
80.884200000000021
  0
LINE
  8
PT2-Wymiarowanie5
  6
CONTINUOUS
 62
     7
 10
27.3172
 20
367.194900000000020
 11
29.3172
 21
367.194900000000020
  0
TEXT
  8
PT2-Wymiarowanie5
  6
CONTINUOUS
 62
     7
 10
111.101600000000000
 20
58.836200000000019
 40
2.000000000000000
  1
12,04
  0
TEXT
  8
PT2-Wymiarowanie5
  6
CONTINUOUS
 62
     7
 10
119.174600000000000
 20
59.565200000000004
 40
1.500000000000000
  1
5
  0
LINE
  8
PT2-Wymiarowanie5
  6
CONTINUOUS
 62
     7
 10
54.3866
 20
57.382200000000012
 11
174.8366
 21
57.382200000000012
  0
LINE
  8
PT2-Wymiarowanie5
  6
CONTINUOUS
 62
     7
 10
53.3866
 20
57.382200000000012
 11
54.3866
 21
57.382200000000012
  0
LINE
  8
PT2-Wymiarowanie5
  6
CONTINUOUS
 62
     7
 10
175.8366
 20
57.382200000000012
 11
174.8366
 21
57.382200000000012
  0
LINE
  8
PT2-Wymiarowanie5
  6
CONTINUOUS
 62
     7
 10
54.8866
 20
57.882099999999980
 11
53.8867
 21
56.882299999999987
  0
LINE
  8
PT2-Wymiarowanie5
  6
CONTINUOUS
 62
     7
 10
175.3366
 20
57.882099999999980
 11
174.3367
 21
56.882299999999987
  0
LINE
  8
PT2-Wymiarowanie5
  6
CONTINUOUS
 62
     7
 10
54.3866
 20
56.382200000000012
 11
54.3866
 21
58.382200000000012
  0
LINE
  8
PT2-Wymiarowanie5
  6
CONTINUOUS
 62
     7
 10
174.8366
 20
56.382200000000012
 11
174.8366
 21
58.382200000000012
  0
TEXT
  8
PT2-Wymiarowanie5
  6
CONTINUOUS
 62
     7
 10
181.106699999999990
 20
58.836200000000019
 40
2.000000000000000
  1
1,80
  0
LINE
  8
PT2-Wymiarowanie5
  6
CONTINUOUS
 62
     7
 10
174.8367
 20
57.382200000000012
 11
192.8367
 21
57.382200000000012
  0
LINE
  8
PT2-Wymiarowanie5
  6
CONTINUOUS
 62
     7
 10
173.8367
 20
57.382200000000012
 11
174.8367
 21
57.382200000000012
  0
LINE
  8
PT2-Wymiarowanie5
  6
CONTINUOUS
 62
     7
 10
193.8367
 20
57.382200000000012
 11
192.8367
 21
57.382200000000012
  0
LINE
  8
PT2-Wymiarowanie5
  6
CONTINUOUS
 62
     7
 10
175.3366
 20
57.882099999999980
 11
174.3367
 21
56.882299999999987
  0
LINE
  8
PT2-Wymiarowanie5
  6
CONTINUOUS
 62
     7
 10
193.3366
 20
57.882099999999980
 11
192.3367
 21
56.882299999999987
  0
LINE
  8
PT2-Wymiarowanie5
  6
CONTINUOUS
 62
     7
 10
174.8367
 20
56.382200000000012
 11
174.8367
 21
58.382200000000012
  0
LINE
  8
PT2-Wymiarowanie5
  6
CONTINUOUS
 62
     7
 10
192.8367
 20
56.382200000000012
 11
192.8367
 21
58.382200000000012
  0
TEXT
  8
PT2-Wymiarowanie5
  6
CONTINUOUS
 62
     7
 10
199.106699999999990
 20
58.836200000000019
 40
2.000000000000000
  1
1,80
  0
LINE
  8
PT2-Wymiarowanie5
  6
CONTINUOUS
 62
     7
 10
192.8367
 20
57.382200000000012
 11
210.8367
 21
57.382200000000012
  0
LINE
  8
PT2-Wymiarowanie5
  6
CONTINUOUS
 62
     7
 10
191.8367
 20
57.382200000000012
 11
192.8367
 21
57.382200000000012
  0
LINE
  8
PT2-Wymiarowanie5
  6
CONTINUOUS
 62
     7
 10
211.8367
 20
57.382200000000012
 11
210.8367
 21
57.382200000000012
  0
LINE
  8
PT2-Wymiarowanie5
  6
CONTINUOUS
 62
     7
 10
193.3366
 20
57.882099999999980
 11
192.3367
 21
56.882299999999987
  0
LINE
  8
PT2-Wymiarowanie5
  6
CONTINUOUS
 62
     7
 10
211.3366
 20
57.882099999999980
 11
210.3367
 21
56.882299999999987
  0
LINE
  8
PT2-Wymiarowanie5
  6
CONTINUOUS
 62
     7
 10
192.8367
 20
56.382200000000012
 11
192.8367
 21
58.382200000000012
  0
LINE
  8
PT2-Wymiarowanie5
  6
CONTINUOUS
 62
     7
 10
210.8367
 20
56.382200000000012
 11
210.8367
 21
58.382200000000012
  0
TEXT
  8
PT2-Wymiarowanie5
  6
CONTINUOUS
 62
     7
 10
231.431700000000010
 20
58.836200000000019
 40
2.000000000000000
  1
4,66
  0
TEXT
  8
PT2-Wymiarowanie5
  6
CONTINUOUS
 62
     7
 10
237.710700000000000
 20
59.565200000000004
 40
1.500000000000000
  1
5
  0
LINE
  8
PT2-Wymiarowanie5
  6
CONTINUOUS
 62
     7
 10
210.8367
 20
57.382200000000012
 11
257.4867
 21
57.382200000000012
  0
LINE
  8
PT2-Wymiarowanie5
  6
CONTINUOUS
 62
     7
 10
209.8367
 20
57.382200000000012
 11
210.8367
 21
57.382200000000012
  0
LINE
  8
PT2-Wymiarowanie5
  6
CONTINUOUS
 62
     7
 10
258.4867
 20
57.382200000000012
 11
257.4867
 21
57.382200000000012
  0
LINE
  8
PT2-Wymiarowanie5
  6
CONTINUOUS
 62
     7
 10
211.3366
 20
57.882099999999980
 11
210.3367
 21
56.882299999999987
  0
LINE
  8
PT2-Wymiarowanie5
  6
CONTINUOUS
 62
     7
 10
257.9866
 20
57.882099999999980
 11
256.9867
 21
56.882299999999987
  0
LINE
  8
PT2-Wymiarowanie5
  6
CONTINUOUS
 62
     7
 10
210.8367
 20
56.382200000000012
 11
210.8367
 21
58.382200000000012
  0
LINE
  8
PT2-Wymiarowanie5
  6
CONTINUOUS
 62
     7
 10
257.4867
 20
56.382200000000012
 11
257.4867
 21
58.382200000000012
  0
TEXT
  8
PT2-Wymiarowanie5
  6
CONTINUOUS
 62
     7
 10
266.556699999999980
 20
58.836200000000019
 40
2.000000000000000
  1
2,36
  0
LINE
  8
PT2-Wymiarowanie5
  6
CONTINUOUS
 62
     7
 10
257.4867
 20
57.382200000000012
 11
281.0867
 21
57.382200000000012
  0
LINE
  8
PT2-Wymiarowanie5
  6
CONTINUOUS
 62
     7
 10
256.4867
 20
57.382200000000012
 11
257.4867
 21
57.382200000000012
  0
LINE
  8
PT2-Wymiarowanie5
  6
CONTINUOUS
 62
     7
 10
282.0867
 20
57.382200000000012
 11
281.0867
 21
57.382200000000012
  0
LINE
  8
PT2-Wymiarowanie5
  6
CONTINUOUS
 62
     7
 10
257.9866
 20
57.882099999999980
 11
256.9867
 21
56.882299999999987
  0
LINE
  8
PT2-Wymiarowanie5
  6
CONTINUOUS
 62
     7
 10
281.5866
 20
57.882099999999980
 11
280.5867
 21
56.882299999999987
  0
LINE
  8
PT2-Wymiarowanie5
  6
CONTINUOUS
 62
     7
 10
257.4867
 20
56.382200000000012
 11
257.4867
 21
58.382200000000012
  0
LINE
  8
PT2-Wymiarowanie5
  6
CONTINUOUS
 62
     7
 10
281.0867
 20
56.382200000000012
 11
281.0867
 21
58.382200000000012
  0
TEXT
  8
PT2-Wymiarowanie5
  6
CONTINUOUS
 62
     7
 10
290.156700000000000
 20
58.836200000000019
 40
2.000000000000000
  1
2,36
  0
LINE
  8
PT2-Wymiarowanie5
  6
CONTINUOUS
 62
     7
 10
281.0867
 20
57.382200000000012
 11
304.6867
 21
57.382200000000012
  0
LINE
  8
PT2-Wymiarowanie5
  6
CONTINUOUS
 62
     7
 10
280.0867
 20
57.382200000000012
 11
281.0867
 21
57.382200000000012
  0
LINE
  8
PT2-Wymiarowanie5
  6
CONTINUOUS
 62
     7
 10
305.6867
 20
57.382200000000012
 11
304.6867
 21
57.382200000000012
  0
LINE
  8
PT2-Wymiarowanie5
  6
CONTINUOUS
 62
     7
 10
281.5866
 20
57.882099999999980
 11
280.5867
 21
56.882299999999987
  0
LINE
  8
PT2-Wymiarowanie5
  6
CONTINUOUS
 62
     7
 10
305.1866
 20
57.882099999999980
 11
304.1867
 21
56.882299999999987
  0
LINE
  8
PT2-Wymiarowanie5
  6
CONTINUOUS
 62
     7
 10
281.0867
 20
56.382200000000012
 11
281.0867
 21
58.382200000000012
  0
LINE
  8
PT2-Wymiarowanie5
  6
CONTINUOUS
 62
     7
 10
304.6867
 20
56.382200000000012
 11
304.6867
 21
58.382200000000012
  0
TEXT
  8
PT2-Wymiarowanie5
  6
CONTINUOUS
 62
     7
 10
321.246899999999980
 20
58.836200000000019
 40
2.000000000000000
  1
3,86
  0
LINE
  8
PT2-Wymiarowanie5
  6
CONTINUOUS
 62
     7
 10
304.6867
 20
57.382200000000012
 11
343.2672
 21
57.382200000000012
  0
LINE
  8
PT2-Wymiarowanie5
  6
CONTINUOUS
 62
     7
 10
303.6867
 20
57.382200000000012
 11
304.6867
 21
57.382200000000012
  0
LINE
  8
PT2-Wymiarowanie5
  6
CONTINUOUS
 62
     7
 10
344.2672
 20
57.382200000000012
 11
343.2672
 21
57.382200000000012
  0
LINE
  8
PT2-Wymiarowanie5
  6
CONTINUOUS
 62
     7
 10
305.1866
 20
57.882099999999980
 11
304.1867
 21
56.882299999999987
  0
LINE
  8
PT2-Wymiarowanie5
  6
CONTINUOUS
 62
     7
 10
343.7671
 20
57.882099999999980
 11
342.7672
 21
56.882299999999987
  0
LINE
  8
PT2-Wymiarowanie5
  6
CONTINUOUS
 62
     7
 10
304.6867
 20
56.382200000000012
 11
304.6867
 21
58.382200000000012
  0
LINE
  8
PT2-Wymiarowanie5
  6
CONTINUOUS
 62
     7
 10
343.2672
 20
56.382200000000012
 11
343.2672
 21
58.382200000000012
  0
TEXT
  8
PT2-Wymiarowanie5
  6
CONTINUOUS
 62
     7
 10
349.537199999999980
 20
58.836200000000019
 40
2.000000000000000
  1
1,80
  0
LINE
  8
PT2-Wymiarowanie5
  6
CONTINUOUS
 62
     7
 10
343.2672
 20
57.382200000000012
 11
361.2671
 21
57.382200000000012
  0
LINE
  8
PT2-Wymiarowanie5
  6
CONTINUOUS
 62
     7
 10
342.2672
 20
57.382200000000012
 11
343.2672
 21
57.382200000000012
  0
LINE
  8
PT2-Wymiarowanie5
  6
CONTINUOUS
 62
     7
 10
362.2671
 20
57.382200000000012
 11
361.2671
 21
57.382200000000012
  0
LINE
  8
PT2-Wymiarowanie5
  6
CONTINUOUS
 62
     7
 10
343.7671
 20
57.882099999999980
 11
342.7672
 21
56.882299999999987
  0
LINE
  8
PT2-Wymiarowanie5
  6
CONTINUOUS
 62
     7
 10
361.7671
 20
57.882099999999980
 11
360.7672
 21
56.882299999999987
  0
LINE
  8
PT2-Wymiarowanie5
  6
CONTINUOUS
 62
     7
 10
343.2672
 20
56.382200000000012
 11
343.2672
 21
58.382200000000012
  0
LINE
  8
PT2-Wymiarowanie5
  6
CONTINUOUS
 62
     7
 10
361.2671
 20
56.382200000000012
 11
361.2671
 21
58.382200000000012
  0
TEXT
  8
PT2-Wymiarowanie5
  6
CONTINUOUS
 62
     7
 10
367.537199999999980
 20
58.836200000000019
 40
2.000000000000000
  1
1,80
  0
LINE
  8
PT2-Wymiarowanie5
  6
CONTINUOUS
 62
     7
 10
361.2671
 20
57.382200000000012
 11
379.2672
 21
57.382200000000012
  0
LINE
  8
PT2-Wymiarowanie5
  6
CONTINUOUS
 62
     7
 10
360.2671
 20
57.382200000000012
 11
361.2671
 21
57.382200000000012
  0
LINE
  8
PT2-Wymiarowanie5
  6
CONTINUOUS
 62
     7
 10
380.2672
 20
57.382200000000012
 11
379.2672
 21
57.382200000000012
  0
LINE
  8
PT2-Wymiarowanie5
  6
CONTINUOUS
 62
     7
 10
361.7671
 20
57.882099999999980
 11
360.7672
 21
56.882299999999987
  0
LINE
  8
PT2-Wymiarowanie5
  6
CONTINUOUS
 62
     7
 10
379.7671
 20
57.882099999999980
 11
378.7672
 21
56.882299999999987
  0
LINE
  8
PT2-Wymiarowanie5
  6
CONTINUOUS
 62
     7
 10
361.2671
 20
56.382200000000012
 11
361.2671
 21
58.382200000000012
  0
LINE
  8
PT2-Wymiarowanie5
  6
CONTINUOUS
 62
     7
 10
379.2672
 20
56.382200000000012
 11
379.2672
 21
58.382200000000012
  0
TEXT
  8
PT2-Wymiarowanie5
  6
CONTINUOUS
 62
     7
 10
422.846900000000010
 20
58.836200000000019
 40
2.000000000000000
  1
9,26
  0
LINE
  8
PT2-Wymiarowanie5
  6
CONTINUOUS
 62
     7
 10
379.2672
 20
57.382200000000012
 11
471.8867
 21
57.382200000000012
  0
LINE
  8
PT2-Wymiarowanie5
  6
CONTINUOUS
 62
     7
 10
378.2672
 20
57.382200000000012
 11
379.2672
 21
57.382200000000012
  0
LINE
  8
PT2-Wymiarowanie5
  6
CONTINUOUS
 62
     7
 10
472.8867
 20
57.382200000000012
 11
471.8867
 21
57.382200000000012
  0
LINE
  8
PT2-Wymiarowanie5
  6
CONTINUOUS
 62
     7
 10
379.7671
 20
57.882099999999980
 11
378.7672
 21
56.882299999999987
  0
LINE
  8
PT2-Wymiarowanie5
  6
CONTINUOUS
 62
     7
 10
472.3866
 20
57.882099999999980
 11
471.3867
 21
56.882299999999987
  0
LINE
  8
PT2-Wymiarowanie5
  6
CONTINUOUS
 62
     7
 10
379.2672
 20
56.382200000000012
 11
379.2672
 21
58.382200000000012
  0
LINE
  8
PT2-Wymiarowanie5
  6
CONTINUOUS
 62
     7
 10
471.8867
 20
56.382200000000012
 11
471.8867
 21
58.382200000000012
  0
LINE
  8
PT2-Wymiarowanie5
  6
CONTINUOUS
 62
     7
 10
379.2671
 20
99.354300000000023
 11
376.2671
 21
99.354300000000023
  0
LINE
  8
PT2-Wymiarowanie5
  6
CONTINUOUS
 62
     7
 10
380.2671
 20
99.354300000000023
 11
379.2671
 21
99.354300000000023
  0
LINE
  8
PT2-Wymiarowanie5
  6
CONTINUOUS
 62
     7
 10
375.2671
 20
99.354300000000023
 11
376.2671
 21
99.354300000000023
  0
LINE
  8
PT2-Wymiarowanie5
  6
CONTINUOUS
 62
     7
 10
378.7672
 20
98.854399999999998
 11
379.7671
 21
99.854199999999992
  0
LINE
  8
PT2-Wymiarowanie5
  6
CONTINUOUS
 62
     7
 10
375.7672
 20
98.854399999999998
 11
376.7671
 21
99.854199999999992
  0
LINE
  8
PT2-Wymiarowanie5
  6
CONTINUOUS
 62
     7
 10
379.2671
 20
100.354300000000020
 11
379.2671
 21
98.354300000000023
  0
LINE
  8
PT2-Wymiarowanie5
  6
CONTINUOUS
 62
     7
 10
376.2671
 20
100.354300000000020
 11
376.2671
 21
98.354300000000023
  0
TEXT
  8
PT2-Wymiarowanie5
  6
CONTINUOUS
 62
     7
 10
376.583000000000030
 20
100.102300000000010
 40
2.000000000000000
 50
360.000000000000000
  1
30
  0
LINE
  8
PT2-Wymiarowanie5
  6
CONTINUOUS
 62
     7
 10
346.2671
 20
100.107300000000010
 11
343.2671
 21
100.107300000000010
  0
LINE
  8
PT2-Wymiarowanie5
  6
CONTINUOUS
 62
     7
 10
347.2671
 20
100.107300000000010
 11
346.2671
 21
100.107300000000010
  0
LINE
  8
PT2-Wymiarowanie5
  6
CONTINUOUS
 62
     7
 10
342.2671
 20
100.107300000000010
 11
343.2671
 21
100.107300000000010
  0
LINE
  8
PT2-Wymiarowanie5
  6
CONTINUOUS
 62
     7
 10
345.7672
 20
99.607399999999984
 11
346.7671
 21
100.607199999999980
  0
LINE
  8
PT2-Wymiarowanie5
  6
CONTINUOUS
 62
     7
 10
342.7672
 20
99.607399999999984
 11
343.7671
 21
100.607199999999980
  0
LINE
  8
PT2-Wymiarowanie5
  6
CONTINUOUS
 62
     7
 10
346.2671
 20
101.107300000000010
 11
346.2671
 21
99.107300000000009
  0
LINE
  8
PT2-Wymiarowanie5
  6
CONTINUOUS
 62
     7
 10
343.2671
 20
101.107300000000010
 11
343.2671
 21
99.107300000000009
  0
TEXT
  8
PT2-Wymiarowanie5
  6
CONTINUOUS
 62
     7
 10
343.495099999999980
 20
101.197900000000000
 40
2.000000000000000
 50
360.000000000000000
  1
30
  0
TEXT
  8
PT2-Wymiarowanie5
  6
CONTINUOUS
 62
     7
 10
382.276299999999990
 20
52.270199999999988
 40
2.000000000000000
 50
360.000000000000000
  1
17,22
  0
LINE
  8
PT2-Wymiarowanie5
  6
CONTINUOUS
 62
     7
 10
471.8866
 20
50.816199999999981
 11
299.6861
 21
50.816199999999981
  0
LINE
  8
PT2-Wymiarowanie5
  6
CONTINUOUS
 62
     7
 10
472.8866
 20
50.816199999999981
 11
471.8866
 21
50.816199999999981
  0
LINE
  8
PT2-Wymiarowanie5
  6
CONTINUOUS
 62
     7
 10
298.6861
 20
50.816199999999981
 11
299.6861
 21
50.816199999999981
  0
LINE
  8
PT2-Wymiarowanie5
  6
CONTINUOUS
 62
     7
 10
471.3867
 20
50.316300000000012
 11
472.3866
 21
51.316100000000006
  0
LINE
  8
PT2-Wymiarowanie5
  6
CONTINUOUS
 62
     7
 10
299.1861
 20
50.316300000000012
 11
300.186
 21
51.316100000000006
  0
LINE
  8
PT2-Wymiarowanie5
  6
CONTINUOUS
 62
     7
 10
471.8866
 20
49.816199999999981
 11
471.8866
 21
51.816199999999981
  0
LINE
  8
PT2-Wymiarowanie5
  6
CONTINUOUS
 62
     7
 10
299.6861
 20
49.816199999999981
 11
299.6861
 21
51.816199999999981
  0
TEXT
  8
PT2-Wymiarowanie5
  6
CONTINUOUS
 62
     7
 10
278.356299999999980
 20
52.270199999999988
 40
2.000000000000000
 50
360.000000000000000
  1
3,72
  0
LINE
  8
PT2-Wymiarowanie5
  6
CONTINUOUS
 62
     7
 10
299.6861
 20
50.816199999999981
 11
262.4865
 21
50.816199999999981
  0
LINE
  8
PT2-Wymiarowanie5
  6
CONTINUOUS
 62
     7
 10
300.6861
 20
50.816199999999981
 11
299.6861
 21
50.816199999999981
  0
LINE
  8
PT2-Wymiarowanie5
  6
CONTINUOUS
 62
     7
 10
261.4865
 20
50.816199999999981
 11
262.4865
 21
50.816199999999981
  0
LINE
  8
PT2-Wymiarowanie5
  6
CONTINUOUS
 62
     7
 10
299.1861
 20
50.316300000000012
 11
300.186
 21
51.316100000000006
  0
LINE
  8
PT2-Wymiarowanie5
  6
CONTINUOUS
 62
     7
 10
261.9865
 20
50.316300000000012
 11
262.9864
 21
51.316100000000006
  0
LINE
  8
PT2-Wymiarowanie5
  6
CONTINUOUS
 62
     7
 10
299.6861
 20
49.816199999999981
 11
299.6861
 21
51.816199999999981
  0
LINE
  8
PT2-Wymiarowanie5
  6
CONTINUOUS
 62
     7
 10
262.4865
 20
49.816199999999981
 11
262.4865
 21
51.816199999999981
  0
TEXT
  8
PT2-Wymiarowanie5
  6
CONTINUOUS
 62
     7
 10
154.926600000000010
 20
52.270199999999988
 40
2.000000000000000
 50
360.000000000000000
  1
20,81
  0
LINE
  8
PT2-Wymiarowanie5
  6
CONTINUOUS
 62
     7
 10
262.4865
 20
50.816199999999981
 11
54.3867
 21
50.816199999999981
  0
LINE
  8
PT2-Wymiarowanie5
  6
CONTINUOUS
 62
     7
 10
263.4865
 20
50.816199999999981
 11
262.4865
 21
50.816199999999981
  0
LINE
  8
PT2-Wymiarowanie5
  6
CONTINUOUS
 62
     7
 10
53.3867
 20
50.816199999999981
 11
54.3867
 21
50.816199999999981
  0
LINE
  8
PT2-Wymiarowanie5
  6
CONTINUOUS
 62
     7
 10
261.9865
 20
50.316300000000012
 11
262.9864
 21
51.316100000000006
  0
LINE
  8
PT2-Wymiarowanie5
  6
CONTINUOUS
 62
     7
 10
53.8867
 20
50.316300000000012
 11
54.8866
 21
51.316100000000006
  0
LINE
  8
PT2-Wymiarowanie5
  6
CONTINUOUS
 62
     7
 10
262.4865
 20
49.816199999999981
 11
262.4865
 21
51.816199999999981
  0
LINE
  8
PT2-Wymiarowanie5
  6
CONTINUOUS
 62
     7
 10
54.3867
 20
49.816199999999981
 11
54.3867
 21
51.816199999999981
  0
TEXT
  8
PT2-Wymiarowanie5
  6
CONTINUOUS
 62
     7
 10
259.626600000000000
 20
46.540599999999984
 40
2.000000000000000
  1
41,75
  0
LINE
  8
PT2-Wymiarowanie5
  6
CONTINUOUS
 62
     7
 10
54.3866
 20
45.086599999999976
 11
471.8866
 21
45.086599999999976
  0
LINE
  8
PT2-Wymiarowanie5
  6
CONTINUOUS
 62
     7
 10
53.3866
 20
45.086599999999976
 11
54.3866
 21
45.086599999999976
  0
LINE
  8
PT2-Wymiarowanie5
  6
CONTINUOUS
 62
     7
 10
472.8866
 20
45.086599999999976
 11
471.8866
 21
45.086599999999976
  0
LINE
  8
PT2-Wymiarowanie5
  6
CONTINUOUS
 62
     7
 10
54.8866
 20
45.586500000000001
 11
53.8867
 21
44.586599999999976
  0
LINE
  8
PT2-Wymiarowanie5
  6
CONTINUOUS
 62
     7
 10
472.3866
 20
45.586500000000001
 11
471.3867
 21
44.586599999999976
  0
LINE
  8
PT2-Wymiarowanie5
  6
CONTINUOUS
 62
     7
 10
54.3866
 20
44.086599999999976
 11
54.3866
 21
46.086599999999976
  0
LINE
  8
PT2-Wymiarowanie5
  6
CONTINUOUS
 62
     7
 10
471.8866
 20
44.086599999999976
 11
471.8866
 21
46.086599999999976
  0
TEXT
  8
PT2-Wymiarowanie5
  6
CONTINUOUS
 62
     7
 10
265.315400000000010
 20
101.998200000000000
 40
2.000000000000000
  1
50
  0
LINE
  8
PT2-Wymiarowanie5
  6
CONTINUOUS
 62
     7
 10
257.4866
 20
100.544199999999990
 11
262.4874
 21
100.544199999999990
  0
LINE
  8
PT2-Wymiarowanie5
  6
CONTINUOUS
 62
     7
 10
256.4866
 20
100.544199999999990
 11
257.4866
 21
100.544199999999990
  0
LINE
  8
PT2-Wymiarowanie5
  6
CONTINUOUS
 62
     7
 10
263.4874
 20
100.544199999999990
 11
262.4874
 21
100.544199999999990
  0
LINE
  8
PT2-Wymiarowanie5
  6
CONTINUOUS
 62
     7
 10
257.9866
 20
101.044100000000010
 11
256.9867
 21
100.044199999999990
  0
LINE
  8
PT2-Wymiarowanie5
  6
CONTINUOUS
 62
     7
 10
262.9873
 20
101.044100000000010
 11
261.9875
 21
100.044199999999990
  0
LINE
  8
PT2-Wymiarowanie5
  6
CONTINUOUS
 62
     7
 10
257.4866
 20
101.544199999999990
 11
257.4866
 21
99.544199999999989
  0
LINE
  8
PT2-Wymiarowanie5
  6
CONTINUOUS
 62
     7
 10
262.4874
 20
101.544199999999990
 11
262.4874
 21
99.544199999999989
  0
LINE
  8
PT2-Wymiarowanie5
  6
CONTINUOUS
 62
     7
 10
299.6851
 20
100.048299999999980
 11
304.6866
 21
100.048299999999980
  0
LINE
  8
PT2-Wymiarowanie5
  6
CONTINUOUS
 62
     7
 10
298.6851
 20
100.048299999999980
 11
299.6851
 21
100.048299999999980
  0
LINE
  8
PT2-Wymiarowanie5
  6
CONTINUOUS
 62
     7
 10
305.6866
 20
100.048299999999980
 11
304.6866
 21
100.048299999999980
  0
LINE
  8
PT2-Wymiarowanie5
  6
CONTINUOUS
 62
     7
 10
300.185
 20
100.548200000000010
 11
299.1852
 21
99.548299999999983
  0
LINE
  8
PT2-Wymiarowanie5
  6
CONTINUOUS
 62
     7
 10
305.1866
 20
100.548200000000010
 11
304.1867
 21
99.548299999999983
  0
LINE
  8
PT2-Wymiarowanie5
  6
CONTINUOUS
 62
     7
 10
299.6851
 20
101.048299999999980
 11
299.6851
 21
99.048299999999983
  0
LINE
  8
PT2-Wymiarowanie5
  6
CONTINUOUS
 62
     7
 10
304.6866
 20
101.048299999999980
 11
304.6866
 21
99.048299999999983
  0
TEXT
  8
PT2-Wymiarowanie5
  6
CONTINUOUS
 62
     7
 10
300.514299999999990
 20
101.450400000000000
 40
2.000000000000000
  1
50
  0
LINE
  8
PT2-Wymiarowanie5
  6
CONTINUOUS
 62
     7
 10
287.3158
 20
74.884500000000003
 11
287.3158
 21
79.884200000000021
  0
LINE
  8
PT2-Wymiarowanie5
  6
CONTINUOUS
 62
     7
 10
287.3158
 20
73.884500000000003
 11
287.3158
 21
74.884500000000003
  0
LINE
  8
PT2-Wymiarowanie5
  6
CONTINUOUS
 62
     7
 10
287.3158
 20
80.884200000000021
 11
287.3158
 21
79.884200000000021
  0
LINE
  8
PT2-Wymiarowanie5
  6
CONTINUOUS
 62
     7
 10
286.8159
 20
75.384400000000028
 11
287.8157
 21
74.384599999999978
  0
LINE
  8
PT2-Wymiarowanie5
  6
CONTINUOUS
 62
     7
 10
286.8159
 20
80.384099999999989
 11
287.8157
 21
79.384299999999996
  0
LINE
  8
PT2-Wymiarowanie5
  6
CONTINUOUS
 62
     7
 10
286.3158
 20
74.884500000000003
 11
288.3158
 21
74.884500000000003
  0
LINE
  8
PT2-Wymiarowanie5
  6
CONTINUOUS
 62
     7
 10
286.3158
 20
79.884200000000021
 11
288.3158
 21
79.884200000000021
  0
TEXT
  8
PT2-Wymiarowanie5
  6
CONTINUOUS
 62
     7
 10
285.654400000000010
 20
76.366300000000024
 40
2.000000000000000
 50
90.000000000000000
  1
50
  0
LINE
  8
PT2-Wymiarowanie5
  6
CONTINUOUS
 62
     7
 10
367.6569
 20
82.884099999999989
 11
367.6569
 21
85.893799999999999
  0
LINE
  8
PT2-Wymiarowanie5
  6
CONTINUOUS
 62
     7
 10
367.6569
 20
81.884099999999989
 11
367.6569
 21
82.884099999999989
  0
LINE
  8
PT2-Wymiarowanie5
  6
CONTINUOUS
 62
     7
 10
367.6569
 20
86.893799999999999
 11
367.6569
 21
85.893799999999999
  0
LINE
  8
PT2-Wymiarowanie5
  6
CONTINUOUS
 62
     7
 10
367.157
 20
83.384099999999989
 11
368.1568
 21
82.384200000000021
  0
LINE
  8
PT2-Wymiarowanie5
  6
CONTINUOUS
 62
     7
 10
367.157
 20
86.393799999999999
 11
368.1568
 21
85.393899999999974
  0
LINE
  8
PT2-Wymiarowanie5
  6
CONTINUOUS
 62
     7
 10
366.6569
 20
82.884099999999989
 11
368.6569
 21
82.884099999999989
  0
LINE
  8
PT2-Wymiarowanie5
  6
CONTINUOUS
 62
     7
 10
366.6569
 20
85.893799999999999
 11
368.6569
 21
85.893799999999999
  0
TEXT
  8
PT2-Wymiarowanie5
  6
CONTINUOUS
 62
     7
 10
365.952900000000000
 20
83.115499999999997
 40
2.000000000000000
 50
90.000000000000000
  1
30
  0
LINE
  8
PT2-Wymiarowanie5
  6
CONTINUOUS
 62
     7
 10
326.0028
 20
80.884200000000021
 11
326.0028
 21
85.888300000000015
  0
LINE
  8
PT2-Wymiarowanie5
  6
CONTINUOUS
 62
     7
 10
326.0028
 20
79.884200000000021
 11
326.0028
 21
80.884200000000021
  0
LINE
  8
PT2-Wymiarowanie5
  6
CONTINUOUS
 62
     7
 10
326.0028
 20
86.888300000000015
 11
326.0028
 21
85.888300000000015
  0
LINE
  8
PT2-Wymiarowanie5
  6
CONTINUOUS
 62
     7
 10
325.5029
 20
81.384099999999989
 11
326.5028
 21
80.384299999999996
  0
LINE
  8
PT2-Wymiarowanie5
  6
CONTINUOUS
 62
     7
 10
325.5029
 20
86.388300000000015
 11
326.5028
 21
85.388399999999990
  0
LINE
  8
PT2-Wymiarowanie5
  6
CONTINUOUS
 62
     7
 10
325.0028
 20
80.884200000000021
 11
327.0028
 21
80.884200000000021
  0
LINE
  8
PT2-Wymiarowanie5
  6
CONTINUOUS
 62
     7
 10
325.0028
 20
85.888300000000015
 11
327.0028
 21
85.888300000000015
  0
TEXT
  8
PT2-Wymiarowanie5
  6
CONTINUOUS
 62
     7
 10
324.393500000000020
 20
82.273099999999999
 40
2.000000000000000
 50
90.000000000000000
  1
50
  0
LINE
  8
PT2-Wymiarowanie5
  6
CONTINUOUS
 62
     7
 10
235.5788
 20
80.884200000000021
 11
235.5788
 21
85.884200000000021
  0
LINE
  8
PT2-Wymiarowanie5
  6
CONTINUOUS
 62
     7
 10
235.5788
 20
79.884200000000021
 11
235.5788
 21
80.884200000000021
  0
LINE
  8
PT2-Wymiarowanie5
  6
CONTINUOUS
 62
     7
 10
235.5788
 20
86.884200000000021
 11
235.5788
 21
85.884200000000021
  0
LINE
  8
PT2-Wymiarowanie5
  6
CONTINUOUS
 62
     7
 10
235.0789
 20
81.384099999999989
 11
236.0787
 21
80.384299999999996
  0
LINE
  8
PT2-Wymiarowanie5
  6
CONTINUOUS
 62
     7
 10
235.0789
 20
86.384099999999989
 11
236.0787
 21
85.384299999999996
  0
LINE
  8
PT2-Wymiarowanie5
  6
CONTINUOUS
 62
     7
 10
234.5788
 20
80.884200000000021
 11
236.5788
 21
80.884200000000021
  0
LINE
  8
PT2-Wymiarowanie5
  6
CONTINUOUS
 62
     7
 10
234.5788
 20
85.884200000000021
 11
236.5788
 21
85.884200000000021
  0
TEXT
  8
PT2-Wymiarowanie5
  6
CONTINUOUS
 62
     7
 10
233.987900000000000
 20
82.257799999999975
 40
2.000000000000000
 50
90.000000000000000
  1
50
  0
LINE
  8
PT2-Wymiarowanie5
  6
CONTINUOUS
 62
     7
 10
174.8366
 20
98.199599999999975
 11
177.8366
 21
98.199599999999975
  0
LINE
  8
PT2-Wymiarowanie5
  6
CONTINUOUS
 62
     7
 10
173.8366
 20
98.199599999999975
 11
174.8366
 21
98.199599999999975
  0
LINE
  8
PT2-Wymiarowanie5
  6
CONTINUOUS
 62
     7
 10
178.8366
 20
98.199599999999975
 11
177.8366
 21
98.199599999999975
  0
LINE
  8
PT2-Wymiarowanie5
  6
CONTINUOUS
 62
     7
 10
175.3366
 20
98.699599999999975
 11
174.3367
 21
97.699700000000007
  0
LINE
  8
PT2-Wymiarowanie5
  6
CONTINUOUS
 62
     7
 10
178.3366
 20
98.699599999999975
 11
177.3367
 21
97.699700000000007
  0
LINE
  8
PT2-Wymiarowanie5
  6
CONTINUOUS
 62
     7
 10
174.8366
 20
99.199599999999975
 11
174.8366
 21
97.199599999999975
  0
LINE
  8
PT2-Wymiarowanie5
  6
CONTINUOUS
 62
     7
 10
177.8366
 20
99.199599999999975
 11
177.8366
 21
97.199599999999975
  0
TEXT
  8
PT2-Wymiarowanie5
  6
CONTINUOUS
 62
     7
 10
174.818800000000010
 20
99.541200000000003
 40
2.000000000000000
  1
30
  0
LINE
  8
PT2-Wymiarowanie5
  6
CONTINUOUS
 62
     7
 10
207.8366
 20
97.956000000000017
 11
210.8366
 21
97.956000000000017
  0
LINE
  8
PT2-Wymiarowanie5
  6
CONTINUOUS
 62
     7
 10
206.8366
 20
97.956000000000017
 11
207.8366
 21
97.956000000000017
  0
LINE
  8
PT2-Wymiarowanie5
  6
CONTINUOUS
 62
     7
 10
211.8366
 20
97.956000000000017
 11
210.8366
 21
97.956000000000017
  0
LINE
  8
PT2-Wymiarowanie5
  6
CONTINUOUS
 62
     7
 10
208.3366
 20
98.455899999999986
 11
207.3367
 21
97.456000000000017
  0
LINE
  8
PT2-Wymiarowanie5
  6
CONTINUOUS
 62
     7
 10
211.3366
 20
98.455899999999986
 11
210.3367
 21
97.456000000000017
  0
LINE
  8
PT2-Wymiarowanie5
  6
CONTINUOUS
 62
     7
 10
207.8366
 20
98.956000000000017
 11
207.8366
 21
96.956000000000017
  0
LINE
  8
PT2-Wymiarowanie5
  6
CONTINUOUS
 62
     7
 10
210.8366
 20
98.956000000000017
 11
210.8366
 21
96.956000000000017
  0
TEXT
  8
PT2-Wymiarowanie5
  6
CONTINUOUS
 62
     7
 10
207.939699999999990
 20
99.113800000000026
 40
2.000000000000000
  1
30
  0
LINE
  8
PT2-Wymiarowanie5
  6
CONTINUOUS
 62
     7
 10
199.3824
 20
82.884200000000021
 11
199.3824
 21
85.884200000000021
  0
LINE
  8
PT2-Wymiarowanie5
  6
CONTINUOUS
 62
     7
 10
199.3824
 20
81.884200000000021
 11
199.3824
 21
82.884200000000021
  0
LINE
  8
PT2-Wymiarowanie5
  6
CONTINUOUS
 62
     7
 10
199.3824
 20
86.884200000000021
 11
199.3824
 21
85.884200000000021
  0
LINE
  8
PT2-Wymiarowanie5
  6
CONTINUOUS
 62
     7
 10
198.8824
 20
83.384099999999989
 11
199.8823
 21
82.384299999999996
  0
LINE
  8
PT2-Wymiarowanie5
  6
CONTINUOUS
 62
     7
 10
198.8824
 20
86.384099999999989
 11
199.8823
 21
85.384299999999996
  0
LINE
  8
PT2-Wymiarowanie5
  6
CONTINUOUS
 62
     7
 10
198.3824
 20
82.884200000000021
 11
200.3824
 21
82.884200000000021
  0
LINE
  8
PT2-Wymiarowanie5
  6
CONTINUOUS
 62
     7
 10
198.3824
 20
85.884200000000021
 11
200.3824
 21
85.884200000000021
  0
TEXT
  8
PT2-Wymiarowanie5
  6
CONTINUOUS
 62
     7
 10
198.293900000000010
 20
83.151299999999992
 40
2.000000000000000
 50
90.000000000000000
  1
30
  0
TEXT
  8
PT2-Wymiarowanie5
  6
CONTINUOUS
 62
     7
 10
164.783600000000010
 20
96.330699999999979
 40
2.000000000000000
 50
90.000000000000000
  1
3,15
  0
LINE
  8
PT2-Wymiarowanie5
  6
CONTINUOUS
 62
     7
 10
166.3366
 20
82.884200000000021
 11
166.3366
 21
114.408700000000010
  0
LINE
  8
PT2-Wymiarowanie5
  6
CONTINUOUS
 62
     7
 10
166.3366
 20
81.884200000000021
 11
166.3366
 21
82.884200000000021
  0
LINE
  8
PT2-Wymiarowanie5
  6
CONTINUOUS
 62
     7
 10
166.3366
 20
115.408700000000010
 11
166.3366
 21
114.408700000000010
  0
LINE
  8
PT2-Wymiarowanie5
  6
CONTINUOUS
 62
     7
 10
165.8367
 20
83.384099999999989
 11
166.8366
 21
82.384299999999996
  0
LINE
  8
PT2-Wymiarowanie5
  6
CONTINUOUS
 62
     7
 10
165.8367
 20
114.908599999999980
 11
166.8366
 21
113.908799999999990
  0
LINE
  8
PT2-Wymiarowanie5
  6
CONTINUOUS
 62
     7
 10
165.3366
 20
82.884200000000021
 11
167.3366
 21
82.884200000000021
  0
LINE
  8
PT2-Wymiarowanie5
  6
CONTINUOUS
 62
     7
 10
165.3366
 20
114.408700000000010
 11
167.3366
 21
114.408700000000010
  0
TEXT
  8
PT2-Wymiarowanie5
  6
CONTINUOUS
 62
     7
 10
248.433600000000010
 20
91.352199999999982
 40
2.000000000000000
 50
90.000000000000000
  1
3,75
  0
TEXT
  8
PT2-Wymiarowanie5
  6
CONTINUOUS
 62
     7
 10
247.680600000000000
 20
97.527600000000007
 40
1.500000000000000
 50
90.000000000000000
  1
5
  0
LINE
  8
PT2-Wymiarowanie5
  6
CONTINUOUS
 62
     7
 10
249.9866
 20
74.884500000000003
 11
249.9866
 21
112.451500000000010
  0
LINE
  8
PT2-Wymiarowanie5
  6
CONTINUOUS
 62
     7
 10
249.9866
 20
73.884500000000003
 11
249.9866
 21
74.884500000000003
  0
LINE
  8
PT2-Wymiarowanie5
  6
CONTINUOUS
 62
     7
 10
249.9866
 20
113.451500000000010
 11
249.9866
 21
112.451500000000010
  0
LINE
  8
PT2-Wymiarowanie5
  6
CONTINUOUS
 62
     7
 10
249.4867
 20
75.384400000000028
 11
250.4866
 21
74.384599999999978
  0
LINE
  8
PT2-Wymiarowanie5
  6
CONTINUOUS
 62
     7
 10
249.4867
 20
112.951399999999980
 11
250.4866
 21
111.951599999999980
  0
LINE
  8
PT2-Wymiarowanie5
  6
CONTINUOUS
 62
     7
 10
248.9866
 20
74.884500000000003
 11
250.9866
 21
74.884500000000003
  0
LINE
  8
PT2-Wymiarowanie5
  6
CONTINUOUS
 62
     7
 10
248.9866
 20
112.451500000000010
 11
250.9866
 21
112.451500000000010
  0
TEXT
  8
PT2-Wymiarowanie5
  6
CONTINUOUS
 62
     7
 10
335.091299999999990
 20
96.330600000000004
 40
2.000000000000000
 50
90.000000000000000
  1
3,15
  0
LINE
  8
PT2-Wymiarowanie5
  6
CONTINUOUS
 62
     7
 10
336.6443
 20
82.884099999999989
 11
336.6443
 21
114.408700000000010
  0
LINE
  8
PT2-Wymiarowanie5
  6
CONTINUOUS
 62
     7
 10
336.6443
 20
81.884099999999989
 11
336.6443
 21
82.884099999999989
  0
LINE
  8
PT2-Wymiarowanie5
  6
CONTINUOUS
 62
     7
 10
336.6443
 20
115.408700000000010
 11
336.6443
 21
114.408700000000010
  0
LINE
  8
PT2-Wymiarowanie5
  6
CONTINUOUS
 62
     7
 10
336.1444
 20
83.384000000000015
 11
337.1442
 21
82.384200000000021
  0
LINE
  8
PT2-Wymiarowanie5
  6
CONTINUOUS
 62
     7
 10
336.1444
 20
114.908599999999980
 11
337.1442
 21
113.908799999999990
  0
LINE
  8
PT2-Wymiarowanie5
  6
CONTINUOUS
 62
     7
 10
335.6443
 20
82.884099999999989
 11
337.6443
 21
82.884099999999989
  0
LINE
  8
PT2-Wymiarowanie5
  6
CONTINUOUS
 62
     7
 10
335.6443
 20
114.408700000000010
 11
337.6443
 21
114.408700000000010
  0
TEXT
  8
PT2-Wymiarowanie5
  6
CONTINUOUS
 62
     7
 10
69.418999999999997
 20
191.349500000000010
 40
2.000000000000000
  1
3,15
  0
LINE
  8
PT2-Wymiarowanie5
  6
CONTINUOUS
 62
     7
 10
56.3866
 20
189.895500000000000
 11
87.9113
 21
189.895500000000000
  0
LINE
  8
PT2-Wymiarowanie5
  6
CONTINUOUS
 62
     7
 10
55.3866
 20
189.895500000000000
 11
56.3866
 21
189.895500000000000
  0
LINE
  8
PT2-Wymiarowanie5
  6
CONTINUOUS
 62
     7
 10
88.9113
 20
189.895500000000000
 11
87.9113
 21
189.895500000000000
  0
LINE
  8
PT2-Wymiarowanie5
  6
CONTINUOUS
 62
     7
 10
56.8866
 20
190.395400000000000
 11
55.8867
 21
189.395600000000000
  0
LINE
  8
PT2-Wymiarowanie5
  6
CONTINUOUS
 62
     7
 10
88.4112
 20
190.395400000000000
 11
87.4114
 21
189.395600000000000
  0
LINE
  8
PT2-Wymiarowanie5
  6
CONTINUOUS
 62
     7
 10
56.3866
 20
190.895500000000000
 11
56.3866
 21
188.895500000000000
  0
LINE
  8
PT2-Wymiarowanie5
  6
CONTINUOUS
 62
     7
 10
87.9113
 20
190.895500000000000
 11
87.9113
 21
188.895500000000000
  0
TEXT
  8
PT2-Wymiarowanie5
  6
CONTINUOUS
 62
     7
 10
491.173400000000020
 20
111.818499999999970
 40
2.000000000000000
 50
90.000000000000000
  1
6,65
  0
LINE
  8
PT2-Wymiarowanie5
  6
CONTINUOUS
 62
     7
 10
492.7264
 20
80.884200000000021
 11
492.7264
 21
147.384400000000000
  0
LINE
  8
PT2-Wymiarowanie5
  6
CONTINUOUS
 62
     7
 10
492.7264
 20
79.884200000000021
 11
492.7264
 21
80.884200000000021
  0
LINE
  8
PT2-Wymiarowanie5
  6
CONTINUOUS
 62
     7
 10
492.7264
 20
148.384400000000000
 11
492.7264
 21
147.384400000000000
  0
LINE
  8
PT2-Wymiarowanie5
  6
CONTINUOUS
 62
     7
 10
492.2264
 20
81.384099999999989
 11
493.2263
 21
80.384299999999996
  0
LINE
  8
PT2-Wymiarowanie5
  6
CONTINUOUS
 62
     7
 10
492.2264
 20
147.884300000000000
 11
493.2263
 21
146.884500000000000
  0
LINE
  8
PT2-Wymiarowanie5
  6
CONTINUOUS
 62
     7
 10
493.7264
 20
80.884200000000021
 11
491.7264
 21
80.884200000000021
  0
LINE
  8
PT2-Wymiarowanie5
  6
CONTINUOUS
 62
     7
 10
493.7264
 20
147.384400000000000
 11
491.7264
 21
147.384400000000000
  0
TEXT
  8
PT2-Wymiarowanie5
  6
CONTINUOUS
 62
     7
 10
491.173400000000020
 20
154.068600000000000
 40
2.000000000000000
 50
90.000000000000000
  1
1,80
  0
LINE
  8
PT2-Wymiarowanie5
  6
CONTINUOUS
 62
     7
 10
492.7264
 20
147.384400000000000
 11
492.7264
 21
165.384400000000000
  0
LINE
  8
PT2-Wymiarowanie5
  6
CONTINUOUS
 62
     7
 10
492.7264
 20
146.384400000000000
 11
492.7264
 21
147.384400000000000
  0
LINE
  8
PT2-Wymiarowanie5
  6
CONTINUOUS
 62
     7
 10
492.7264
 20
166.384400000000000
 11
492.7264
 21
165.384400000000000
  0
LINE
  8
PT2-Wymiarowanie5
  6
CONTINUOUS
 62
     7
 10
492.2264
 20
147.884300000000000
 11
493.2263
 21
146.884500000000000
  0
LINE
  8
PT2-Wymiarowanie5
  6
CONTINUOUS
 62
     7
 10
492.2264
 20
165.884300000000000
 11
493.2263
 21
164.884500000000000
  0
LINE
  8
PT2-Wymiarowanie5
  6
CONTINUOUS
 62
     7
 10
493.7264
 20
147.384400000000000
 11
491.7264
 21
147.384400000000000
  0
LINE
  8
PT2-Wymiarowanie5
  6
CONTINUOUS
 62
     7
 10
493.7264
 20
165.384400000000000
 11
491.7264
 21
165.384400000000000
  0
TEXT
  8
PT2-Wymiarowanie5
  6
CONTINUOUS
 62
     7
 10
491.173400000000020
 20
172.068600000000000
 40
2.000000000000000
 50
90.000000000000000
  1
1,80
  0
LINE
  8
PT2-Wymiarowanie5
  6
CONTINUOUS
 62
     7
 10
492.7264
 20
165.384400000000000
 11
492.7264
 21
183.384400000000000
  0
LINE
  8
PT2-Wymiarowanie5
  6
CONTINUOUS
 62
     7
 10
492.7264
 20
164.384400000000000
 11
492.7264
 21
165.384400000000000
  0
LINE
  8
PT2-Wymiarowanie5
  6
CONTINUOUS
 62
     7
 10
492.7264
 20
184.384400000000000
 11
492.7264
 21
183.384400000000000
  0
LINE
  8
PT2-Wymiarowanie5
  6
CONTINUOUS
 62
     7
 10
492.2264
 20
165.884300000000000
 11
493.2263
 21
164.884500000000000
  0
LINE
  8
PT2-Wymiarowanie5
  6
CONTINUOUS
 62
     7
 10
492.2264
 20
183.884300000000000
 11
493.2263
 21
182.884500000000000
  0
LINE
  8
PT2-Wymiarowanie5
  6
CONTINUOUS
 62
     7
 10
493.7264
 20
165.384400000000000
 11
491.7264
 21
165.384400000000000
  0
LINE
  8
PT2-Wymiarowanie5
  6
CONTINUOUS
 62
     7
 10
493.7264
 20
183.384400000000000
 11
491.7264
 21
183.384400000000000
  0
TEXT
  8
PT2-Wymiarowanie5
  6
CONTINUOUS
 62
     7
 10
491.173400000000020
 20
214.318600000000000
 40
2.000000000000000
 50
90.000000000000000
  1
6,65
  0
LINE
  8
PT2-Wymiarowanie5
  6
CONTINUOUS
 62
     7
 10
492.7264
 20
183.384400000000000
 11
492.7264
 21
249.884300000000000
  0
LINE
  8
PT2-Wymiarowanie5
  6
CONTINUOUS
 62
     7
 10
492.7264
 20
182.384400000000000
 11
492.7264
 21
183.384400000000000
  0
LINE
  8
PT2-Wymiarowanie5
  6
CONTINUOUS
 62
     7
 10
492.7264
 20
250.884300000000000
 11
492.7264
 21
249.884300000000000
  0
LINE
  8
PT2-Wymiarowanie5
  6
CONTINUOUS
 62
     7
 10
492.2264
 20
183.884300000000000
 11
493.2263
 21
182.884500000000000
  0
LINE
  8
PT2-Wymiarowanie5
  6
CONTINUOUS
 62
     7
 10
492.2264
 20
250.384199999999990
 11
493.2263
 21
249.384400000000000
  0
LINE
  8
PT2-Wymiarowanie5
  6
CONTINUOUS
 62
     7
 10
493.7264
 20
183.384400000000000
 11
491.7264
 21
183.384400000000000
  0
LINE
  8
PT2-Wymiarowanie5
  6
CONTINUOUS
 62
     7
 10
493.7264
 20
249.884300000000000
 11
491.7264
 21
249.884300000000000
  0
TEXT
  8
PT2-Wymiarowanie5
  6
CONTINUOUS
 62
     7
 10
497.483400000000020
 20
160.240000000000010
 40
2.000000000000000
 50
450.000000000000000
  1
16,9
  0
LINE
  8
PT2-Wymiarowanie5
  6
CONTINUOUS
 62
     7
 10
499.0364
 20
249.884300000000000
 11
499.0364
 21
80.884200000000021
  0
LINE
  8
PT2-Wymiarowanie5
  6
CONTINUOUS
 62
     7
 10
499.0364
 20
250.884300000000000
 11
499.0364
 21
249.884300000000000
  0
LINE
  8
PT2-Wymiarowanie5
  6
CONTINUOUS
 62
     7
 10
499.0364
 20
79.884200000000021
 11
499.0364
 21
80.884200000000021
  0
LINE
  8
PT2-Wymiarowanie5
  6
CONTINUOUS
 62
     7
 10
499.5364
 20
249.384400000000000
 11
498.5365
 21
250.384199999999990
  0
LINE
  8
PT2-Wymiarowanie5
  6
CONTINUOUS
 62
     7
 10
499.5364
 20
80.384299999999996
 11
498.5365
 21
81.384099999999989
  0
LINE
  8
PT2-Wymiarowanie5
  6
CONTINUOUS
 62
     7
 10
500.0364
 20
249.884300000000000
 11
498.0364
 21
249.884300000000000
  0
LINE
  8
PT2-Wymiarowanie5
  6
CONTINUOUS
 62
     7
 10
500.0364
 20
80.884200000000021
 11
498.0364
 21
80.884200000000021
  0
LINE
  8
PT2-Wymiarowanie5
  6
CONTINUOUS
 62
     7
 10
466.8866
 20
128.472300000000020
 11
471.8866
 21
128.472300000000020
  0
LINE
  8
PT2-Wymiarowanie5
  6
CONTINUOUS
 62
     7
 10
465.8866
 20
128.472300000000020
 11
466.8866
 21
128.472300000000020
  0
LINE
  8
PT2-Wymiarowanie5
  6
CONTINUOUS
 62
     7
 10
472.8866
 20
128.472300000000020
 11
471.8866
 21
128.472300000000020
  0
LINE
  8
PT2-Wymiarowanie5
  6
CONTINUOUS
 62
     7
 10
467.3866
 20
128.972199999999990
 11
466.3867
 21
127.972300000000020
  0
LINE
  8
PT2-Wymiarowanie5
  6
CONTINUOUS
 62
     7
 10
472.3866
 20
128.972199999999990
 11
471.3867
 21
127.972300000000020
  0
LINE
  8
PT2-Wymiarowanie5
  6
CONTINUOUS
 62
     7
 10
466.8866
 20
127.472300000000020
 11
466.8866
 21
129.472300000000020
  0
LINE
  8
PT2-Wymiarowanie5
  6
CONTINUOUS
 62
     7
 10
471.8866
 20
127.472300000000020
 11
471.8866
 21
129.472300000000020
  0
TEXT
  8
PT2-Wymiarowanie5
  6
CONTINUOUS
 62
     7
 10
467.885400000000000
 20
129.598400000000030
 40
2.000000000000000
  1
50
  0
LINE
  8
PT2-Wymiarowanie5
  6
CONTINUOUS
 62
     7
 10
466.8866
 20
158.148400000000010
 11
469.8866
 21
158.148400000000010
  0
LINE
  8
PT2-Wymiarowanie5
  6
CONTINUOUS
 62
     7
 10
465.8866
 20
158.148400000000010
 11
466.8866
 21
158.148400000000010
  0
LINE
  8
PT2-Wymiarowanie5
  6
CONTINUOUS
 62
     7
 10
470.8866
 20
158.148400000000010
 11
469.8866
 21
158.148400000000010
  0
LINE
  8
PT2-Wymiarowanie5
  6
CONTINUOUS
 62
     7
 10
467.3866
 20
158.648300000000010
 11
466.3867
 21
157.648400000000010
  0
LINE
  8
PT2-Wymiarowanie5
  6
CONTINUOUS
 62
     7
 10
470.3866
 20
158.648300000000010
 11
469.3867
 21
157.648400000000010
  0
LINE
  8
PT2-Wymiarowanie5
  6
CONTINUOUS
 62
     7
 10
466.8866
 20
157.148400000000010
 11
466.8866
 21
159.148400000000010
  0
LINE
  8
PT2-Wymiarowanie5
  6
CONTINUOUS
 62
     7
 10
469.8866
 20
157.148400000000010
 11
469.8866
 21
159.148400000000010
  0
TEXT
  8
PT2-Wymiarowanie5
  6
CONTINUOUS
 62
     7
 10
466.851999999999980
 20
159.178699999999990
 40
2.000000000000000
  1
30
  0
LINE
  8
PT2-Wymiarowanie5
  6
CONTINUOUS
 62
     7
 10
451.715
 20
147.384400000000000
 11
451.715
 21
150.384400000000000
  0
LINE
  8
PT2-Wymiarowanie5
  6
CONTINUOUS
 62
     7
 10
451.715
 20
146.384400000000000
 11
451.715
 21
147.384400000000000
  0
LINE
  8
PT2-Wymiarowanie5
  6
CONTINUOUS
 62
     7
 10
451.715
 20
151.384400000000000
 11
451.715
 21
150.384400000000000
  0
LINE
  8
PT2-Wymiarowanie5
  6
CONTINUOUS
 62
     7
 10
451.2151
 20
147.884300000000000
 11
452.2149
 21
146.884500000000000
  0
LINE
  8
PT2-Wymiarowanie5
  6
CONTINUOUS
 62
     7
 10
451.2151
 20
150.884300000000000
 11
452.2149
 21
149.884500000000000
  0
LINE
  8
PT2-Wymiarowanie5
  6
CONTINUOUS
 62
     7
 10
450.715
 20
147.384400000000000
 11
452.715
 21
147.384400000000000
  0
LINE
  8
PT2-Wymiarowanie5
  6
CONTINUOUS
 62
     7
 10
450.715
 20
150.384400000000000
 11
452.715
 21
150.384400000000000
  0
TEXT
  8
PT2-Wymiarowanie5
  6
CONTINUOUS
 62
     7
 10
450.380499999999980
 20
147.771600000000010
 40
2.000000000000000
 50
90.000000000000000
  1
30
  0
LINE
  8
PT2-Wymiarowanie5
  6
CONTINUOUS
 62
     7
 10
451.8442
 20
180.384400000000000
 11
451.8442
 21
183.384400000000000
  0
LINE
  8
PT2-Wymiarowanie5
  6
CONTINUOUS
 62
     7
 10
451.8442
 20
179.384400000000000
 11
451.8442
 21
180.384400000000000
  0
LINE
  8
PT2-Wymiarowanie5
  6
CONTINUOUS
 62
     7
 10
451.8442
 20
184.384400000000000
 11
451.8442
 21
183.384400000000000
  0
LINE
  8
PT2-Wymiarowanie5
  6
CONTINUOUS
 62
     7
 10
451.3443
 20
180.884300000000000
 11
452.3441
 21
179.884500000000000
  0
LINE
  8
PT2-Wymiarowanie5
  6
CONTINUOUS
 62
     7
 10
451.3443
 20
183.884300000000000
 11
452.3441
 21
182.884500000000000
  0
LINE
  8
PT2-Wymiarowanie5
  6
CONTINUOUS
 62
     7
 10
450.8442
 20
180.384400000000000
 11
452.8442
 21
180.384400000000000
  0
LINE
  8
PT2-Wymiarowanie5
  6
CONTINUOUS
 62
     7
 10
450.8442
 20
183.384400000000000
 11
452.8442
 21
183.384400000000000
  0
TEXT
  8
PT2-Wymiarowanie5
  6
CONTINUOUS
 62
     7
 10
450.509700000000010
 20
180.710399999999990
 40
2.000000000000000
 50
90.000000000000000
  1
30
  0
TEXT
  8
PT2-Wymiarowanie5
  6
CONTINUOUS
 62
     7
 10
451.394400000000020
 20
141.338400000000010
 40
2.000000000000000
  1
3,15
  0
LINE
  8
PT2-Wymiarowanie5
  6
CONTINUOUS
 62
     7
 10
438.3621
 20
139.884400000000000
 11
469.8866
 21
139.884400000000000
  0
LINE
  8
PT2-Wymiarowanie5
  6
CONTINUOUS
 62
     7
 10
437.3621
 20
139.884400000000000
 11
438.3621
 21
139.884400000000000
  0
LINE
  8
PT2-Wymiarowanie5
  6
CONTINUOUS
 62
     7
 10
470.8866
 20
139.884400000000000
 11
469.8866
 21
139.884400000000000
  0
LINE
  8
PT2-Wymiarowanie5
  6
CONTINUOUS
 62
     7
 10
438.862
 20
140.384300000000000
 11
437.8622
 21
139.384500000000000
  0
LINE
  8
PT2-Wymiarowanie5
  6
CONTINUOUS
 62
     7
 10
470.3866
 20
140.384300000000000
 11
469.3867
 21
139.384500000000000
  0
LINE
  8
PT2-Wymiarowanie5
  6
CONTINUOUS
 62
     7
 10
438.3621
 20
138.884400000000000
 11
438.3621
 21
140.884400000000000
  0
LINE
  8
PT2-Wymiarowanie5
  6
CONTINUOUS
 62
     7
 10
469.8866
 20
138.884400000000000
 11
469.8866
 21
140.884400000000000
  0
TEXT
  8
PT2-Wymiarowanie5
  6
CONTINUOUS
 62
     7
 10
277.406600000000030
 20
266.657100000000010
 40
2.000000000000000
  1
2,35
  0
LINE
  8
PT2-Wymiarowanie5
  6
CONTINUOUS
 62
     7
 10
268.3866
 20
265.203100000000010
 11
291.8866
 21
265.203100000000010
  0
LINE
  8
PT2-Wymiarowanie5
  6
CONTINUOUS
 62
     7
 10
267.3866
 20
265.203100000000010
 11
268.3866
 21
265.203100000000010
  0
LINE
  8
PT2-Wymiarowanie5
  6
CONTINUOUS
 62
     7
 10
292.8866
 20
265.203100000000010
 11
291.8866
 21
265.203100000000010
  0
LINE
  8
PT2-Wymiarowanie5
  6
CONTINUOUS
 62
     7
 10
268.8866
 20
265.702999999999970
 11
267.8867
 21
264.703100000000010
  0
LINE
  8
PT2-Wymiarowanie5
  6
CONTINUOUS
 62
     7
 10
292.3866
 20
265.702999999999970
 11
291.3867
 21
264.703100000000010
  0
LINE
  8
PT2-Wymiarowanie5
  6
CONTINUOUS
 62
     7
 10
268.3866
 20
266.203100000000010
 11
268.3866
 21
264.203100000000010
  0
LINE
  8
PT2-Wymiarowanie5
  6
CONTINUOUS
 62
     7
 10
291.8866
 20
266.203100000000010
 11
291.8866
 21
264.203100000000010
  0
TEXT
  8
PT2-Wymiarowanie5
  6
CONTINUOUS
 62
     7
 10
299.156600000000030
 20
266.657100000000010
 40
2.000000000000000
  1
2,00
  0
LINE
  8
PT2-Wymiarowanie5
  6
CONTINUOUS
 62
     7
 10
291.8866
 20
265.203100000000010
 11
311.8866
 21
265.203100000000010
  0
LINE
  8
PT2-Wymiarowanie5
  6
CONTINUOUS
 62
     7
 10
290.8866
 20
265.203100000000010
 11
291.8866
 21
265.203100000000010
  0
LINE
  8
PT2-Wymiarowanie5
  6
CONTINUOUS
 62
     7
 10
312.8866
 20
265.203100000000010
 11
311.8866
 21
265.203100000000010
  0
LINE
  8
PT2-Wymiarowanie5
  6
CONTINUOUS
 62
     7
 10
292.3866
 20
265.702999999999970
 11
291.3867
 21
264.703100000000010
  0
LINE
  8
PT2-Wymiarowanie5
  6
CONTINUOUS
 62
     7
 10
312.3866
 20
265.702999999999970
 11
311.3867
 21
264.703100000000010
  0
LINE
  8
PT2-Wymiarowanie5
  6
CONTINUOUS
 62
     7
 10
291.8866
 20
266.203100000000010
 11
291.8866
 21
264.203100000000010
  0
LINE
  8
PT2-Wymiarowanie5
  6
CONTINUOUS
 62
     7
 10
311.8866
 20
266.203100000000010
 11
311.8866
 21
264.203100000000010
  0
TEXT
  8
PT2-Wymiarowanie5
  6
CONTINUOUS
 62
     7
 10
319.156600000000030
 20
266.657100000000010
 40
2.000000000000000
  1
2,00
  0
LINE
  8
PT2-Wymiarowanie5
  6
CONTINUOUS
 62
     7
 10
311.8866
 20
265.203100000000010
 11
331.8866
 21
265.203100000000010
  0
LINE
  8
PT2-Wymiarowanie5
  6
CONTINUOUS
 62
     7
 10
310.8866
 20
265.203100000000010
 11
311.8866
 21
265.203100000000010
  0
LINE
  8
PT2-Wymiarowanie5
  6
CONTINUOUS
 62
     7
 10
332.8866
 20
265.203100000000010
 11
331.8866
 21
265.203100000000010
  0
LINE
  8
PT2-Wymiarowanie5
  6
CONTINUOUS
 62
     7
 10
312.3866
 20
265.702999999999970
 11
311.3867
 21
264.703100000000010
  0
LINE
  8
PT2-Wymiarowanie5
  6
CONTINUOUS
 62
     7
 10
332.3866
 20
265.702999999999970
 11
331.3867
 21
264.703100000000010
  0
LINE
  8
PT2-Wymiarowanie5
  6
CONTINUOUS
 62
     7
 10
311.8866
 20
266.203100000000010
 11
311.8866
 21
264.203100000000010
  0
LINE
  8
PT2-Wymiarowanie5
  6
CONTINUOUS
 62
     7
 10
331.8866
 20
266.203100000000010
 11
331.8866
 21
264.203100000000010
  0
TEXT
  8
PT2-Wymiarowanie5
  6
CONTINUOUS
 62
     7
 10
398.376600000000000
 20
266.657100000000010
 40
2.000000000000000
  1
14,00
  0
LINE
  8
PT2-Wymiarowanie5
  6
CONTINUOUS
 62
     7
 10
331.8866
 20
265.203100000000010
 11
471.8866
 21
265.203100000000010
  0
LINE
  8
PT2-Wymiarowanie5
  6
CONTINUOUS
 62
     7
 10
330.8866
 20
265.203100000000010
 11
331.8866
 21
265.203100000000010
  0
LINE
  8
PT2-Wymiarowanie5
  6
CONTINUOUS
 62
     7
 10
472.8866
 20
265.203100000000010
 11
471.8866
 21
265.203100000000010
  0
LINE
  8
PT2-Wymiarowanie5
  6
CONTINUOUS
 62
     7
 10
332.3866
 20
265.702999999999970
 11
331.3867
 21
264.703100000000010
  0
LINE
  8
PT2-Wymiarowanie5
  6
CONTINUOUS
 62
     7
 10
472.3866
 20
265.702999999999970
 11
471.3867
 21
264.703100000000010
  0
LINE
  8
PT2-Wymiarowanie5
  6
CONTINUOUS
 62
     7
 10
331.8866
 20
266.203100000000010
 11
331.8866
 21
264.203100000000010
  0
LINE
  8
PT2-Wymiarowanie5
  6
CONTINUOUS
 62
     7
 10
471.8866
 20
266.203100000000010
 11
471.8866
 21
264.203100000000010
  0
TEXT
  8
PT2-Wymiarowanie5
  6
CONTINUOUS
 62
     7
 10
366.626600000000000
 20
271.246300000000020
 40
2.000000000000000
  1
20,35
  0
LINE
  8
PT2-Wymiarowanie5
  6
CONTINUOUS
 62
     7
 10
268.3866
 20
269.792300000000010
 11
471.8866
 21
269.792300000000010
  0
LINE
  8
PT2-Wymiarowanie5
  6
CONTINUOUS
 62
     7
 10
267.3866
 20
269.792300000000010
 11
268.3866
 21
269.792300000000010
  0
LINE
  8
PT2-Wymiarowanie5
  6
CONTINUOUS
 62
     7
 10
472.8866
 20
269.792300000000010
 11
471.8866
 21
269.792300000000010
  0
LINE
  8
PT2-Wymiarowanie5
  6
CONTINUOUS
 62
     7
 10
268.8866
 20
270.292199999999980
 11
267.8867
 21
269.292399999999990
  0
LINE
  8
PT2-Wymiarowanie5
  6
CONTINUOUS
 62
     7
 10
472.3866
 20
270.292199999999980
 11
471.3867
 21
269.292399999999990
  0
LINE
  8
PT2-Wymiarowanie5
  6
CONTINUOUS
 62
     7
 10
268.3866
 20
270.792300000000010
 11
268.3866
 21
268.792300000000010
  0
LINE
  8
PT2-Wymiarowanie5
  6
CONTINUOUS
 62
     7
 10
471.8866
 20
270.792300000000010
 11
471.8866
 21
268.792300000000010
  0
TEXT
  8
PT2-Wymiarowanie5
  6
CONTINUOUS
 62
     7
 10
330.632400000000020
 20
194.503600000000010
 40
2.000000000000000
  1
66
  0
LINE
  8
PT2-Wymiarowanie5
  6
CONTINUOUS
 62
     7
 10
328.8866
 20
193.049600000000000
 11
335.4982
 21
193.049600000000000
  0
LINE
  8
PT2-Wymiarowanie5
  6
CONTINUOUS
 62
     7
 10
327.8866
 20
193.049600000000000
 11
328.8866
 21
193.049600000000000
  0
LINE
  8
PT2-Wymiarowanie5
  6
CONTINUOUS
 62
     7
 10
336.4982
 20
193.049600000000000
 11
335.4982
 21
193.049600000000000
  0
LINE
  8
PT2-Wymiarowanie5
  6
CONTINUOUS
 62
     7
 10
329.3866
 20
193.549499999999990
 11
328.3867
 21
192.549700000000000
  0
LINE
  8
PT2-Wymiarowanie5
  6
CONTINUOUS
 62
     7
 10
335.9982
 20
193.549499999999990
 11
334.9983
 21
192.549700000000000
  0
LINE
  8
PT2-Wymiarowanie5
  6
CONTINUOUS
 62
     7
 10
328.8866
 20
192.049600000000000
 11
328.8866
 21
194.049600000000000
  0
LINE
  8
PT2-Wymiarowanie5
  6
CONTINUOUS
 62
     7
 10
335.4982
 20
192.049600000000000
 11
335.4982
 21
194.049600000000000
  0
LINE
  8
PT2-Wymiarowanie5
  6
CONTINUOUS
 62
     7
 10
328.8866
 20
236.232200000000010
 11
331.8866
 21
236.232200000000010
  0
LINE
  8
PT2-Wymiarowanie5
  6
CONTINUOUS
 62
     7
 10
327.8866
 20
236.232200000000010
 11
328.8866
 21
236.232200000000010
  0
LINE
  8
PT2-Wymiarowanie5
  6
CONTINUOUS
 62
     7
 10
332.8866
 20
236.232200000000010
 11
331.8866
 21
236.232200000000010
  0
LINE
  8
PT2-Wymiarowanie5
  6
CONTINUOUS
 62
     7
 10
329.3866
 20
236.732200000000010
 11
328.3867
 21
235.732300000000010
  0
LINE
  8
PT2-Wymiarowanie5
  6
CONTINUOUS
 62
     7
 10
332.3866
 20
236.732200000000010
 11
331.3867
 21
235.732300000000010
  0
LINE
  8
PT2-Wymiarowanie5
  6
CONTINUOUS
 62
     7
 10
328.8866
 20
237.232200000000010
 11
328.8866
 21
235.232200000000010
  0
LINE
  8
PT2-Wymiarowanie5
  6
CONTINUOUS
 62
     7
 10
331.8866
 20
237.232200000000010
 11
331.8866
 21
235.232200000000010
  0
TEXT
  8
PT2-Wymiarowanie5
  6
CONTINUOUS
 62
     7
 10
329.007200000000010
 20
237.212400000000000
 40
2.000000000000000
  1
30
  0
LINE
  8
PT2-Wymiarowanie5
  6
CONTINUOUS
 62
     7
 10
293.3871
 20
236.470599999999990
 11
291.8866
 21
236.470599999999990
  0
LINE
  8
PT2-Wymiarowanie5
  6
CONTINUOUS
 62
     7
 10
294.3871
 20
236.470599999999990
 11
293.3871
 21
236.470599999999990
  0
LINE
  8
PT2-Wymiarowanie5
  6
CONTINUOUS
 62
     7
 10
290.8866
 20
236.470599999999990
 11
291.8866
 21
236.470599999999990
  0
LINE
  8
PT2-Wymiarowanie5
  6
CONTINUOUS
 62
     7
 10
292.8871
 20
235.970699999999990
 11
293.887
 21
236.970499999999990
  0
LINE
  8
PT2-Wymiarowanie5
  6
CONTINUOUS
 62
     7
 10
291.3867
 20
235.970699999999990
 11
292.3866
 21
236.970499999999990
  0
LINE
  8
PT2-Wymiarowanie5
  6
CONTINUOUS
 62
     7
 10
293.3871
 20
237.470599999999990
 11
293.3871
 21
235.470599999999990
  0
LINE
  8
PT2-Wymiarowanie5
  6
CONTINUOUS
 62
     7
 10
291.8866
 20
237.470599999999990
 11
291.8866
 21
235.470599999999990
  0
TEXT
  8
PT2-Wymiarowanie5
  6
CONTINUOUS
 62
     7
 10
288.251100000000010
 20
237.974099999999990
 40
2.000000000000000
 50
360.000000000000000
  1
15
  0
LINE
  8
PT2-Wymiarowanie5
  6
CONTINUOUS
 62
     7
 10
320.0464
 20
244.884199999999990
 11
320.0464
 21
247.884199999999990
  0
LINE
  8
PT2-Wymiarowanie5
  6
CONTINUOUS
 62
     7
 10
320.0464
 20
243.884199999999990
 11
320.0464
 21
244.884199999999990
  0
LINE
  8
PT2-Wymiarowanie5
  6
CONTINUOUS
 62
     7
 10
320.0464
 20
248.884199999999990
 11
320.0464
 21
247.884199999999990
  0
LINE
  8
PT2-Wymiarowanie5
  6
CONTINUOUS
 62
     7
 10
319.5464
 20
245.384099999999990
 11
320.5463
 21
244.384300000000000
  0
LINE
  8
PT2-Wymiarowanie5
  6
CONTINUOUS
 62
     7
 10
319.5464
 20
248.384099999999990
 11
320.5463
 21
247.384300000000000
  0
LINE
  8
PT2-Wymiarowanie5
  6
CONTINUOUS
 62
     7
 10
321.0464
 20
244.884199999999990
 11
319.0464
 21
244.884199999999990
  0
LINE
  8
PT2-Wymiarowanie5
  6
CONTINUOUS
 62
     7
 10
321.0464
 20
247.884199999999990
 11
319.0464
 21
247.884199999999990
  0
TEXT
  8
PT2-Wymiarowanie5
  6
CONTINUOUS
 62
     7
 10
318.694599999999980
 20
245.084800000000000
 40
2.000000000000000
 50
90.000000000000000
  1
30
  0
LINE
  8
PT2-Wymiarowanie5
  6
CONTINUOUS
 62
     7
 10
365.489
 20
244.884199999999990
 11
365.489
 21
249.884300000000000
  0
LINE
  8
PT2-Wymiarowanie5
  6
CONTINUOUS
 62
     7
 10
365.489
 20
243.884199999999990
 11
365.489
 21
244.884199999999990
  0
LINE
  8
PT2-Wymiarowanie5
  6
CONTINUOUS
 62
     7
 10
365.489
 20
250.884300000000000
 11
365.489
 21
249.884300000000000
  0
LINE
  8
PT2-Wymiarowanie5
  6
CONTINUOUS
 62
     7
 10
364.9891
 20
245.384099999999990
 11
365.9889
 21
244.384300000000000
  0
LINE
  8
PT2-Wymiarowanie5
  6
CONTINUOUS
 62
     7
 10
364.9891
 20
250.384199999999990
 11
365.9889
 21
249.384400000000000
  0
LINE
  8
PT2-Wymiarowanie5
  6
CONTINUOUS
 62
     7
 10
366.489
 20
244.884199999999990
 11
364.489
 21
244.884199999999990
  0
LINE
  8
PT2-Wymiarowanie5
  6
CONTINUOUS
 62
     7
 10
366.489
 20
249.884300000000000
 11
364.489
 21
249.884300000000000
  0
TEXT
  8
PT2-Wymiarowanie5
  6
CONTINUOUS
 62
     7
 10
363.756399999999990
 20
246.354199999999990
 40
2.000000000000000
 50
90.000000000000000
  1
50
  0
TEXT
  8
PT2-Wymiarowanie5
  6
CONTINUOUS
 62
     7
 10
65.506600000000006
 20
312.169100000000010
 40
2.000000000000000
  1
2,77
  0
LINE
  8
PT2-Wymiarowanie5
  6
CONTINUOUS
 62
     7
 10
54.3866
 20
310.715100000000010
 11
82.0866
 21
310.715100000000010
  0
LINE
  8
PT2-Wymiarowanie5
  6
CONTINUOUS
 62
     7
 10
53.3866
 20
310.715100000000010
 11
54.3866
 21
310.715100000000010
  0
LINE
  8
PT2-Wymiarowanie5
  6
CONTINUOUS
 62
     7
 10
83.0866
 20
310.715100000000010
 11
82.0866
 21
310.715100000000010
  0
LINE
  8
PT2-Wymiarowanie5
  6
CONTINUOUS
 62
     7
 10
54.8866
 20
311.215000000000030
 11
53.8867
 21
310.215100000000010
  0
LINE
  8
PT2-Wymiarowanie5
  6
CONTINUOUS
 62
     7
 10
82.5866
 20
311.215000000000030
 11
81.5867
 21
310.215100000000010
  0
LINE
  8
PT2-Wymiarowanie5
  6
CONTINUOUS
 62
     7
 10
54.3866
 20
311.715100000000010
 11
54.3866
 21
309.715100000000010
  0
LINE
  8
PT2-Wymiarowanie5
  6
CONTINUOUS
 62
     7
 10
82.0866
 20
311.715100000000010
 11
82.0866
 21
309.715100000000010
  0
TEXT
  8
PT2-Wymiarowanie5
  6
CONTINUOUS
 62
     7
 10
112.906600000000000
 20
312.169100000000010
 40
2.000000000000000
  1
6,71
  0
LINE
  8
PT2-Wymiarowanie5
  6
CONTINUOUS
 62
     7
 10
82.0866
 20
310.715100000000010
 11
149.1866
 21
310.715100000000010
  0
LINE
  8
PT2-Wymiarowanie5
  6
CONTINUOUS
 62
     7
 10
81.0866
 20
310.715100000000010
 11
82.0866
 21
310.715100000000010
  0
LINE
  8
PT2-Wymiarowanie5
  6
CONTINUOUS
 62
     7
 10
150.1866
 20
310.715100000000010
 11
149.1866
 21
310.715100000000010
  0
LINE
  8
PT2-Wymiarowanie5
  6
CONTINUOUS
 62
     7
 10
82.5866
 20
311.215000000000030
 11
81.5867
 21
310.215100000000010
  0
LINE
  8
PT2-Wymiarowanie5
  6
CONTINUOUS
 62
     7
 10
149.6866
 20
311.215000000000030
 11
148.6867
 21
310.215100000000010
  0
LINE
  8
PT2-Wymiarowanie5
  6
CONTINUOUS
 62
     7
 10
82.0866
 20
311.715100000000010
 11
82.0866
 21
309.715100000000010
  0
LINE
  8
PT2-Wymiarowanie5
  6
CONTINUOUS
 62
     7
 10
149.1866
 20
311.715100000000010
 11
149.1866
 21
309.715100000000010
  0
TEXT
  8
PT2-Wymiarowanie5
  6
CONTINUOUS
 62
     7
 10
210.121500000000000
 20
358.811199999999990
 40
2.000000000000000
 50
339.500000000000000
  1
12,72
  0
TEXT
  8
PT2-Wymiarowanie5
  6
CONTINUOUS
 62
     7
 10
217.973500000000000
 20
356.654299999999980
 40
1.500000000000000
 50
339.500000000000000
  1
5
  0
LINE
  8
PT2-Wymiarowanie5
  6
CONTINUOUS
 62
     7
 10
153.0389
 20
377.498299999999970
 11
272.2389
 21
332.931300000000020
  0
LINE
  8
PT2-Wymiarowanie5
  6
CONTINUOUS
 62
     7
 10
152.1023
 20
377.848500000000000
 11
153.0389
 21
377.498299999999970
  0
LINE
  8
PT2-Wymiarowanie5
  6
CONTINUOUS
 62
     7
 10
273.1756
 20
332.581099999999990
 11
272.2389
 21
332.931300000000020
  0
LINE
  8
PT2-Wymiarowanie5
  6
CONTINUOUS
 62
     7
 10
153.6823
 20
377.791499999999980
 11
152.3956
 21
377.205100000000020
  0
LINE
  8
PT2-Wymiarowanie5
  6
CONTINUOUS
 62
     7
 10
272.8823
 20
333.224499999999980
 11
271.5956
 21
332.638100000000010
  0
LINE
  8
PT2-Wymiarowanie5
  6
CONTINUOUS
 62
     7
 10
153.3891
 20
378.435000000000000
 11
152.6887
 21
376.561600000000000
  0
LINE
  8
PT2-Wymiarowanie5
  6
CONTINUOUS
 62
     7
 10
272.5891
 20
333.867999999999990
 11
271.8887
 21
331.994599999999990
  0
TEXT
  8
PT2-Wymiarowanie5
  6
CONTINUOUS
 62
     7
 10
294.833599999999990
 20
281.111899999999990
 40
2.000000000000000
 50
450.000000000000000
  1
7,27
  0
TEXT
  8
PT2-Wymiarowanie5
  6
CONTINUOUS
 62
     7
 10
294.080600000000000
 20
287.994399999999980
 40
1.500000000000000
 50
450.000000000000000
  1
5
  0
LINE
  8
PT2-Wymiarowanie5
  6
CONTINUOUS
 62
     7
 10
296.3866
 20
322.627900000000010
 11
296.3866
 21
249.884300000000000
  0
LINE
  8
PT2-Wymiarowanie5
  6
CONTINUOUS
 62
     7
 10
296.3866
 20
323.627900000000010
 11
296.3866
 21
322.627900000000010
  0
LINE
  8
PT2-Wymiarowanie5
  6
CONTINUOUS
 62
     7
 10
296.3866
 20
248.884300000000000
 11
296.3866
 21
249.884300000000000
  0
LINE
  8
PT2-Wymiarowanie5
  6
CONTINUOUS
 62
     7
 10
296.8866
 20
322.127999999999990
 11
295.8867
 21
323.127799999999980
  0
LINE
  8
PT2-Wymiarowanie5
  6
CONTINUOUS
 62
     7
 10
296.8866
 20
249.384400000000000
 11
295.8867
 21
250.384199999999990
  0
LINE
  8
PT2-Wymiarowanie5
  6
CONTINUOUS
 62
     7
 10
297.3866
 20
322.627900000000010
 11
295.3866
 21
322.627900000000010
  0
LINE
  8
PT2-Wymiarowanie5
  6
CONTINUOUS
 62
     7
 10
297.3866
 20
249.884300000000000
 11
295.3866
 21
249.884300000000000
  0
TEXT
  8
PT2-Wymiarowanie5
  6
CONTINUOUS
 62
     7
 10
281.820299999999970
 20
226.823500000000000
 40
2.000000000000000
 50
450.000000000000000
  1
3,18
  0
TEXT
  8
PT2-Wymiarowanie5
  6
CONTINUOUS
 62
     7
 10
281.071800000000000
 20
233.706200000000000
 40
1.500000000000000
 50
450.000000000000000
  1
5
  0
LINE
  8
PT2-Wymiarowanie5
  6
CONTINUOUS
 62
     7
 10
283.3866
 20
247.889199999999990
 11
283.3639
 21
216.041100000000000
  0
LINE
  8
PT2-Wymiarowanie5
  6
CONTINUOUS
 62
     7
 10
283.3874
 20
248.889199999999990
 11
283.3866
 21
247.889199999999990
  0
LINE
  8
PT2-Wymiarowanie5
  6
CONTINUOUS
 62
     7
 10
283.3632
 20
215.041100000000000
 11
283.3639
 21
216.041100000000000
  0
LINE
  8
PT2-Wymiarowanie5
  6
CONTINUOUS
 62
     7
 10
283.8862
 20
247.388900000000010
 11
282.8871
 21
248.389500000000000
  0
LINE
  8
PT2-Wymiarowanie5
  6
CONTINUOUS
 62
     7
 10
283.8635
 20
215.540899999999990
 11
282.8643
 21
216.541400000000010
  0
LINE
  8
PT2-Wymiarowanie5
  6
CONTINUOUS
 62
     7
 10
282.3866
 20
247.889900000000010
 11
284.3866
 21
247.888499999999990
  0
LINE
  8
PT2-Wymiarowanie5
  6
CONTINUOUS
 62
     7
 10
282.3639
 20
216.041900000000000
 11
284.3639
 21
216.040400000000010
  0
TEXT
  8
PT2-Wymiarowanie5
  6
CONTINUOUS
 62
     7
 10
205.276600000000000
 20
311.438199999999990
 40
2.000000000000000
  1
11,92
  0
LINE
  8
PT2-Wymiarowanie5
  6
CONTINUOUS
 62
     7
 10
149.1866
 20
309.984199999999990
 11
268.3866
 21
309.984199999999990
  0
LINE
  8
PT2-Wymiarowanie5
  6
CONTINUOUS
 62
     7
 10
148.1866
 20
309.984199999999990
 11
149.1866
 21
309.984199999999990
  0
LINE
  8
PT2-Wymiarowanie5
  6
CONTINUOUS
 62
     7
 10
269.3866
 20
309.984199999999990
 11
268.3866
 21
309.984199999999990
  0
LINE
  8
PT2-Wymiarowanie5
  6
CONTINUOUS
 62
     7
 10
149.6866
 20
310.484100000000010
 11
148.6867
 21
309.484300000000020
  0
LINE
  8
PT2-Wymiarowanie5
  6
CONTINUOUS
 62
     7
 10
268.8866
 20
310.484100000000010
 11
267.8867
 21
309.484300000000020
  0
LINE
  8
PT2-Wymiarowanie5
  6
CONTINUOUS
 62
     7
 10
149.1866
 20
310.984199999999990
 11
149.1866
 21
308.984199999999990
  0
LINE
  8
PT2-Wymiarowanie5
  6
CONTINUOUS
 62
     7
 10
268.3866
 20
310.984199999999990
 11
268.3866
 21
308.984199999999990
  0
TEXT
  8
PT2-Wymiarowanie5
  6
CONTINUOUS
 62
     7
 10
235.856599999999990
 20
260.710100000000010
 40
2.000000000000000
 50
360.000000000000000
  1
5,96
  0
LINE
  8
PT2-Wymiarowanie5
  6
CONTINUOUS
 62
     7
 10
268.3866
 20
259.256100000000000
 11
208.7866
 21
259.256100000000000
  0
LINE
  8
PT2-Wymiarowanie5
  6
CONTINUOUS
 62
     7
 10
269.3866
 20
259.256100000000000
 11
268.3866
 21
259.256100000000000
  0
LINE
  8
PT2-Wymiarowanie5
  6
CONTINUOUS
 62
     7
 10
207.7866
 20
259.256100000000000
 11
208.7866
 21
259.256100000000000
  0
LINE
  8
PT2-Wymiarowanie5
  6
CONTINUOUS
 62
     7
 10
267.8867
 20
258.756200000000040
 11
268.8866
 21
259.755999999999970
  0
LINE
  8
PT2-Wymiarowanie5
  6
CONTINUOUS
 62
     7
 10
208.2867
 20
258.756200000000040
 11
209.2866
 21
259.755999999999970
  0
LINE
  8
PT2-Wymiarowanie5
  6
CONTINUOUS
 62
     7
 10
268.3866
 20
258.256100000000000
 11
268.3866
 21
260.256100000000000
  0
LINE
  8
PT2-Wymiarowanie5
  6
CONTINUOUS
 62
     7
 10
208.7866
 20
258.256100000000000
 11
208.7866
 21
260.256100000000000
  0
TEXT
  8
PT2-Wymiarowanie5
  6
CONTINUOUS
 62
     7
 10
189.281700000000000
 20
260.710100000000010
 40
2.000000000000000
 50
360.000000000000000
  1
3,35
  0
TEXT
  8
PT2-Wymiarowanie5
  6
CONTINUOUS
 62
     7
 10
195.560700000000000
 20
261.439100000000000
 40
1.500000000000000
 50
360.000000000000000
  1
5
  0
LINE
  8
PT2-Wymiarowanie5
  6
CONTINUOUS
 62
     7
 10
208.7867
 20
259.256100000000000
 11
175.2367
 21
259.256100000000000
  0
LINE
  8
PT2-Wymiarowanie5
  6
CONTINUOUS
 62
     7
 10
209.7867
 20
259.256100000000000
 11
208.7867
 21
259.256100000000000
  0
LINE
  8
PT2-Wymiarowanie5
  6
CONTINUOUS
 62
     7
 10
174.2367
 20
259.256100000000000
 11
175.2367
 21
259.256100000000000
  0
LINE
  8
PT2-Wymiarowanie5
  6
CONTINUOUS
 62
     7
 10
208.2867
 20
258.756200000000040
 11
209.2866
 21
259.755999999999970
  0
LINE
  8
PT2-Wymiarowanie5
  6
CONTINUOUS
 62
     7
 10
174.7367
 20
258.756200000000040
 11
175.7366
 21
259.755999999999970
  0
LINE
  8
PT2-Wymiarowanie5
  6
CONTINUOUS
 62
     7
 10
208.7867
 20
258.256100000000000
 11
208.7867
 21
260.256100000000000
  0
LINE
  8
PT2-Wymiarowanie5
  6
CONTINUOUS
 62
     7
 10
175.2367
 20
258.256100000000000
 11
175.2367
 21
260.256100000000000
  0
TEXT
  8
PT2-Wymiarowanie5
  6
CONTINUOUS
 62
     7
 10
111.301700000000000
 20
260.710100000000010
 40
2.000000000000000
 50
360.000000000000000
  1
12,08
  0
TEXT
  8
PT2-Wymiarowanie5
  6
CONTINUOUS
 62
     7
 10
119.374700000000000
 20
261.439100000000000
 40
1.500000000000000
 50
360.000000000000000
  1
5
  0
LINE
  8
PT2-Wymiarowanie5
  6
CONTINUOUS
 62
     7
 10
175.2367
 20
259.256100000000000
 11
54.3867
 21
259.256100000000000
  0
LINE
  8
PT2-Wymiarowanie5
  6
CONTINUOUS
 62
     7
 10
176.2367
 20
259.256100000000000
 11
175.2367
 21
259.256100000000000
  0
LINE
  8
PT2-Wymiarowanie5
  6
CONTINUOUS
 62
     7
 10
53.3867
 20
259.256100000000000
 11
54.3867
 21
259.256100000000000
  0
LINE
  8
PT2-Wymiarowanie5
  6
CONTINUOUS
 62
     7
 10
174.7367
 20
258.756200000000040
 11
175.7366
 21
259.755999999999970
  0
LINE
  8
PT2-Wymiarowanie5
  6
CONTINUOUS
 62
     7
 10
53.8867
 20
258.756200000000040
 11
54.8866
 21
259.755999999999970
  0
LINE
  8
PT2-Wymiarowanie5
  6
CONTINUOUS
 62
     7
 10
175.2367
 20
258.256100000000000
 11
175.2367
 21
260.256100000000000
  0
LINE
  8
PT2-Wymiarowanie5
  6
CONTINUOUS
 62
     7
 10
54.3867
 20
258.256100000000000
 11
54.3867
 21
260.256100000000000
  0
CIRCLE
  8
PT2-Dachy3
  6
CONTINUOUS
 62
     7
 10
79.086600000000004
 20
250.634300000000000
 40
0.750000000000000
  0
CIRCLE
  8
PT2-Dachy3
  6
CONTINUOUS
 62
     7
 10
146.186600000000000
 20
286.734199999999990
 40
0.826900000000000
  0
LINE
  8
PT2-Wymiarowanie5
  6
CONTINUOUS
 62
     7
 10
79.0866
 20
253.844600000000010
 11
82.0866
 21
253.844600000000010
  0
LINE
  8
PT2-Wymiarowanie5
  6
CONTINUOUS
 62
     7
 10
78.0866
 20
253.844600000000010
 11
79.0866
 21
253.844600000000010
  0
LINE
  8
PT2-Wymiarowanie5
  6
CONTINUOUS
 62
     7
 10
83.0866
 20
253.844600000000010
 11
82.0866
 21
253.844600000000010
  0
LINE
  8
PT2-Wymiarowanie5
  6
CONTINUOUS
 62
     7
 10
79.5866
 20
254.344500000000010
 11
78.5867
 21
253.344699999999990
  0
LINE
  8
PT2-Wymiarowanie5
  6
CONTINUOUS
 62
     7
 10
82.5866
 20
254.344500000000010
 11
81.5867
 21
253.344699999999990
  0
LINE
  8
PT2-Wymiarowanie5
  6
CONTINUOUS
 62
     7
 10
79.0866
 20
252.844600000000010
 11
79.0866
 21
254.844600000000010
  0
LINE
  8
PT2-Wymiarowanie5
  6
CONTINUOUS
 62
     7
 10
82.0866
 20
252.844600000000010
 11
82.0866
 21
254.844600000000010
  0
TEXT
  8
PT2-Wymiarowanie5
  6
CONTINUOUS
 62
     7
 10
78.990899999999996
 20
254.771099999999990
 40
2.000000000000000
  1
30
  0
CIRCLE
  8
PT2-Dachy3
  6
CONTINUOUS
 62
     7
 10
53.636600000000001
 20
244.884300000000000
 40
0.750000000000000
  0
LINE
  8
PT2-Wymiarowanie5
  6
CONTINUOUS
 62
     7
 10
49.3717
 20
249.884300000000000
 11
49.3717
 21
244.884300000000000
  0
LINE
  8
PT2-Wymiarowanie5
  6
CONTINUOUS
 62
     7
 10
49.3717
 20
250.884300000000000
 11
49.3717
 21
249.884300000000000
  0
LINE
  8
PT2-Wymiarowanie5
  6
CONTINUOUS
 62
     7
 10
49.3717
 20
243.884300000000000
 11
49.3717
 21
244.884300000000000
  0
LINE
  8
PT2-Wymiarowanie5
  6
CONTINUOUS
 62
     7
 10
49.8716
 20
249.384400000000000
 11
48.8718
 21
250.384199999999990
  0
LINE
  8
PT2-Wymiarowanie5
  6
CONTINUOUS
 62
     7
 10
49.8716
 20
244.384400000000000
 11
48.8718
 21
245.384199999999990
  0
LINE
  8
PT2-Wymiarowanie5
  6
CONTINUOUS
 62
     7
 10
48.3717
 20
249.884300000000000
 11
50.3717
 21
249.884300000000000
  0
LINE
  8
PT2-Wymiarowanie5
  6
CONTINUOUS
 62
     7
 10
48.3717
 20
244.884300000000000
 11
50.3717
 21
244.884300000000000
  0
TEXT
  8
PT2-Wymiarowanie5
  6
CONTINUOUS
 62
     7
 10
48.009599999999999
 20
243.367700000000010
 40
2.000000000000000
 50
450.000000000000000
  1
50
  0
CIRCLE
  8
PT2-Dachy3
  6
CONTINUOUS
 62
     7
 10
53.648699999999998
 20
85.884200000000021
 40
0.780400000000000
  0
LINE
  8
PT2-Wymiarowanie5
  6
CONTINUOUS
 62
     7
 10
48.3866
 20
80.884200000000021
 11
48.3866
 21
85.884200000000021
  0
LINE
  8
PT2-Wymiarowanie5
  6
CONTINUOUS
 62
     7
 10
48.3866
 20
79.884200000000021
 11
48.3866
 21
80.884200000000021
  0
LINE
  8
PT2-Wymiarowanie5
  6
CONTINUOUS
 62
     7
 10
48.3866
 20
86.884200000000021
 11
48.3866
 21
85.884200000000021
  0
LINE
  8
PT2-Wymiarowanie5
  6
CONTINUOUS
 62
     7
 10
47.8867
 20
81.384099999999989
 11
48.8866
 21
80.384299999999996
  0
LINE
  8
PT2-Wymiarowanie5
  6
CONTINUOUS
 62
     7
 10
47.8867
 20
86.384099999999989
 11
48.8866
 21
85.384299999999996
  0
LINE
  8
PT2-Wymiarowanie5
  6
CONTINUOUS
 62
     7
 10
47.3866
 20
80.884200000000021
 11
49.3866
 21
80.884200000000021
  0
LINE
  8
PT2-Wymiarowanie5
  6
CONTINUOUS
 62
     7
 10
47.3866
 20
85.884200000000021
 11
49.3866
 21
85.884200000000021
  0
TEXT
  8
PT2-Wymiarowanie5
  6
CONTINUOUS
 62
     7
 10
47.066600000000001
 20
82.408000000000015
 40
2.000000000000000
 50
90.000000000000000
  1
50
  0
CIRCLE
  8
PT2-Dachy3
  6
CONTINUOUS
 62
     7
 10
111.878200000000010
 20
80.134200000000021
 40
0.734600000000000
  0
CIRCLE
  8
PT2-Dachy3
  6
CONTINUOUS
 62
     7
 10
261.736300000000030
 20
80.133300000000020
 40
0.750800000000000
  0
CIRCLE
  8
PT2-Dachy3
  6
CONTINUOUS
 62
     7
 10
300.436199999999990
 20
80.133300000000020
 40
0.735000000000000
  0
CIRCLE
  8
PT2-Dachy3
  6
CONTINUOUS
 62
     7
 10
434.386599999999990
 20
80.088799999999992
 40
0.795300000000000
  0
CIRCLE
  8
PT2-Dachy3
  6
CONTINUOUS
 62
     7
 10
472.636599999999990
 20
85.884200000000021
 40
0.694100000000000
  0
CIRCLE
  8
PT2-Dachy3
  6
CONTINUOUS
 62
     7
 10
472.636599999999990
 20
244.884300000000000
 40
0.717500000000000
  0
CIRCLE
  8
PT2-Dachy3
  6
CONTINUOUS
 62
     7
 10
400.386599999999990
 20
250.634300000000000
 40
0.750000000000000
  0
CIRCLE
  8
PT2-Dachy3
  6
CONTINUOUS
 62
     7
 10
148.436600000000000
 20
354.199500000000000
 40
0.815500000000000
  0
TEXT
  8
PT2-Wymiarowanie5
  6
CONTINUOUS
 62
     7
 10
433.406600000000030
 20
257.482300000000010
 40
2.000000000000000
 50
360.000000000000000
  1
7,15
  0
LINE
  8
PT2-Wymiarowanie5
  6
CONTINUOUS
 62
     7
 10
471.8866
 20
256.028300000000000
 11
400.3866
 21
256.028300000000000
  0
LINE
  8
PT2-Wymiarowanie5
  6
CONTINUOUS
 62
     7
 10
472.8866
 20
256.028300000000000
 11
471.8866
 21
256.028300000000000
  0
LINE
  8
PT2-Wymiarowanie5
  6
CONTINUOUS
 62
     7
 10
399.3866
 20
256.028300000000000
 11
400.3866
 21
256.028300000000000
  0
LINE
  8
PT2-Wymiarowanie5
  6
CONTINUOUS
 62
     7
 10
471.3867
 20
255.528400000000000
 11
472.3866
 21
256.528300000000000
  0
LINE
  8
PT2-Wymiarowanie5
  6
CONTINUOUS
 62
     7
 10
399.8867
 20
255.528400000000000
 11
400.8866
 21
256.528300000000000
  0
LINE
  8
PT2-Wymiarowanie5
  6
CONTINUOUS
 62
     7
 10
471.8866
 20
257.028300000000000
 11
471.8866
 21
255.028300000000000
  0
LINE
  8
PT2-Wymiarowanie5
  6
CONTINUOUS
 62
     7
 10
400.3866
 20
257.028300000000000
 11
400.3866
 21
255.028300000000000
  0
LINE
  8
PT2-Wymiarowanie5
  6
CONTINUOUS
 62
     7
 10
480.2308
 20
249.884300000000000
 11
480.2308
 21
244.884300000000000
  0
LINE
  8
PT2-Wymiarowanie5
  6
CONTINUOUS
 62
     7
 10
480.2308
 20
250.884300000000000
 11
480.2308
 21
249.884300000000000
  0
LINE
  8
PT2-Wymiarowanie5
  6
CONTINUOUS
 62
     7
 10
480.2308
 20
243.884300000000000
 11
480.2308
 21
244.884300000000000
  0
LINE
  8
PT2-Wymiarowanie5
  6
CONTINUOUS
 62
     7
 10
480.7308
 20
249.384400000000000
 11
479.7309
 21
250.384199999999990
  0
LINE
  8
PT2-Wymiarowanie5
  6
CONTINUOUS
 62
     7
 10
480.7308
 20
244.384400000000000
 11
479.7309
 21
245.384199999999990
  0
LINE
  8
PT2-Wymiarowanie5
  6
CONTINUOUS
 62
     7
 10
481.2308
 20
249.884300000000000
 11
479.2308
 21
249.884300000000000
  0
LINE
  8
PT2-Wymiarowanie5
  6
CONTINUOUS
 62
     7
 10
481.2308
 20
244.884300000000000
 11
479.2308
 21
244.884300000000000
  0
TEXT
  8
PT2-Wymiarowanie5
  6
CONTINUOUS
 62
     7
 10
478.779800000000020
 20
243.175900000000010
 40
2.000000000000000
 50
450.000000000000000
  1
50
  0
LINE
  8
PT2-Wymiarowanie5
  6
CONTINUOUS
 62
     7
 10
478.9612
 20
80.884200000000021
 11
478.9612
 21
85.884200000000021
  0
LINE
  8
PT2-Wymiarowanie5
  6
CONTINUOUS
 62
     7
 10
478.9612
 20
79.884200000000021
 11
478.9612
 21
80.884200000000021
  0
LINE
  8
PT2-Wymiarowanie5
  6
CONTINUOUS
 62
     7
 10
478.9612
 20
86.884200000000021
 11
478.9612
 21
85.884200000000021
  0
LINE
  8
PT2-Wymiarowanie5
  6
CONTINUOUS
 62
     7
 10
478.4613
 20
81.384099999999989
 11
479.4612
 21
80.384299999999996
  0
LINE
  8
PT2-Wymiarowanie5
  6
CONTINUOUS
 62
     7
 10
478.4613
 20
86.384099999999989
 11
479.4612
 21
85.384299999999996
  0
LINE
  8
PT2-Wymiarowanie5
  6
CONTINUOUS
 62
     7
 10
479.9612
 20
80.884200000000021
 11
477.9612
 21
80.884200000000021
  0
LINE
  8
PT2-Wymiarowanie5
  6
CONTINUOUS
 62
     7
 10
479.9612
 20
85.884200000000021
 11
477.9612
 21
85.884200000000021
  0
TEXT
  8
PT2-Wymiarowanie5
  6
CONTINUOUS
 62
     7
 10
477.440699999999990
 20
81.786900000000003
 40
2.000000000000000
 50
90.000000000000000
  1
50
  0
TEXT
  8
PT2-Wymiarowanie5
  6
CONTINUOUS
 62
     7
 10
450.406600000000030
 20
71.152199999999993
 40
2.000000000000000
 50
360.000000000000000
  1
3,75
  0
LINE
  8
PT2-Wymiarowanie5
  6
CONTINUOUS
 62
     7
 10
471.8866
 20
69.698199999999986
 11
434.3866
 21
69.698199999999986
  0
LINE
  8
PT2-Wymiarowanie5
  6
CONTINUOUS
 62
     7
 10
472.8866
 20
69.698199999999986
 11
471.8866
 21
69.698199999999986
  0
LINE
  8
PT2-Wymiarowanie5
  6
CONTINUOUS
 62
     7
 10
433.3866
 20
69.698199999999986
 11
434.3866
 21
69.698199999999986
  0
LINE
  8
PT2-Wymiarowanie5
  6
CONTINUOUS
 62
     7
 10
471.3867
 20
69.198300000000017
 11
472.3866
 21
70.198199999999986
  0
LINE
  8
PT2-Wymiarowanie5
  6
CONTINUOUS
 62
     7
 10
433.8867
 20
69.198300000000017
 11
434.8866
 21
70.198199999999986
  0
LINE
  8
PT2-Wymiarowanie5
  6
CONTINUOUS
 62
     7
 10
471.8866
 20
68.698199999999986
 11
471.8866
 21
70.698199999999986
  0
LINE
  8
PT2-Wymiarowanie5
  6
CONTINUOUS
 62
     7
 10
434.3866
 20
68.698199999999986
 11
434.3866
 21
70.698199999999986
  0
TEXT
  8
PT2-Wymiarowanie5
  6
CONTINUOUS
 62
     7
 10
363.901700000000010
 20
71.152199999999993
 40
2.000000000000000
 50
360.000000000000000
  1
13,39
  0
TEXT
  8
PT2-Wymiarowanie5
  6
CONTINUOUS
 62
     7
 10
371.974699999999980
 20
71.881199999999978
 40
1.500000000000000
 50
360.000000000000000
  1
5
  0
LINE
  8
PT2-Wymiarowanie5
  6
CONTINUOUS
 62
     7
 10
434.3867
 20
69.698199999999986
 11
300.4367
 21
69.698199999999986
  0
LINE
  8
PT2-Wymiarowanie5
  6
CONTINUOUS
 62
     7
 10
435.3867
 20
69.698199999999986
 11
434.3867
 21
69.698199999999986
  0
LINE
  8
PT2-Wymiarowanie5
  6
CONTINUOUS
 62
     7
 10
299.4367
 20
69.698199999999986
 11
300.4367
 21
69.698199999999986
  0
LINE
  8
PT2-Wymiarowanie5
  6
CONTINUOUS
 62
     7
 10
433.8867
 20
69.198300000000017
 11
434.8866
 21
70.198199999999986
  0
LINE
  8
PT2-Wymiarowanie5
  6
CONTINUOUS
 62
     7
 10
299.9368
 20
69.198300000000017
 11
300.9367
 21
70.198199999999986
  0
LINE
  8
PT2-Wymiarowanie5
  6
CONTINUOUS
 62
     7
 10
434.3867
 20
68.698199999999986
 11
434.3866
 21
70.698199999999986
  0
LINE
  8
PT2-Wymiarowanie5
  6
CONTINUOUS
 62
     7
 10
300.4367
 20
68.698199999999986
 11
300.4367
 21
70.698199999999986
  0
TEXT
  8
PT2-Wymiarowanie5
  6
CONTINUOUS
 62
     7
 10
183.301400000000000
 20
71.526400000000024
 40
2.000000000000000
 50
360.000000000000000
  1
14,98
  0
TEXT
  8
PT2-Wymiarowanie5
  6
CONTINUOUS
 62
     7
 10
191.374400000000010
 20
72.255400000000009
 40
1.500000000000000
 50
360.000000000000000
  1
5
  0
LINE
  8
PT2-Wymiarowanie5
  6
CONTINUOUS
 62
     7
 10
261.7361
 20
70.072400000000016
 11
111.8866
 21
70.072400000000016
  0
LINE
  8
PT2-Wymiarowanie5
  6
CONTINUOUS
 62
     7
 10
262.7361
 20
70.072400000000016
 11
261.7361
 21
70.072400000000016
  0
LINE
  8
PT2-Wymiarowanie5
  6
CONTINUOUS
 62
     7
 10
110.8866
 20
70.072400000000016
 11
111.8866
 21
70.072400000000016
  0
LINE
  8
PT2-Wymiarowanie5
  6
CONTINUOUS
 62
     7
 10
261.2361
 20
69.572499999999991
 11
262.236
 21
70.572299999999984
  0
LINE
  8
PT2-Wymiarowanie5
  6
CONTINUOUS
 62
     7
 10
111.3867
 20
69.572499999999991
 11
112.3866
 21
70.572299999999984
  0
LINE
  8
PT2-Wymiarowanie5
  6
CONTINUOUS
 62
     7
 10
261.7361
 20
69.072400000000016
 11
261.7361
 21
71.072400000000016
  0
LINE
  8
PT2-Wymiarowanie5
  6
CONTINUOUS
 62
     7
 10
111.8866
 20
69.072400000000016
 11
111.8866
 21
71.072400000000016
  0
TEXT
  8
PT2-Wymiarowanie5
  6
CONTINUOUS
 62
     7
 10
80.406599999999997
 20
71.526400000000024
 40
2.000000000000000
 50
360.000000000000000
  1
5,75
  0
LINE
  8
PT2-Wymiarowanie5
  6
CONTINUOUS
 62
     7
 10
111.8866
 20
70.072400000000016
 11
54.3866
 21
70.072400000000016
  0
LINE
  8
PT2-Wymiarowanie5
  6
CONTINUOUS
 62
     7
 10
112.8866
 20
70.072400000000016
 11
111.8866
 21
70.072400000000016
  0
LINE
  8
PT2-Wymiarowanie5
  6
CONTINUOUS
 62
     7
 10
53.3866
 20
70.072400000000016
 11
54.3866
 21
70.072400000000016
  0
LINE
  8
PT2-Wymiarowanie5
  6
CONTINUOUS
 62
     7
 10
111.3867
 20
69.572499999999991
 11
112.3866
 21
70.572299999999984
  0
LINE
  8
PT2-Wymiarowanie5
  6
CONTINUOUS
 62
     7
 10
53.8867
 20
69.572499999999991
 11
54.8866
 21
70.572299999999984
  0
LINE
  8
PT2-Wymiarowanie5
  6
CONTINUOUS
 62
     7
 10
111.8866
 20
69.072400000000016
 11
111.8866
 21
71.072400000000016
  0
LINE
  8
PT2-Wymiarowanie5
  6
CONTINUOUS
 62
     7
 10
54.3866
 20
69.072400000000016
 11
54.3866
 21
71.072400000000016
  0
CIRCLE
  8
PT2-Dachy3
  6
CONTINUOUS
 62
     7
 10
269.136599999999990
 20
309.629099999999990
 40
0.777400000000000
  0
LINE
  8
PT2-Wymiarowanie5
  6
CONTINUOUS
 62
     7
 10
72.3861
 20
244.884199999999990
 11
72.3861
 21
249.884300000000000
  0
LINE
  8
PT2-Wymiarowanie5
  6
CONTINUOUS
 62
     7
 10
72.3861
 20
243.884199999999990
 11
72.3861
 21
244.884199999999990
  0
LINE
  8
PT2-Wymiarowanie5
  6
CONTINUOUS
 62
     7
 10
72.3861
 20
250.884300000000000
 11
72.3861
 21
249.884300000000000
  0
LINE
  8
PT2-Wymiarowanie5
  6
CONTINUOUS
 62
     7
 10
71.8862
 20
245.384099999999990
 11
72.8861
 21
244.384300000000000
  0
LINE
  8
PT2-Wymiarowanie5
  6
CONTINUOUS
 62
     7
 10
71.8862
 20
250.384199999999990
 11
72.8861
 21
249.384400000000000
  0
LINE
  8
PT2-Wymiarowanie5
  6
CONTINUOUS
 62
     7
 10
73.3861
 20
244.884199999999990
 11
71.3861
 21
244.884199999999990
  0
LINE
  8
PT2-Wymiarowanie5
  6
CONTINUOUS
 62
     7
 10
73.3861
 20
249.884300000000000
 11
71.3861
 21
249.884300000000000
  0
TEXT
  8
PT2-Wymiarowanie5
  6
CONTINUOUS
 62
     7
 10
70.450800000000001
 20
246.007299999999990
 40
2.000000000000000
 50
90.000000000000000
  1
50
  0
TEXT
  8
PT2-Wymiarowanie5
  6
CONTINUOUS
 62
     7
 10
105.951200000000000
 20
289.226400000000010
 40
2.000000000000000
 50
90.000000000000000
  1
50
  0
LINE
  8
PT2-Wymiarowanie5
  6
CONTINUOUS
 62
     7
 10
107.5042
 20
280.984199999999990
 11
107.5042
 21
285.984199999999990
  0
LINE
  8
PT2-Wymiarowanie5
  6
CONTINUOUS
 62
     7
 10
107.5042
 20
279.984199999999990
 11
107.5042
 21
280.984199999999990
  0
LINE
  8
PT2-Wymiarowanie5
  6
CONTINUOUS
 62
     7
 10
107.5042
 20
286.984199999999990
 11
107.5042
 21
285.984199999999990
  0
LINE
  8
PT2-Wymiarowanie5
  6
CONTINUOUS
 62
     7
 10
107.0042
 20
281.484100000000010
 11
108.0041
 21
280.484300000000020
  0
LINE
  8
PT2-Wymiarowanie5
  6
CONTINUOUS
 62
     7
 10
107.0042
 20
286.484100000000010
 11
108.0041
 21
285.484300000000020
  0
LINE
  8
PT2-Wymiarowanie5
  6
CONTINUOUS
 62
     7
 10
108.5042
 20
280.984199999999990
 11
106.5042
 21
280.984199999999990
  0
LINE
  8
PT2-Wymiarowanie5
  6
CONTINUOUS
 62
     7
 10
108.5042
 20
285.984199999999990
 11
106.5042
 21
285.984199999999990
  0
TEXT
  8
PT2-Wymiarowanie5
  6
CONTINUOUS
 62
     7
 10
89.913200000000003
 20
267.217899999999990
 40
2.000000000000000
  1
50
  0
LINE
  8
PT2-Wymiarowanie5
  6
CONTINUOUS
 62
     7
 10
82.0866
 20
265.763900000000040
 11
87.0852
 21
265.763900000000040
  0
LINE
  8
PT2-Wymiarowanie5
  6
CONTINUOUS
 62
     7
 10
81.0866
 20
265.763900000000040
 11
82.0866
 21
265.763900000000040
  0
LINE
  8
PT2-Wymiarowanie5
  6
CONTINUOUS
 62
     7
 10
88.0852
 20
265.763900000000040
 11
87.0852
 21
265.763900000000040
  0
LINE
  8
PT2-Wymiarowanie5
  6
CONTINUOUS
 62
     7
 10
82.5866
 20
266.263900000000040
 11
81.5867
 21
265.264000000000010
  0
LINE
  8
PT2-Wymiarowanie5
  6
CONTINUOUS
 62
     7
 10
87.5851
 20
266.263900000000040
 11
86.5853
 21
265.264000000000010
  0
LINE
  8
PT2-Wymiarowanie5
  6
CONTINUOUS
 62
     7
 10
82.0866
 20
264.763900000000040
 11
82.0866
 21
266.763900000000040
  0
LINE
  8
PT2-Wymiarowanie5
  6
CONTINUOUS
 62
     7
 10
87.0852
 20
264.763900000000040
 11
87.0852
 21
266.763900000000040
  0
TEXT
  8
PT2-Wymiarowanie5
  6
CONTINUOUS
 62
     7
 10
157.014600000000000
 20
324.462999999999970
 40
2.000000000000000
  1
50
  0
LINE
  8
PT2-Wymiarowanie5
  6
CONTINUOUS
 62
     7
 10
149.1866
 20
323.009000000000010
 11
154.1866
 21
323.009000000000010
  0
LINE
  8
PT2-Wymiarowanie5
  6
CONTINUOUS
 62
     7
 10
148.1866
 20
323.009000000000010
 11
149.1866
 21
323.009000000000010
  0
LINE
  8
PT2-Wymiarowanie5
  6
CONTINUOUS
 62
     7
 10
155.1866
 20
323.009000000000010
 11
154.1866
 21
323.009000000000010
  0
LINE
  8
PT2-Wymiarowanie5
  6
CONTINUOUS
 62
     7
 10
149.6866
 20
323.508899999999980
 11
148.6867
 21
322.509000000000010
  0
LINE
  8
PT2-Wymiarowanie5
  6
CONTINUOUS
 62
     7
 10
154.6866
 20
323.508899999999980
 11
153.6867
 21
322.509000000000010
  0
LINE
  8
PT2-Wymiarowanie5
  6
CONTINUOUS
 62
     7
 10
149.1866
 20
324.009000000000010
 11
149.1866
 21
322.009000000000010
  0
LINE
  8
PT2-Wymiarowanie5
  6
CONTINUOUS
 62
     7
 10
154.1866
 20
324.009000000000010
 11
154.1866
 21
322.009000000000010
  0
LINE
  8
PT2-Wymiarowanie5
  6
CONTINUOUS
 62
     7
 10
263.3866
 20
284.581000000000020
 11
268.3866
 21
284.581000000000020
  0
LINE
  8
PT2-Wymiarowanie5
  6
CONTINUOUS
 62
     7
 10
262.3866
 20
284.581000000000020
 11
263.3866
 21
284.581000000000020
  0
LINE
  8
PT2-Wymiarowanie5
  6
CONTINUOUS
 62
     7
 10
269.3866
 20
284.581000000000020
 11
268.3866
 21
284.581000000000020
  0
LINE
  8
PT2-Wymiarowanie5
  6
CONTINUOUS
 62
     7
 10
263.8866
 20
285.080899999999990
 11
262.8867
 21
284.081000000000020
  0
LINE
  8
PT2-Wymiarowanie5
  6
CONTINUOUS
 62
     7
 10
268.8866
 20
285.080899999999990
 11
267.8867
 21
284.081000000000020
  0
LINE
  8
PT2-Wymiarowanie5
  6
CONTINUOUS
 62
     7
 10
263.3866
 20
285.581000000000020
 11
263.3866
 21
283.581000000000020
  0
LINE
  8
PT2-Wymiarowanie5
  6
CONTINUOUS
 62
     7
 10
268.3866
 20
285.581000000000020
 11
268.3866
 21
283.581000000000020
  0
TEXT
  8
PT2-Wymiarowanie5
  6
CONTINUOUS
 62
     7
 10
264.497000000000010
 20
285.966999999999980
 40
2.000000000000000
  1
50
  0
LINE
  8
PT2-Dachy3
  6
CONTINUOUS
 62
     7
 10
285.2746
 20
142.335700000000000
 11
285.2746
 21
185.090200000000010
  0
LINE
  8
PT2-Dachy3
  6
CONTINUOUS
 62
     7
 10
285.2746
 20
185.090200000000010
 11
282.7561
 21
178.363200000000010
  0
LINE
  8
PT2-Dachy3
  6
CONTINUOUS
 62
     7
 10
282.7561
 20
178.363200000000010
 11
287.8108
 21
178.363200000000010
  0
LINE
  8
PT2-Dachy3
  6
CONTINUOUS
 62
     7
 10
287.8108
 20
178.363200000000010
 11
285.2746
 21
185.090200000000010
  0
LINE
  8
PT2-Dachy3
  6
CONTINUOUS
 62
     7
 10
285.2746
 20
142.335700000000000
 11
287.8108
 21
148.520900000000010
  0
LINE
  8
PT2-Dachy3
  6
CONTINUOUS
 62
     7
 10
287.8108
 20
148.520900000000010
 11
282.6589
 21
148.520900000000010
  0
LINE
  8
PT2-Dachy3
  6
CONTINUOUS
 62
     7
 10
282.6589
 20
148.520900000000010
 11
285.2746
 21
142.396899999999990
  0
CIRCLE
  8
PT2-Dachy3
  6
CONTINUOUS
 62
     7
 10
285.274600000000020
 20
165.384199999999990
 40
1.400700000000000
  0
LINE
  8
PT2-Dachy3
  6
CONTINUOUS
 62
     7
 10
164.142
 20
192.834200000000010
 11
187.0354
 21
192.834200000000010
  0
LINE
  8
PT2-Dachy3
  6
CONTINUOUS
 62
     7
 10
164.142
 20
192.834200000000010
 11
169.1674
 21
194.788500000000000
  0
LINE
  8
PT2-Dachy3
  6
CONTINUOUS
 62
     7
 10
169.1674
 20
194.788500000000000
 11
169.1674
 21
191.019499999999990
  0
LINE
  8
PT2-Dachy3
  6
CONTINUOUS
 62
     7
 10
169.1674
 20
191.019499999999990
 11
164.142
 21
192.834200000000010
  0
LINE
  8
PT2-Dachy3
  6
CONTINUOUS
 62
     7
 10
187.0354
 20
192.834200000000010
 11
183.1268
 21
194.928100000000000
  0
LINE
  8
PT2-Dachy3
  6
CONTINUOUS
 62
     7
 10
183.1268
 20
194.928100000000000
 11
183.1268
 21
191.019499999999990
  0
LINE
  8
PT2-Dachy3
  6
CONTINUOUS
 62
     7
 10
183.1268
 20
191.019499999999990
 11
187.0354
 21
192.834200000000010
  0
CIRCLE
  8
PT2-Dachy3
  6
CONTINUOUS
 62
     7
 10
175.236600000000010
 20
192.834200000000010
 40
1.571100000000000
  0
LINE
  8
PT2-Dachy3
  6
CONTINUOUS
 62
     7
 10
138.8866
 20
165.384199999999990
 11
110.8172
 21
165.375699999999990
  0
LINE
  8
PT2-Dachy3
  6
CONTINUOUS
 62
     7
 10
110.8172
 20
165.375699999999990
 11
115.9822
 21
167.050800000000010
  0
LINE
  8
PT2-Dachy3
  6
CONTINUOUS
 62
     7
 10
115.9822
 20
167.050800000000010
 11
115.9822
 21
163.561000000000010
  0
LINE
  8
PT2-Dachy3
  6
CONTINUOUS
 62
     7
 10
115.9822
 20
163.561000000000010
 11
110.8172
 21
165.375699999999990
  0
CIRCLE
  8
PT2-Dachy3
  6
CONTINUOUS
 62
     7
 10
138.886599999999990
 20
165.384199999999990
 40
1.462400000000000
  0
LINE
  8
PT2-Dachy3
  6
CONTINUOUS
 62
     7
 10
138.8866
 20
165.384199999999990
 11
138.8756
 21
185.477200000000010
  0
LINE
  8
PT2-Dachy3
  6
CONTINUOUS
 62
     7
 10
138.8756
 20
185.477200000000010
 11
137.6192
 21
180.451799999999990
  0
LINE
  8
PT2-Dachy3
  6
CONTINUOUS
 62
     7
 10
137.6192
 20
180.451799999999990
 11
140.4111
 21
180.451799999999990
  0
LINE
  8
PT2-Dachy3
  6
CONTINUOUS
 62
     7
 10
140.4111
 20
180.451799999999990
 11
138.8756
 21
185.477200000000010
  0
LINE
  8
PT2-Dachy3
  6
CONTINUOUS
 62
     7
 10
175.2366
 20
192.834200000000010
 11
175.2441
 21
210.672599999999990
  0
LINE
  8
PT2-Dachy3
  6
CONTINUOUS
 62
     7
 10
175.2441
 20
210.672599999999990
 11
173.6007
 21
205.294000000000010
  0
LINE
  8
PT2-Dachy3
  6
CONTINUOUS
 62
     7
 10
173.6007
 20
205.294000000000010
 11
177.1864
 21
205.294000000000010
  0
LINE
  8
PT2-Dachy3
  6
CONTINUOUS
 62
     7
 10
177.1864
 20
205.294000000000010
 11
175.2441
 21
210.672599999999990
  0
LINE
  8
PT2-Dachy3
  6
CONTINUOUS
 62
     7
 10
197.692
 20
281.281900000000010
 11
220.5854
 21
281.281900000000010
  0
LINE
  8
PT2-Dachy3
  6
CONTINUOUS
 62
     7
 10
197.692
 20
281.281900000000010
 11
202.7174
 21
283.236200000000000
  0
LINE
  8
PT2-Dachy3
  6
CONTINUOUS
 62
     7
 10
202.7174
 20
283.236200000000000
 11
202.7174
 21
279.467199999999990
  0
LINE
  8
PT2-Dachy3
  6
CONTINUOUS
 62
     7
 10
202.7174
 20
279.467199999999990
 11
197.692
 21
281.281900000000010
  0
LINE
  8
PT2-Dachy3
  6
CONTINUOUS
 62
     7
 10
220.5854
 20
281.281900000000010
 11
216.6768
 21
283.375800000000030
  0
LINE
  8
PT2-Dachy3
  6
CONTINUOUS
 62
     7
 10
216.6768
 20
283.375800000000030
 11
216.6768
 21
279.467199999999990
  0
LINE
  8
PT2-Dachy3
  6
CONTINUOUS
 62
     7
 10
216.6768
 20
279.467199999999990
 11
220.5854
 21
281.281900000000010
  0
CIRCLE
  8
PT2-Dachy3
  6
CONTINUOUS
 62
     7
 10
208.786599999999990
 20
281.281900000000010
 40
1.571100000000000
  0
LINE
  8
PT2-Dachy3
  6
CONTINUOUS
 62
     7
 10
387.3866
 20
165.384199999999990
 11
405.7216
 21
165.414099999999990
  0
LINE
  8
PT2-Dachy3
  6
CONTINUOUS
 62
     7
 10
405.7216
 20
165.414099999999990
 11
402.0106
 21
166.238800000000000
  0
LINE
  8
PT2-Dachy3
  6
CONTINUOUS
 62
     7
 10
402.0106
 20
166.238800000000000
 11
402.0106
 21
164.314500000000010
  0
LINE
  8
PT2-Dachy3
  6
CONTINUOUS
 62
     7
 10
402.0106
 20
164.314500000000010
 11
405.7216
 21
165.414099999999990
  0
CIRCLE
  8
PT2-Dachy3
  6
CONTINUOUS
 62
     7
 10
387.386599999999990
 20
165.384199999999990
 40
1.086600000000000
  0
TEXT
  8
PT2-Dachy3
  6
CONTINUOUS
 62
     7
 10
352.108000000000000
 20
311.885899999999990
 40
3.500000000000000
  1
Uwaga:
  0
TEXT
  8
PT2-Dachy3
  6
CONTINUOUS
 62
     7
 10
352.108000000000000
 20
306.635899999999990
 40
3.500000000000000
  1
Nachylenie wszystkich 
  0
TEXT
  8
PT2-Dachy3
  6
CONTINUOUS
 62
     7
 10
352.108000000000000
 20
301.385899999999990
 40
3.500000000000000
  1
połaci dachowych wynosi 
  0
TEXT
  8
PT2-Dachy3
  6
CONTINUOUS
 62
     7
 10
352.108000000000000
 20
296.135899999999990
 40
3.500000000000000
  1
33
  0
TEXT
  8
PT2-Dachy3
  6
CONTINUOUS
 62
     7
 10
357.425799999999980
 20
297.300299999999990
 40
1.800000000000000
  1
o
  0
TEXT
  8
PT2-Opis4
  6
CONTINUOUS
 62
     7
 10
338.876300000000010
 20
232.389299999999990
 40
2.500000000000000
  1
Okna dachowe FAKRO typu 
  0
TEXT
  8
PT2-Opis4
  6
CONTINUOUS
 62
     7
 10
338.876300000000010
 20
228.639299999999990
 40
2.500000000000000
  1
FT o wym. 78x118 cm
  0
TEXT
  8
PT2-Wymiarowanie5
  6
CONTINUOUS
 62
     7
 10
337.838199999999970
 20
195.019800000000000
 40
2.000000000000000
  1
78
  0
LINE
  8
PT2-Wymiarowanie5
  6
CONTINUOUS
 62
     7
 10
335.4982
 20
193.565800000000000
 11
343.2982
 21
193.565800000000000
  0
LINE
  8
PT2-Wymiarowanie5
  6
CONTINUOUS
 62
     7
 10
334.4982
 20
193.565800000000000
 11
335.4982
 21
193.565800000000000
  0
LINE
  8
PT2-Wymiarowanie5
  6
CONTINUOUS
 62
     7
 10
344.2982
 20
193.565800000000000
 11
343.2982
 21
193.565800000000000
  0
LINE
  8
PT2-Wymiarowanie5
  6
CONTINUOUS
 62
     7
 10
335.9982
 20
194.065800000000000
 11
334.9983
 21
193.065900000000000
  0
LINE
  8
PT2-Wymiarowanie5
  6
CONTINUOUS
 62
     7
 10
343.7982
 20
194.065800000000000
 11
342.7983
 21
193.065900000000000
  0
LINE
  8
PT2-Wymiarowanie5
  6
CONTINUOUS
 62
     7
 10
335.4982
 20
192.565800000000000
 11
335.4982
 21
194.565800000000000
  0
LINE
  8
PT2-Wymiarowanie5
  6
CONTINUOUS
 62
     7
 10
343.2982
 20
192.565800000000000
 11
343.2982
 21
194.565800000000000
  0
TEXT
  8
PT2-Wymiarowanie5
  6
CONTINUOUS
 62
     7
 10
345.668200000000010
 20
195.019800000000000
 40
2.000000000000000
  1
1,02
  0
LINE
  8
PT2-Wymiarowanie5
  6
CONTINUOUS
 62
     7
 10
343.2982
 20
193.565800000000000
 11
353.4982
 21
193.565800000000000
  0
LINE
  8
PT2-Wymiarowanie5
  6
CONTINUOUS
 62
     7
 10
342.2982
 20
193.565800000000000
 11
343.2982
 21
193.565800000000000
  0
LINE
  8
PT2-Wymiarowanie5
  6
CONTINUOUS
 62
     7
 10
354.4982
 20
193.565800000000000
 11
353.4982
 21
193.565800000000000
  0
LINE
  8
PT2-Wymiarowanie5
  6
CONTINUOUS
 62
     7
 10
343.7982
 20
194.065800000000000
 11
342.7983
 21
193.065900000000000
  0
LINE
  8
PT2-Wymiarowanie5
  6
CONTINUOUS
 62
     7
 10
353.9982
 20
194.065800000000000
 11
352.9983
 21
193.065900000000000
  0
LINE
  8
PT2-Wymiarowanie5
  6
CONTINUOUS
 62
     7
 10
343.2982
 20
192.565800000000000
 11
343.2982
 21
194.565800000000000
  0
LINE
  8
PT2-Wymiarowanie5
  6
CONTINUOUS
 62
     7
 10
353.4982
 20
192.565800000000000
 11
353.4982
 21
194.565800000000000
  0
TEXT
  8
PT2-Wymiarowanie5
  6
CONTINUOUS
 62
     7
 10
355.838199999999970
 20
195.019800000000000
 40
2.000000000000000
  1
78
  0
LINE
  8
PT2-Wymiarowanie5
  6
CONTINUOUS
 62
     7
 10
353.4982
 20
193.565800000000000
 11
361.2982
 21
193.565800000000000
  0
LINE
  8
PT2-Wymiarowanie5
  6
CONTINUOUS
 62
     7
 10
352.4982
 20
193.565800000000000
 11
353.4982
 21
193.565800000000000
  0
LINE
  8
PT2-Wymiarowanie5
  6
CONTINUOUS
 62
     7
 10
362.2982
 20
193.565800000000000
 11
361.2982
 21
193.565800000000000
  0
LINE
  8
PT2-Wymiarowanie5
  6
CONTINUOUS
 62
     7
 10
353.9982
 20
194.065800000000000
 11
352.9983
 21
193.065900000000000
  0
LINE
  8
PT2-Wymiarowanie5
  6
CONTINUOUS
 62
     7
 10
361.7982
 20
194.065800000000000
 11
360.7983
 21
193.065900000000000
  0
LINE
  8
PT2-Wymiarowanie5
  6
CONTINUOUS
 62
     7
 10
353.4982
 20
192.565800000000000
 11
353.4982
 21
194.565800000000000
  0
LINE
  8
PT2-Wymiarowanie5
  6
CONTINUOUS
 62
     7
 10
361.2982
 20
192.565800000000000
 11
361.2982
 21
194.565800000000000
  0
TEXT
  8
PT2-Wymiarowanie5
  6
CONTINUOUS
 62
     7
 10
363.668200000000010
 20
195.019800000000000
 40
2.000000000000000
  1
1,02
  0
LINE
  8
PT2-Wymiarowanie5
  6
CONTINUOUS
 62
     7
 10
361.2982
 20
193.565800000000000
 11
371.4982
 21
193.565800000000000
  0
LINE
  8
PT2-Wymiarowanie5
  6
CONTINUOUS
 62
     7
 10
360.2982
 20
193.565800000000000
 11
361.2982
 21
193.565800000000000
  0
LINE
  8
PT2-Wymiarowanie5
  6
CONTINUOUS
 62
     7
 10
372.4982
 20
193.565800000000000
 11
371.4982
 21
193.565800000000000
  0
LINE
  8
PT2-Wymiarowanie5
  6
CONTINUOUS
 62
     7
 10
361.7982
 20
194.065800000000000
 11
360.7983
 21
193.065900000000000
  0
LINE
  8
PT2-Wymiarowanie5
  6
CONTINUOUS
 62
     7
 10
371.9982
 20
194.065800000000000
 11
370.9983
 21
193.065900000000000
  0
LINE
  8
PT2-Wymiarowanie5
  6
CONTINUOUS
 62
     7
 10
361.2982
 20
192.565800000000000
 11
361.2982
 21
194.565800000000000
  0
LINE
  8
PT2-Wymiarowanie5
  6
CONTINUOUS
 62
     7
 10
371.4982
 20
192.565800000000000
 11
371.4982
 21
194.565800000000000
  0
TEXT
  8
PT2-Wymiarowanie5
  6
CONTINUOUS
 62
     7
 10
373.838199999999970
 20
195.019800000000000
 40
2.000000000000000
  1
78
  0
LINE
  8
PT2-Wymiarowanie5
  6
CONTINUOUS
 62
     7
 10
371.4982
 20
193.565800000000000
 11
379.2982
 21
193.565800000000000
  0
LINE
  8
PT2-Wymiarowanie5
  6
CONTINUOUS
 62
     7
 10
370.4982
 20
193.565800000000000
 11
371.4982
 21
193.565800000000000
  0
LINE
  8
PT2-Wymiarowanie5
  6
CONTINUOUS
 62
     7
 10
380.2982
 20
193.565800000000000
 11
379.2982
 21
193.565800000000000
  0
LINE
  8
PT2-Wymiarowanie5
  6
CONTINUOUS
 62
     7
 10
371.9982
 20
194.065800000000000
 11
370.9983
 21
193.065900000000000
  0
LINE
  8
PT2-Wymiarowanie5
  6
CONTINUOUS
 62
     7
 10
379.7982
 20
194.065800000000000
 11
378.7983
 21
193.065900000000000
  0
LINE
  8
PT2-Wymiarowanie5
  6
CONTINUOUS
 62
     7
 10
371.4982
 20
192.565800000000000
 11
371.4982
 21
194.565800000000000
  0
LINE
  8
PT2-Wymiarowanie5
  6
CONTINUOUS
 62
     7
 10
379.2982
 20
192.565800000000000
 11
379.2982
 21
194.565800000000000
  0
TEXT
  8
PT2-Dachy3
  6
CONTINUOUS
 62
     7
 10
85.235100000000003
 20
303.193499999999970
 40
1.800000000000000
  1
Klapa oddymiająca MCR-Prolight typu PR
  0
TEXT
  8
PT2-Dachy3
  6
CONTINUOUS
 62
     7
 10
85.235100000000003
 20
300.493499999999980
 40
1.800000000000000
  1
na podstawie kwadratowej typu C o 
  0
TEXT
  8
PT2-Dachy3
  6
CONTINUOUS
 62
     7
 10
85.235100000000003
 20
297.793499999999990
 40
1.800000000000000
  1
rozmiarach światła otworu 100x100 cm
  0
LINE
  8
PT2-Dachy3
  6
CONTINUOUS
 62
     7
 10
83.7905
 20
295.603999999999980
 11
134.2049
 21
295.603999999999980
  0
LINE
  8
PT2-Dachy3
  6
CONTINUOUS
 62
     7
 10
134.2049
 20
295.603999999999980
 11
134.2049
 21
305.426800000000010
  0
LINE
  8
PT2-Dachy3
  6
CONTINUOUS
 62
     7
 10
134.2049
 20
305.426800000000010
 11
83.7905
 21
305.426800000000010
  0
LINE
  8
PT2-Dachy3
  6
CONTINUOUS
 62
     7
 10
83.7905
 20
305.426800000000010
 11
83.7905
 21
295.603999999999980
  0
LINE
  8
PT2-Rzut2
  6
CONTINUOUS
 62
     7
 10
138.5851
 20
256.984199999999990
 11
148.5857
 21
256.984199999999990
  0
LINE
  8
PT2-Rzut2
  6
CONTINUOUS
 62
     7
 10
148.5857
 20
256.984199999999990
 11
148.5857
 21
266.984199999999990
  0
LINE
  8
PT2-Rzut2
  6
CONTINUOUS
 62
     7
 10
148.5857
 20
266.984199999999990
 11
138.5851
 21
266.984199999999990
  0
LINE
  8
PT2-Rzut2
  6
CONTINUOUS
 62
     7
 10
138.5851
 20
266.984199999999990
 11
138.5851
 21
256.984199999999990
  0
LINE
  8
PT2-Rzut2
  6
CONTINUOUS
 62
     7
 10
138.5857
 20
266.984199999999990
 11
148.5857
 21
256.984199999999990
  0
LINE
  8
PT2-Rzut2
  6
CONTINUOUS
 62
     7
 10
138.5851
 20
256.984199999999990
 11
148.5857
 21
266.984199999999990
  0
TEXT
  8
PT2-Rzut2
  6
CONTINUOUS
 62
     7
 10
130.797500000000010
 20
259.668400000000020
 40
2.000000000000000
 50
90.000000000000000
  1
1,00
  0
LINE
  8
PT2-Rzut2
  6
CONTINUOUS
 62
     7
 10
132.3505
 20
256.984199999999990
 11
132.3505
 21
266.984199999999990
  0
LINE
  8
PT2-Rzut2
  6
CONTINUOUS
 62
     7
 10
132.3505
 20
255.984199999999990
 11
132.3505
 21
256.984199999999990
  0
LINE
  8
PT2-Rzut2
  6
CONTINUOUS
 62
     7
 10
132.3505
 20
267.984199999999990
 11
132.3505
 21
266.984199999999990
  0
LINE
  8
PT2-Rzut2
  6
CONTINUOUS
 62
     7
 10
131.8506
 20
257.484100000000010
 11
132.8504
 21
256.484299999999960
  0
LINE
  8
PT2-Rzut2
  6
CONTINUOUS
 62
     7
 10
131.8506
 20
267.484100000000010
 11
132.8504
 21
266.484300000000020
  0
LINE
  8
PT2-Rzut2
  6
CONTINUOUS
 62
     7
 10
131.3505
 20
256.984199999999990
 11
133.3505
 21
256.984199999999990
  0
LINE
  8
PT2-Rzut2
  6
CONTINUOUS
 62
     7
 10
131.3505
 20
266.984199999999990
 11
133.3505
 21
266.984199999999990
  0
TEXT
  8
PT2-Rzut2
  6
CONTINUOUS
 62
     7
 10
130.797500000000010
 20
269.668400000000020
 40
2.000000000000000
 50
90.000000000000000
  1
1,00
  0
LINE
  8
PT2-Rzut2
  6
CONTINUOUS
 62
     7
 10
132.3505
 20
266.984199999999990
 11
132.3505
 21
276.984199999999990
  0
LINE
  8
PT2-Rzut2
  6
CONTINUOUS
 62
     7
 10
132.3505
 20
265.984199999999990
 11
132.3505
 21
266.984199999999990
  0
LINE
  8
PT2-Rzut2
  6
CONTINUOUS
 62
     7
 10
132.3505
 20
277.984199999999990
 11
132.3505
 21
276.984199999999990
  0
LINE
  8
PT2-Rzut2
  6
CONTINUOUS
 62
     7
 10
131.8506
 20
267.484100000000010
 11
132.8504
 21
266.484300000000020
  0
LINE
  8
PT2-Rzut2
  6
CONTINUOUS
 62
     7
 10
131.8506
 20
277.484100000000010
 11
132.8504
 21
276.484300000000020
  0
LINE
  8
PT2-Rzut2
  6
CONTINUOUS
 62
     7
 10
131.3505
 20
266.984199999999990
 11
133.3505
 21
266.984199999999990
  0
LINE
  8
PT2-Rzut2
  6
CONTINUOUS
 62
     7
 10
131.3505
 20
276.984199999999990
 11
133.3505
 21
276.984199999999990
  0
TEXT
  8
PT2-Rzut2
  6
CONTINUOUS
 62
     7
 10
140.855999999999990
 20
274.057900000000020
 40
2.000000000000000
  1
1,00
  0
LINE
  8
PT2-Rzut2
  6
CONTINUOUS
 62
     7
 10
138.586
 20
272.603900000000010
 11
148.586
 21
272.603900000000010
  0
LINE
  8
PT2-Rzut2
  6
CONTINUOUS
 62
     7
 10
137.586
 20
272.603900000000010
 11
138.586
 21
272.603900000000010
  0
LINE
  8
PT2-Rzut2
  6
CONTINUOUS
 62
     7
 10
149.586
 20
272.603900000000010
 11
148.586
 21
272.603900000000010
  0
LINE
  8
PT2-Rzut2
  6
CONTINUOUS
 62
     7
 10
139.0859
 20
273.103799999999980
 11
138.0861
 21
272.103999999999980
  0
LINE
  8
PT2-Rzut2
  6
CONTINUOUS
 62
     7
 10
149.0859
 20
273.103799999999980
 11
148.0861
 21
272.103999999999980
  0
LINE
  8
PT2-Rzut2
  6
CONTINUOUS
 62
     7
 10
138.586
 20
273.603900000000010
 11
138.586
 21
271.603900000000010
  0
LINE
  8
PT2-Rzut2
  6
CONTINUOUS
 62
     7
 10
148.586
 20
273.603900000000010
 11
148.586
 21
271.603900000000010
  0
LINE
  8
PT2-Rzut2
  6
CONTINUOUS
 62
     7
 10
148.586
 20
272.603900000000010
 11
151.0859
 21
272.603900000000010
  0
LINE
  8
PT2-Rzut2
  6
CONTINUOUS
 62
     7
 10
147.586
 20
272.603900000000010
 11
148.586
 21
272.603900000000010
  0
LINE
  8
PT2-Rzut2
  6
CONTINUOUS
 62
     7
 10
152.0859
 20
272.603900000000010
 11
151.0859
 21
272.603900000000010
  0
LINE
  8
PT2-Rzut2
  6
CONTINUOUS
 62
     7
 10
149.0859
 20
273.103799999999980
 11
148.0861
 21
272.103999999999980
  0
LINE
  8
PT2-Rzut2
  6
CONTINUOUS
 62
     7
 10
151.5859
 20
273.103799999999980
 11
150.586
 21
272.103999999999980
  0
LINE
  8
PT2-Rzut2
  6
CONTINUOUS
 62
     7
 10
148.586
 20
273.603900000000010
 11
148.586
 21
271.603900000000010
  0
LINE
  8
PT2-Rzut2
  6
CONTINUOUS
 62
     7
 10
151.0859
 20
273.603900000000010
 11
151.0859
 21
271.603900000000010
  0
TEXT
  8
PT2-Rzut2
  6
CONTINUOUS
 62
     7
 10
151.040500000000010
 20
274.228600000000030
 40
2.000000000000000
  1
25
  0
LINE
  8
PT2-Rzut2
  6
CONTINUOUS
 62
     7
 10
134.2049
 20
299.907100000000010
 11
140.6319
 21
298.967600000000000
  0
LINE
  8
PT2-Rzut2
  6
CONTINUOUS
 62
     7
 10
140.6319
 20
298.967600000000000
 11
140.7493
 21
261.973700000000010
  0
LINE
  8
PT2-Rzut2
  6
CONTINUOUS
 62
     7
 10
306.8866
 20
182.634999999999990
 11
316.8866
 21
182.634999999999990
  0
LINE
  8
PT2-Rzut2
  6
CONTINUOUS
 62
     7
 10
316.8866
 20
182.634999999999990
 11
316.8866
 21
192.635700000000010
  0
LINE
  8
PT2-Rzut2
  6
CONTINUOUS
 62
     7
 10
316.8866
 20
192.635700000000010
 11
306.8866
 21
192.635700000000010
  0
LINE
  8
PT2-Rzut2
  6
CONTINUOUS
 62
     7
 10
306.8866
 20
192.635700000000010
 11
306.8866
 21
182.634999999999990
  0
LINE
  8
PT2-Rzut2
  6
CONTINUOUS
 62
     7
 10
306.8866
 20
182.634999999999990
 11
316.8866
 21
192.635700000000010
  0
LINE
  8
PT2-Rzut2
  6
CONTINUOUS
 62
     7
 10
306.8866
 20
192.634999999999990
 11
316.8732
 21
182.635700000000010
  0
TEXT
  8
PT2-Rzut2
  6
CONTINUOUS
 62
     7
 10
300.330699999999980
 20
185.318999999999990
 40
2.000000000000000
 50
90.000000000000000
  1
1,00
  0
LINE
  8
PT2-Rzut2
  6
CONTINUOUS
 62
     7
 10
301.8837
 20
182.634800000000010
 11
301.8837
 21
192.634800000000010
  0
LINE
  8
PT2-Rzut2
  6
CONTINUOUS
 62
     7
 10
301.8837
 20
181.634800000000010
 11
301.8837
 21
182.634800000000010
  0
LINE
  8
PT2-Rzut2
  6
CONTINUOUS
 62
     7
 10
301.8837
 20
193.634800000000010
 11
301.8837
 21
192.634800000000010
  0
LINE
  8
PT2-Rzut2
  6
CONTINUOUS
 62
     7
 10
301.3838
 20
183.134700000000010
 11
302.3836
 21
182.134899999999990
  0
LINE
  8
PT2-Rzut2
  6
CONTINUOUS
 62
     7
 10
301.3838
 20
193.134700000000010
 11
302.3836
 21
192.134899999999990
  0
LINE
  8
PT2-Rzut2
  6
CONTINUOUS
 62
     7
 10
300.8837
 20
182.634800000000010
 11
302.8837
 21
182.634800000000010
  0
LINE
  8
PT2-Rzut2
  6
CONTINUOUS
 62
     7
 10
300.8837
 20
192.634800000000010
 11
302.8837
 21
192.634800000000010
  0
TEXT
  8
PT2-Rzut2
  6
CONTINUOUS
 62
     7
 10
300.577999999999970
 20
198.842800000000010
 40
2.000000000000000
  1
95
  0
LINE
  8
PT2-Rzut2
  6
CONTINUOUS
 62
     7
 10
297.3894
 20
197.388800000000000
 11
306.8866
 21
197.388800000000000
  0
LINE
  8
PT2-Rzut2
  6
CONTINUOUS
 62
     7
 10
296.3894
 20
197.388800000000000
 11
297.3894
 21
197.388800000000000
  0
LINE
  8
PT2-Rzut2
  6
CONTINUOUS
 62
     7
 10
307.8866
 20
197.388800000000000
 11
306.8866
 21
197.388800000000000
  0
LINE
  8
PT2-Rzut2
  6
CONTINUOUS
 62
     7
 10
297.8894
 20
197.888700000000000
 11
296.8895
 21
196.888900000000010
  0
LINE
  8
PT2-Rzut2
  6
CONTINUOUS
 62
     7
 10
307.3866
 20
197.888700000000000
 11
306.3867
 21
196.888900000000010
  0
LINE
  8
PT2-Rzut2
  6
CONTINUOUS
 62
     7
 10
297.3894
 20
196.388800000000000
 11
297.3894
 21
198.388800000000000
  0
LINE
  8
PT2-Rzut2
  6
CONTINUOUS
 62
     7
 10
306.8866
 20
196.388800000000000
 11
306.8866
 21
198.388800000000000
  0
TEXT
  8
PT2-Rzut2
  6
CONTINUOUS
 62
     7
 10
309.156600000000030
 20
198.842800000000010
 40
2.000000000000000
  1
1,00
  0
LINE
  8
PT2-Rzut2
  6
CONTINUOUS
 62
     7
 10
306.8866
 20
197.388800000000000
 11
316.8866
 21
197.388800000000000
  0
LINE
  8
PT2-Rzut2
  6
CONTINUOUS
 62
     7
 10
305.8866
 20
197.388800000000000
 11
306.8866
 21
197.388800000000000
  0
LINE
  8
PT2-Rzut2
  6
CONTINUOUS
 62
     7
 10
317.8866
 20
197.388800000000000
 11
316.8866
 21
197.388800000000000
  0
LINE
  8
PT2-Rzut2
  6
CONTINUOUS
 62
     7
 10
307.3866
 20
197.888700000000000
 11
306.3867
 21
196.888900000000010
  0
LINE
  8
PT2-Rzut2
  6
CONTINUOUS
 62
     7
 10
317.3866
 20
197.888700000000000
 11
316.3867
 21
196.888900000000010
  0
LINE
  8
PT2-Rzut2
  6
CONTINUOUS
 62
     7
 10
306.8866
 20
196.388800000000000
 11
306.8866
 21
198.388800000000000
  0
LINE
  8
PT2-Rzut2
  6
CONTINUOUS
 62
     7
 10
316.8866
 20
196.388800000000000
 11
316.8866
 21
198.388800000000000
  0
LINE
  8
PT2-Rzut2
  6
CONTINUOUS
 62
     7
 10
146.1866
 20
358.682999999999990
 11
146.1866
 21
363.357199999999980
  0
LINE
  8
PT2-Rzut2
  6
CONTINUOUS
 62
     7
 10
271.1998
 20
316.658400000000030
 11
269.6006
 21
312.548200000000010
  0
LINE
  8
PT2-Rzut2
  6
CONTINUOUS
 62
     7
 10
411.5792
 20
176.134999999999990
 11
411.5774
 21
179.938099999999990
  0
LINE
  8
PT2-Rzut2
  6
CONTINUOUS
 62
     7
 10
406.3788
 20
177.331500000000010
 11
406.379
 21
178.736300000000000
  0
LINE
  8
PT2-Rzut2
  6
CONTINUOUS
 62
     7
 10
406.3765
 20
178.736300000000000
 11
407.7786
 21
178.736600000000010
  0
LINE
  8
PT2-Rzut2
  6
CONTINUOUS
 62
     7
 10
407.7786
 20
178.736600000000010
 11
407.7786
 21
177.333800000000000
  0
LINE
  8
PT2-Rzut2
  6
CONTINUOUS
 62
     7
 10
407.7811
 20
177.333800000000000
 11
406.3788
 21
177.334000000000000
  0
LINE
  8
PT2-Rzut2
  6
CONTINUOUS
 62
     7
 10
406.3788
 20
177.334000000000000
 11
407.7786
 21
178.736600000000010
  0
LINE
  8
PT2-Rzut2
  6
CONTINUOUS
 62
     7
 10
408.9788
 20
177.331500000000010
 11
408.979
 21
178.736300000000000
  0
LINE
  8
PT2-Rzut2
  6
CONTINUOUS
 62
     7
 10
408.9765
 20
178.736300000000000
 11
410.3786
 21
178.736600000000010
  0
LINE
  8
PT2-Rzut2
  6
CONTINUOUS
 62
     7
 10
410.3786
 20
178.736600000000010
 11
410.3786
 21
177.333800000000000
  0
LINE
  8
PT2-Rzut2
  6
CONTINUOUS
 62
     7
 10
410.3811
 20
177.333800000000000
 11
408.9788
 21
177.334000000000000
  0
LINE
  8
PT2-Rzut2
  6
CONTINUOUS
 62
     7
 10
408.9788
 20
177.334000000000000
 11
410.3786
 21
178.736600000000010
  0
LINE
  8
PT2-Rzut2
  6
CONTINUOUS
 62
     7
 10
384.379
 20
179.932999999999990
 11
384.379
 21
176.129899999999990
  0
LINE
  8
PT2-Rzut2
  6
CONTINUOUS
 62
     7
 10
388.1764
 20
178.734199999999990
 11
389.5788
 21
178.734500000000000
  0
LINE
  8
PT2-Rzut2
  6
CONTINUOUS
 62
     7
 10
389.5788
 20
178.736999999999990
 11
389.579
 21
177.331600000000010
  0
LINE
  8
PT2-Rzut2
  6
CONTINUOUS
 62
     7
 10
389.5815
 20
177.331600000000010
 11
388.179
 21
177.331200000000000
  0
LINE
  8
PT2-Rzut2
  6
CONTINUOUS
 62
     7
 10
388.179
 20
177.328700000000000
 11
388.1789
 21
178.734199999999990
  0
LINE
  8
PT2-Rzut2
  6
CONTINUOUS
 62
     7
 10
388.179
 20
177.328700000000000
 11
389.5788
 21
178.736999999999990
  0
LINE
  8
PT2-Rzut2
  6
CONTINUOUS
 62
     7
 10
385.5764
 20
178.734199999999990
 11
386.9788
 21
178.734500000000000
  0
LINE
  8
PT2-Rzut2
  6
CONTINUOUS
 62
     7
 10
386.9788
 20
178.736999999999990
 11
386.979
 21
177.331600000000010
  0
LINE
  8
PT2-Rzut2
  6
CONTINUOUS
 62
     7
 10
386.9815
 20
177.331600000000010
 11
385.579
 21
177.331200000000000
  0
LINE
  8
PT2-Rzut2
  6
CONTINUOUS
 62
     7
 10
385.579
 20
177.328700000000000
 11
385.5789
 21
178.734199999999990
  0
LINE
  8
PT2-Rzut2
  6
CONTINUOUS
 62
     7
 10
385.579
 20
177.328700000000000
 11
386.9788
 21
178.736999999999990
  0
LINE
  8
PT2-Rzut2
  6
CONTINUOUS
 62
     7
 10
382.0701
 20
154.642300000000010
 11
382.0711
 21
150.859100000000010
  0
LINE
  8
PT2-Rzut2
  6
CONTINUOUS
 62
     7
 10
384.6736
 20
152.059300000000010
 11
383.2703
 21
152.059200000000000
  0
LINE
  8
PT2-Rzut2
  6
CONTINUOUS
 62
     7
 10
383.2708
 20
152.056700000000010
 11
383.2704
 21
153.443600000000000
  0
LINE
  8
PT2-Rzut2
  6
CONTINUOUS
 62
     7
 10
383.2679
 20
153.443600000000000
 11
384.6707
 21
153.443500000000000
  0
LINE
  8
PT2-Rzut2
  6
CONTINUOUS
 62
     7
 10
384.6707
 20
153.446000000000000
 11
384.6711
 21
152.059300000000010
  0
LINE
  8
PT2-Rzut2
  6
CONTINUOUS
 62
     7
 10
383.2708
 20
152.056700000000010
 11
384.6707
 21
153.446000000000000
  0
LINE
  8
PT2-Rzut2
  6
CONTINUOUS
 62
     7
 10
327.584
 20
126.184300000000010
 11
323.7821
 21
126.184300000000010
  0
LINE
  8
PT2-Rzut2
  6
CONTINUOUS
 62
     7
 10
326.3869
 20
123.398900000000030
 11
324.9813
 21
123.398900000000030
  0
LINE
  8
PT2-Rzut2
  6
CONTINUOUS
 62
     7
 10
324.9813
 20
123.396400000000030
 11
324.9812
 21
124.984199999999990
  0
LINE
  8
PT2-Rzut2
  6
CONTINUOUS
 62
     7
 10
324.9812
 20
124.984199999999990
 11
326.3845
 21
124.984199999999990
  0
LINE
  8
PT2-Rzut2
  6
CONTINUOUS
 62
     7
 10
326.3845
 20
124.986699999999980
 11
326.3844
 21
123.398900000000030
  0
LINE
  8
PT2-Rzut2
  6
CONTINUOUS
 62
     7
 10
324.9813
 20
123.396400000000030
 11
326.3845
 21
124.986699999999980
  0
TEXT
  8
PT2-Rzut2
  6
CONTINUOUS
 62
     7
 10
327.181899999999980
 20
182.225399999999980
 40
1.800000000000000
  1
Klapa oddymiająca MCR-Prolight typu PR
  0
TEXT
  8
PT2-Rzut2
  6
CONTINUOUS
 62
     7
 10
327.181899999999980
 20
179.525399999999990
 40
1.800000000000000
  1
na podstawie kwadratowej typu C o 
  0
TEXT
  8
PT2-Rzut2
  6
CONTINUOUS
 62
     7
 10
327.181899999999980
 20
176.825400000000000
 40
1.800000000000000
  1
rozmiarach światła otworu 100x100 cm
  0
LINE
  8
PT2-Rzut2
  6
CONTINUOUS
 62
     7
 10
325.7374
 20
174.635899999999990
 11
376.1518
 21
174.635899999999990
  0
LINE
  8
PT2-Rzut2
  6
CONTINUOUS
 62
     7
 10
376.1518
 20
174.635899999999990
 11
376.1518
 21
184.458800000000000
  0
LINE
  8
PT2-Rzut2
  6
CONTINUOUS
 62
     7
 10
376.1518
 20
184.458800000000000
 11
325.7374
 21
184.458800000000000
  0
LINE
  8
PT2-Rzut2
  6
CONTINUOUS
 62
     7
 10
325.7374
 20
184.458800000000000
 11
325.7374
 21
174.635899999999990
  0
LINE
  8
PT2-Rzut2
  6
CONTINUOUS
 62
     7
 10
311.8799
 20
187.635400000000000
 11
325.7374
 21
179.547300000000010
  0
ENDSEC
  0
EOF
