  0
SECTION
  2
HEADER
  9
$ACADVER
  1
AC1004
  9
$EXTMIN
 10
0.0
 20
0.0
  9
$EXTMAX
 10
270.000000000000000
 20
400.000000000000000
  9
$LIMMIN
 10
0.0
 20
0.0
  9
$LIMMAX
 10
270.000000000000000
 20
400.000000000000000
  9
$CLAYER
  8
PT1-Tabelka_rysu1
  0
ENDSEC
  0
SECTION
  2
TABLES
  0
TABLE
  2
LTYPE
 70
11
  0
LTYPE
  2
CONTINUOUS
 70
     0
  3
Solid line
 72
    65
 73
     0
 40
     0.0
  0
LTYPE
  2
GESTRICHELT
 70
     0
  3
__ __ __ __ __ __ __ __ __ __ __ __ __ __ __
 72
    65
 73
     2
 40
     0.75
 49
0.5
 49
-0.25
  0
LTYPE
  2
VERDECKT
 70
     0
  3
_ _ _ _ _ _ _ _ _ _ _ _ _ _ _ _ _ _ _ _ _ _
 72
    65
 73
     2
 40
     0.25
 49
0.125
 49
-0.125
  0
LTYPE
  2
MITTELLINIE
 70
     0
  3
____ _ ____ _ ____ _ ____ _ ____ _ ____ _ __
 72
    65
 73
     4
 40
     2.0
 49
1.25
 49
-0.25
 49
0.25
 49
-0.25
  0
LTYPE
  2
PHANTOM
 70
     0
  3
_____ _ _ _____ _ _ _____ _ _ _____ _ _ ____
 72
    65
 73
     6
 40
     2.5
 49
1.25
 49
-0.25
 49
0.25
 49
-0.25
 49
0.25
 49
-0.25
  0
LTYPE
  2
PUNKTIERT
 70
     0
  3
............................................
 72
    65
 73
     2
 40
     0.25
 49
0.0
 49
-0.25
  0
LTYPE
  2
STRICHPUNKTIERT
 70
     0
  3
__ . __ . __ . __ . __ . __ . __ . __ . __ .
 72
    65
 73
     4
 40
     1.0
 49
0.5
 49
-0.25
 49
0.0
 49
-0.25
  0
LTYPE
  2
RAND
 70
     0
  3
__ __ . __ __ . __ __ . __ __ . __ __ . __ _
 72
    65
 73
     6
 40
     1.75
 49
0.5
 49
-0.25
 49
0.5
 49
-0.25
 49
0.0
 49
-0.25
  0
LTYPE
  2
TRENNLINIE
 70
     0
  3
__ . . __ . . __ . . __ . . __ . . __ . . __
 72
    65
 73
     6
 40
     1.25
 49
0.5
 49
-0.25
 49
0.0
 49
-0.25
 49
0.0
 49
-0.25
  0
LTYPE
  2
ENG_PUNKTIERT
 70
     0
  3
Schließen
 72
    65
 73
     2
 40
     0.1
 49
0.05
 49
-0.05
  0
LTYPE
  2
CLOSE
 70
     0
  3

 72
    65
 73
     0
 40
     0.0
  0
ENDTAB
  0
TABLE
  2
LAYER
 70
   24
  0
LAYER
  2
PT1-Tabelka_rysu1
 70
     0
 62
     7
  6
CONTINUOUS
  0
LAYER
  2
PT2-Rzut2
 70
     0
 62
     7
  6
CONTINUOUS
  0
LAYER
  2
PT2-Kreskowanie3
 70
     0
 62
     7
  6
CONTINUOUS
  0
LAYER
  2
PT2-Okna_i_drzwi4
 70
     0
 62
     7
  6
CONTINUOUS
  0
LAYER
  2
PT2-Schody5
 70
     0
 62
     7
  6
CONTINUOUS
  0
LAYER
  2
PT2-Podciąg6
 70
     0
 62
     7
  6
CONTINUOUS
  0
LAYER
  2
PT2-Opis7
 70
     0
 62
     7
  6
CONTINUOUS
  0
LAYER
  2
PT2-Wymiarowanie8
 70
     0
 62
     7
  6
CONTINUOUS
  0
LAYER
  2
PT2-Wyposażenie9
 70
     0
 62
     7
  6
CONTINUOUS
  0
LAYER
  2
PT2-Symbole_prze10
 70
     0
 62
     7
  6
CONTINUOUS
  0
LAYER
  2
PT2-Linie_pomocn11
 70
     0
 62
     7
  6
CONTINUOUS
  0
LAYER
  2
PT2-Grafika_2D12
 70
     0
 62
     7
  6
CONTINUOUS
  0
LAYER
  2
PT2-Podesty13
 70
     0
 62
     7
  6
CONTINUOUS
  0
LAYER
  2
PT3-Rzut14
 70
     0
 62
     7
  6
CONTINUOUS
  0
LAYER
  2
PT3-Wymiarowanie15
 70
     0
 62
     7
  6
CONTINUOUS
  0
LAYER
  2
PT3-Symbole_prze16
 70
     0
 62
     7
  6
CONTINUOUS
  0
LAYER
  2
PT3-Dach17
 70
     0
 62
     7
  6
CONTINUOUS
  0
LAYER
  2
PT4-Rzut18
 70
     0
 62
     7
  6
CONTINUOUS
  0
LAYER
  2
PT4-Opis19
 70
     0
 62
     7
  6
CONTINUOUS
  0
LAYER
  2
PT4-Wymiarowanie20
 70
     0
 62
     7
  6
CONTINUOUS
  0
LAYER
  2
PT4-Dach21
 70
     0
 62
     7
  6
CONTINUOUS
  0
LAYER
  2
PT5-Rzut22
 70
     0
 62
     7
  6
CONTINUOUS
  0
LAYER
  2
PT5-Dachy23
 70
     0
 62
     7
  6
CONTINUOUS
  0
LAYER
  2
PT5-Wymiarowanie24
 70
     0
 62
     7
  6
CONTINUOUS
  0
ENDTAB
  0
TABLE
  2
STYLE
 70
    1
  0
STYLE
  2
STANDARD
 70
    0
 40
0.0
 41
1.0
 50
0.0
71
     0
 42
0.2
  3
txt
  4

  0
ENDTAB
  0
ENDSEC
  0
SECTION
  2
ENTITIES
  0
POLYLINE
  8
PT1-Tabelka_rysu1
  6
CONTINUOUS
 62
     7
 66
     1
 70
     1
  0
VERTEX
  8
PT1-Tabelka_rysu1
 10
255.1339
 20
6.838700000000017
  0
VERTEX
  8
PT1-Tabelka_rysu1
 10
256.1922
 20
6.838700000000017
  0
VERTEX
  8
PT1-Tabelka_rysu1
 10
256.1922
 20
67.869300000000010
  0
VERTEX
  8
PT1-Tabelka_rysu1
 10
255.1339
 20
67.869300000000010
  0
SEQEND
  8
PT1-Tabelka_rysu1
  0
LINE
  8
PT1-Tabelka_rysu1
  6
CONTINUOUS
 62
     7
 10
255.1339
 20
7.896999999999991
 11
255.1339
 21
68.927599999999984
  0
LINE
  8
PT1-Tabelka_rysu1
  6
CONTINUOUS
 62
     7
 10
255.1339
 20
68.927599999999984
 11
183.1672
 21
68.927599999999984
  0
LINE
  8
PT1-Tabelka_rysu1
  6
CONTINUOUS
 62
     7
 10
183.1672
 20
7.896999999999991
 11
183.1672
 21
68.927599999999984
  0
LINE
  8
PT3-Rzut14
  6
CONTINUOUS
 62
     7
 10
56.7116
 20
63.184900000000027
 11
57.4125
 21
65.060699999999997
  0
LINE
  8
PT3-Rzut14
  6
CONTINUOUS
 62
     7
 10
58.6303
 20
64.605799999999988
 11
57.4125
 21
65.060699999999997
  0
LINE
  8
PT3-Rzut14
  6
CONTINUOUS
 62
     7
 10
58.7249
 20
64.573100000000011
 11
58.0239
 21
62.697299999999984
  0
LINE
  8
PT3-Rzut14
  6
CONTINUOUS
 62
     7
 10
58.0263
 20
62.696500000000015
 11
56.7125
 21
63.187299999999993
  0
LINE
  8
PT3-Rzut14
  6
CONTINUOUS
 62
     7
 10
56.7094
 20
66.607000000000028
 11
55.1682
 21
62.483200000000011
  0
LINE
  8
PT3-Rzut14
  6
GESTRICHELT
 62
     7
 10
56.5685
 20
66.230000000000018
 11
28.7692
 21
76.614599999999996
  0
LINE
  8
PT3-Rzut14
  6
GESTRICHELT
 62
     7
 10
28.7692
 20
278.293299999999990
 11
35.3767
 21
295.973900000000010
  0
LINE
  8
PT3-Rzut14
  6
GESTRICHELT
 62
     7
 10
35.3767
 20
295.973900000000010
 11
132.9612
 21
259.512799999999970
  0
LINE
  8
PT3-Rzut14
  6
CONTINUOUS
 62
     7
 10
134.3612
 20
263.259700000000010
 11
132.8212
 21
259.138199999999980
  0
LINE
  8
PT3-Rzut14
  6
CONTINUOUS
 62
     7
 10
132.8212
 20
259.138199999999980
 11
141.2519
 21
255.988000000000000
  0
LINE
  8
PT3-Rzut14
  6
CONTINUOUS
 62
     7
 10
142.7923
 20
260.109500000000030
 11
141.2519
 21
255.988000000000000
  0
LINE
  8
PT3-Rzut14
  6
CONTINUOUS
 62
     7
 10
68.7927
 20
62.089999999999975
 11
67.2529
 21
57.968900000000019
  0
LINE
  8
PT3-Rzut14
  6
CONTINUOUS
 62
     7
 10
68.7927
 20
62.089999999999975
 11
56.7085
 21
66.604699999999980
  0
LINE
  8
PT3-Rzut14
  6
CONTINUOUS
 62
     7
 10
61.1596
 20
63.661000000000001
 11
59.8478
 21
64.150100000000009
  0
LINE
  8
PT3-Rzut14
  6
CONTINUOUS
 62
     7
 10
61.1596
 20
63.661000000000001
 11
60.4595
 21
61.787500000000023
  0
LINE
  8
PT3-Rzut14
  6
CONTINUOUS
 62
     7
 10
60.4619
 20
61.786600000000021
 11
59.1481
 21
62.277400000000000
  0
LINE
  8
PT3-Rzut14
  6
CONTINUOUS
 62
     7
 10
59.1472
 20
62.275100000000009
 11
59.8478
 21
64.150100000000009
  0
LINE
  8
PT3-Rzut14
  6
CONTINUOUS
 62
     7
 10
62.2814
 20
63.241899999999987
 11
64.8131
 21
62.296199999999999
  0
LINE
  8
PT3-Rzut14
  6
CONTINUOUS
 62
     7
 10
64.8139
 20
62.298499999999990
 11
64.113
 21
60.422799999999995
  0
LINE
  8
PT3-Rzut14
  6
CONTINUOUS
 62
     7
 10
64.1153
 20
60.421899999999994
 11
61.5836
 21
61.367599999999982
  0
LINE
  8
PT3-Rzut14
  6
CONTINUOUS
 62
     7
 10
61.5836
 20
61.367599999999982
 11
62.2838
 21
63.240999999999985
  0
LINE
  8
PT3-Rzut14
  6
CONTINUOUS
 62
     7
 10
65.9372
 20
61.876300000000015
 11
67.2487
 21
61.386399999999981
  0
LINE
  8
PT3-Rzut14
  6
CONTINUOUS
 62
     7
 10
67.2495
 20
61.388699999999972
 11
66.5486
 21
59.512900000000002
  0
LINE
  8
PT3-Rzut14
  6
CONTINUOUS
 62
     7
 10
66.5509
 20
59.512099999999975
 11
65.2371
 21
60.002799999999979
  0
LINE
  8
PT3-Rzut14
  6
CONTINUOUS
 62
     7
 10
65.2362
 20
60.000499999999988
 11
65.9372
 21
61.876300000000015
  0
LINE
  8
PT3-Rzut14
  6
CONTINUOUS
 62
     7
 10
70.9997
 20
56.569299999999998
 11
146.5391
 21
258.709499999999990
  0
LINE
  8
PT3-Rzut14
  6
CONTINUOUS
 62
     7
 10
142.7923
 20
260.109500000000030
 11
134.3612
 21
263.259700000000010
  0
LINE
  8
PT3-Rzut14
  6
GESTRICHELT
 62
     7
 10
33.0018
 20
301.134099999999990
 11
28.7692
 21
289.803099999999970
  0
LINE
  8
PT3-Rzut14
  6
CONTINUOUS
 62
     7
 10
55.1682
 20
62.483200000000011
 11
67.2529
 21
57.968900000000019
  0
LINE
  8
PT3-Rzut14
  6
CONTINUOUS
 62
     7
 10
135.0631
 20
261.716400000000020
 11
136.3769
 21
261.225599999999990
  0
LINE
  8
PT3-Rzut14
  6
CONTINUOUS
 62
     7
 10
136.3778
 20
261.227899999999980
 11
135.6768
 21
259.352100000000010
  0
LINE
  8
PT3-Rzut14
  6
CONTINUOUS
 62
     7
 10
135.6792
 20
259.351200000000010
 11
134.3653
 21
259.841999999999980
  0
LINE
  8
PT3-Rzut14
  6
CONTINUOUS
 62
     7
 10
134.3653
 20
259.841999999999980
 11
135.0655
 21
261.715500000000020
  0
LINE
  8
PT3-Rzut14
  6
CONTINUOUS
 62
     7
 10
137.4987
 20
260.806400000000000
 11
138.8125
 21
260.315499999999990
  0
LINE
  8
PT3-Rzut14
  6
CONTINUOUS
 62
     7
 10
138.8133
 20
260.317900000000010
 11
138.1124
 21
258.442099999999980
  0
LINE
  8
PT3-Rzut14
  6
CONTINUOUS
 62
     7
 10
138.1147
 20
258.441199999999980
 11
136.801
 21
258.932500000000000
  0
LINE
  8
PT3-Rzut14
  6
CONTINUOUS
 62
     7
 10
136.801
 20
258.932500000000000
 11
137.501
 21
260.805600000000030
  0
LINE
  8
PT3-Rzut14
  6
CONTINUOUS
 62
     7
 10
139.9342
 20
259.896399999999970
 11
141.248
 21
259.405499999999960
  0
LINE
  8
PT3-Rzut14
  6
CONTINUOUS
 62
     7
 10
141.2489
 20
259.407900000000040
 11
140.5479
 21
257.532100000000010
  0
LINE
  8
PT3-Rzut14
  6
CONTINUOUS
 62
     7
 10
140.5502
 20
257.531200000000010
 11
139.2366
 21
258.022400000000000
  0
LINE
  8
PT3-Rzut14
  6
CONTINUOUS
 62
     7
 10
139.2366
 20
258.022400000000000
 11
139.9365
 21
259.895499999999970
  0
LINE
  8
PT4-Rzut18
  6
GESTRICHELT
 62
     7
 10
70.9998
 20
56.569299999999998
 11
104.0687
 21
44.216099999999983
  0
LINE
  8
PT4-Rzut18
  6
GESTRICHELT
 62
     7
 10
104.0687
 20
44.216099999999983
 11
172.8349
 21
228.227800000000000
  0
LINE
  8
PT4-Rzut18
  6
GESTRICHELT
 62
     7
 10
179.7023
 20
246.318600000000000
 11
146.539
 21
258.709700000000000
  0
LINE
  8
PT4-Rzut18
  6
GESTRICHELT
 62
     7
 10
146.5398
 20
258.711999999999990
 11
145.1389
 21
254.962700000000010
  0
LINE
  8
PT4-Rzut18
  6
GESTRICHELT
 62
     7
 10
145.1366
 20
254.963600000000010
 11
145.3263
 21
254.892699999999990
  0
LINE
  8
PT4-Rzut18
  6
CONTINUOUS
 62
     7
 10
126.0407
 20
203.277999999999990
 11
125.851
 21
203.348899999999990
  0
LINE
  8
PT4-Rzut18
  6
CONTINUOUS
 62
     7
 10
125.8519
 20
203.351200000000010
 11
123.9257
 21
198.196900000000000
  0
LINE
  8
PT4-Rzut18
  6
CONTINUOUS
 62
     7
 10
123.9233
 20
198.197700000000000
 11
124.113
 21
198.126900000000010
  0
LINE
  8
PT4-Rzut18
  6
GESTRICHELT
 62
     7
 10
101.7194
 20
49.363800000000026
 11
72.3998
 21
60.315600000000018
  0
LINE
  8
PT4-Rzut18
  6
CONTINUOUS
 62
     7
 10
124.1107
 20
198.127700000000000
 11
131.9817
 21
195.186800000000010
  0
LINE
  8
PT4-Rzut18
  6
CONTINUOUS
 62
     7
 10
131.9809
 20
195.184500000000010
 11
133.907
 21
200.338799999999990
  0
LINE
  8
PT4-Rzut18
  6
CONTINUOUS
 62
     7
 10
133.9094
 20
200.337999999999990
 11
126.0383
 21
203.278899999999990
  0
LINE
  8
PT4-Rzut18
  6
GESTRICHELT
 62
     7
 10
145.324
 20
254.893499999999990
 11
174.4617
 21
244.006599999999990
  0
LINE
  8
PT4-Rzut18
  6
GESTRICHELT
 62
     7
 10
174.4617
 20
244.006599999999990
 11
101.7194
 21
49.363800000000026
  0
LINE
  8
PT4-Rzut18
  6
CONTINUOUS
 62
     7
 10
125.469
 20
198.898599999999990
 11
126.555
 21
201.804800000000000
  0
LINE
  8
PT4-Rzut18
  6
CONTINUOUS
 62
     7
 10
126.5527
 20
201.805700000000000
 11
129.9273
 21
200.544800000000010
  0
LINE
  8
PT4-Rzut18
  6
CONTINUOUS
 62
     7
 10
129.9282
 20
200.547100000000000
 11
128.8422
 21
197.640899999999990
  0
LINE
  8
PT4-Rzut18
  6
CONTINUOUS
 62
     7
 10
128.8445
 20
197.640099999999990
 11
125.4699
 21
198.900900000000010
  0
LINE
  8
PT4-Rzut18
  6
CONTINUOUS
 62
     7
 10
131.0491
 20
200.125599999999990
 11
132.3629
 21
199.634800000000010
  0
LINE
  8
PT4-Rzut18
  6
CONTINUOUS
 62
     7
 10
132.3637
 20
199.637100000000000
 11
131.2777
 21
196.730899999999990
  0
LINE
  8
PT4-Rzut18
  6
CONTINUOUS
 62
     7
 10
131.28
 20
196.729999999999990
 11
129.9662
 21
197.220900000000000
  0
LINE
  8
PT4-Rzut18
  6
CONTINUOUS
 62
     7
 10
129.9654
 20
197.218600000000010
 11
131.0514
 21
200.124799999999990
  0
LINE
  8
PT4-Rzut18
  6
GESTRICHELT
 62
     7
 10
172.8349
 20
228.227800000000000
 11
206.5579
 21
215.627999999999990
  0
LINE
  8
PT4-Rzut18
  6
GESTRICHELT
 62
     7
 10
206.557
 20
215.625599999999990
 11
230.3615
 21
279.325500000000030
  0
LINE
  8
PT4-Rzut18
  6
GESTRICHELT
 62
     7
 10
230.3638
 20
279.324700000000010
 11
195.7018
 21
292.275600000000000
  0
LINE
  8
PT4-Rzut18
  6
GESTRICHELT
 62
     7
 10
195.7027
 20
292.277899999999990
 11
191.7285
 21
281.643199999999980
  0
LINE
  8
PT4-Rzut18
  6
GESTRICHELT
 62
     7
 10
204.2134
 20
220.774000000000000
 11
177.0452
 21
230.924800000000000
  0
LINE
  8
PT4-Rzut18
  6
GESTRICHELT
 62
     7
 10
177.0452
 20
230.924800000000000
 11
198.0486
 21
287.128699999999980
  0
LINE
  8
PT4-Rzut18
  6
GESTRICHELT
 62
     7
 10
198.0462
 20
287.129599999999980
 11
225.2143
 21
276.978600000000030
  0
LINE
  8
PT4-Rzut18
  6
GESTRICHELT
 62
     7
 10
225.2152
 20
276.980999999999990
 11
204.211
 21
220.774900000000000
  0
LINE
  8
PT5-Rzut22
  6
GESTRICHELT
 62
     7
 10
36.7483
 20
299.729199999999990
 11
36.7531
 21
299.742099999999990
  0
LINE
  8
PT5-Rzut22
  6
GESTRICHELT
 62
     7
 10
192.6652
 20
281.293200000000010
 11
46.0547
 21
336.072999999999980
  0
LINE
  8
PT5-Rzut22
  6
GESTRICHELT
 62
     7
 10
46.0556
 20
336.075299999999970
 11
33.0021
 21
301.131300000000010
  0
LINE
  8
PT5-Rzut22
  6
GESTRICHELT
 62
     7
 10
36.7523
 20
299.739800000000000
 11
48.4019
 21
330.925799999999980
  0
LINE
  8
PT5-Rzut22
  6
GESTRICHELT
 62
     7
 10
48.3996
 20
330.926699999999980
 11
187.5182
 21
278.946900000000030
  0
LINE
  8
PT5-Rzut22
  6
CONTINUOUS
 62
     7
 10
72.8396
 20
305.889000000000010
 11
69.2799
 21
307.218999999999990
  0
LINE
  8
PT5-Rzut22
  6
CONTINUOUS
 62
     7
 10
69.2799
 20
307.218999999999990
 11
67.0399
 21
301.223700000000010
  0
LINE
  8
PT5-Rzut22
  6
CONTINUOUS
 62
     7
 10
67.0376
 20
301.224600000000010
 11
70.5996
 21
299.893800000000000
  0
LINE
  8
PT5-Rzut22
  6
CONTINUOUS
 62
     7
 10
70.5996
 20
299.893800000000000
 11
72.8396
 21
305.889000000000010
  0
LINE
  8
PT5-Rzut22
  6
CONTINUOUS
 62
     7
 10
116.1803
 20
305.601499999999990
 11
113.0303
 21
297.170700000000010
  0
LINE
  8
PT5-Rzut22
  6
CONTINUOUS
 62
     7
 10
113.0279
 20
297.171499999999980
 11
116.5899
 21
295.840800000000000
  0
LINE
  8
PT5-Rzut22
  6
CONTINUOUS
 62
     7
 10
116.1803
 20
305.601499999999990
 11
119.7399
 21
304.271500000000000
  0
LINE
  8
PT5-Rzut22
  6
CONTINUOUS
 62
     7
 10
116.5899
 20
295.840800000000000
 11
119.7399
 21
304.271500000000000
  0
LINE
  8
PT5-Rzut22
  6
CONTINUOUS
 62
     7
 10
152.7441
 20
276.033599999999980
 11
150.5043
 21
270.038599999999970
  0
LINE
  8
PT5-Rzut22
  6
GESTRICHELT
 62
     7
 10
187.5182
 20
278.946900000000030
 11
175.8615
 21
247.753899999999990
  0
LINE
  8
PT5-Rzut22
  6
CONTINUOUS
 62
     7
 10
150.5043
 20
270.038599999999970
 11
154.0638
 21
268.708499999999960
  0
LINE
  8
PT5-Rzut22
  6
CONTINUOUS
 62
     7
 10
154.0638
 20
268.708499999999960
 11
156.3038
 21
274.703599999999990
  0
LINE
  8
PT5-Rzut22
  6
CONTINUOUS
 62
     7
 10
156.3062
 20
274.702699999999990
 11
152.7441
 21
276.033599999999980
  0
LINE
  8
PT5-Rzut22
  6
CONTINUOUS
 62
     7
 10
116.882
 20
304.058200000000000
 11
118.1959
 21
303.567299999999990
  0
LINE
  8
PT5-Rzut22
  6
CONTINUOUS
 62
     7
 10
118.1967
 20
303.569700000000010
 11
117.7054
 21
302.256100000000000
  0
LINE
  8
PT5-Rzut22
  6
CONTINUOUS
 62
     7
 10
117.7054
 20
302.256100000000000
 11
116.3944
 21
302.745900000000010
  0
LINE
  8
PT5-Rzut22
  6
CONTINUOUS
 62
     7
 10
116.3935
 20
302.743499999999980
 11
116.8844
 21
304.057400000000030
  0
LINE
  8
PT5-Rzut22
  6
CONTINUOUS
 62
     7
 10
117.2867
 20
301.134099999999990
 11
116.7958
 21
299.820299999999970
  0
LINE
  8
PT5-Rzut22
  6
CONTINUOUS
 62
     7
 10
116.7981
 20
299.819500000000010
 11
115.4844
 21
300.310299999999980
  0
LINE
  8
PT5-Rzut22
  6
CONTINUOUS
 62
     7
 10
115.4835
 20
300.307999999999990
 11
115.9747
 21
301.621700000000030
  0
LINE
  8
PT5-Rzut22
  6
CONTINUOUS
 62
     7
 10
115.9747
 20
301.621700000000030
 11
117.2858
 21
301.131800000000000
  0
LINE
  8
PT5-Rzut22
  6
CONTINUOUS
 62
     7
 10
116.3767
 20
298.698600000000000
 11
115.8858
 21
297.384799999999980
  0
LINE
  8
PT5-Rzut22
  6
CONTINUOUS
 62
     7
 10
115.8881
 20
297.383899999999980
 11
114.5744
 21
297.874799999999990
  0
LINE
  8
PT5-Rzut22
  6
CONTINUOUS
 62
     7
 10
114.5735
 20
297.872399999999970
 11
115.0644
 21
299.186199999999990
  0
LINE
  8
PT5-Rzut22
  6
CONTINUOUS
 62
     7
 10
115.062
 20
299.187099999999990
 11
116.3758
 21
298.696199999999980
  0
LINE
  8
PT5-Rzut22
  6
CONTINUOUS
 62
     7
 10
71.2963
 20
305.187200000000020
 11
70.8055
 21
303.873400000000000
  0
LINE
  8
PT5-Rzut22
  6
CONTINUOUS
 62
     7
 10
70.8078
 20
303.872500000000000
 11
69.494
 21
304.363400000000010
  0
LINE
  8
PT5-Rzut22
  6
CONTINUOUS
 62
     7
 10
69.4931
 20
304.361099999999960
 11
69.9844
 21
305.674800000000000
  0
LINE
  8
PT5-Rzut22
  6
CONTINUOUS
 62
     7
 10
69.9844
 20
305.674800000000000
 11
71.2955
 21
305.184899999999970
  0
LINE
  8
PT5-Rzut22
  6
CONTINUOUS
 62
     7
 10
70.3863
 20
302.751700000000030
 11
69.8962
 21
301.437599999999970
  0
LINE
  8
PT5-Rzut22
  6
CONTINUOUS
 62
     7
 10
69.8962
 20
301.437599999999970
 11
68.584
 21
301.927900000000020
  0
LINE
  8
PT5-Rzut22
  6
CONTINUOUS
 62
     7
 10
68.5831
 20
301.925500000000000
 11
69.074
 21
303.239300000000010
  0
LINE
  8
PT5-Rzut22
  6
CONTINUOUS
 62
     7
 10
69.0717
 20
303.240200000000020
 11
70.3855
 21
302.749300000000010
  0
LINE
  8
PT5-Rzut22
  6
CONTINUOUS
 62
     7
 10
152.0474
 20
270.740299999999990
 11
152.5383
 21
272.053999999999970
  0
LINE
  8
PT5-Rzut22
  6
CONTINUOUS
 62
     7
 10
152.5359
 20
272.054800000000000
 11
153.8484
 21
271.564500000000010
  0
LINE
  8
PT5-Rzut22
  6
CONTINUOUS
 62
     7
 10
153.8484
 20
271.564500000000010
 11
153.3598
 21
270.252600000000030
  0
LINE
  8
PT5-Rzut22
  6
CONTINUOUS
 62
     7
 10
153.3621
 20
270.251800000000000
 11
152.0483
 21
270.742600000000040
  0
LINE
  8
PT5-Rzut22
  6
CONTINUOUS
 62
     7
 10
152.9574
 20
273.175700000000010
 11
153.4486
 21
274.489399999999990
  0
LINE
  8
PT5-Rzut22
  6
CONTINUOUS
 62
     7
 10
153.4486
 20
274.489399999999990
 11
154.7597
 21
273.999500000000010
  0
LINE
  8
PT5-Rzut22
  6
CONTINUOUS
 62
     7
 10
154.7606
 20
274.001800000000000
 11
154.2697
 21
272.688100000000020
  0
LINE
  8
PT5-Rzut22
  6
CONTINUOUS
 62
     7
 10
154.2721
 20
272.687200000000020
 11
152.9583
 21
273.178099999999970
  0
LINE
  8
PT5-Dachy23
  6
CONTINUOUS
 62
     7
 10
192.781
 20
284.459700000000000
 11
45.2385
 21
339.623600000000010
  0
LINE
  8
PT5-Dachy23
  6
CONTINUOUS
 62
     7
 10
45.2385
 20
339.623600000000010
 11
31.2101
 21
301.801299999999970
  0
LINE
  8
PT2-Rzut2
  6
GESTRICHELT
 62
     7
 10
24.1989
 20
19.375900000000001
 11
119.4101
 21
19.375900000000001
  0
LINE
  8
PT3-Rzut14
  6
CONTINUOUS
 62
     7
 10
134.3653
 20
259.841999999999980
 11
136.3778
 21
261.227899999999980
  0
LINE
  8
PT3-Rzut14
  6
CONTINUOUS
 62
     7
 10
136.801
 20
258.932500000000000
 11
138.8133
 21
260.317900000000010
  0
LINE
  8
PT3-Rzut14
  6
CONTINUOUS
 62
     7
 10
139.2366
 20
258.022400000000000
 11
141.2489
 21
259.407900000000040
  0
LINE
  8
PT3-Rzut14
  6
CONTINUOUS
 62
     7
 10
56.7125
 20
63.187299999999993
 11
58.7249
 21
64.573100000000011
  0
LINE
  8
PT3-Rzut14
  6
CONTINUOUS
 62
     7
 10
59.1481
 20
62.277400000000000
 11
61.1596
 21
63.661000000000001
  0
LINE
  8
PT3-Rzut14
  6
CONTINUOUS
 62
     7
 10
61.5836
 20
61.367599999999982
 11
64.813
 21
62.296199999999999
  0
LINE
  8
PT3-Rzut14
  6
CONTINUOUS
 62
     7
 10
65.2362
 20
60.000499999999988
 11
67.2486
 21
61.386399999999981
  0
LINE
  8
PT5-Rzut22
  6
CONTINUOUS
 62
     7
 10
68.5831
 20
301.925500000000000
 11
70.3855
 21
302.749300000000010
  0
LINE
  8
PT5-Rzut22
  6
CONTINUOUS
 62
     7
 10
69.4931
 20
304.361099999999960
 11
71.2955
 21
305.184899999999970
  0
LINE
  8
PT5-Rzut22
  6
CONTINUOUS
 62
     7
 10
114.5735
 20
297.872399999999970
 11
116.3758
 21
298.696199999999980
  0
LINE
  8
PT5-Rzut22
  6
CONTINUOUS
 62
     7
 10
115.4835
 20
300.307999999999990
 11
117.2858
 21
301.131800000000000
  0
LINE
  8
PT5-Rzut22
  6
CONTINUOUS
 62
     7
 10
116.3935
 20
302.743499999999980
 11
118.1967
 21
303.569700000000010
  0
LINE
  8
PT5-Rzut22
  6
CONTINUOUS
 62
     7
 10
152.9583
 20
273.178099999999970
 11
154.7606
 21
274.001800000000000
  0
LINE
  8
PT5-Rzut22
  6
CONTINUOUS
 62
     7
 10
152.0483
 20
270.742600000000040
 11
153.8484
 21
271.564500000000010
  0
LINE
  8
PT4-Rzut18
  6
GESTRICHELT
 62
     7
 10
191.7285
 20
281.643199999999980
 11
192.6652
 21
281.293200000000010
  0
LINE
  8
PT4-Rzut18
  6
GESTRICHELT
 62
     7
 10
192.6652
 20
281.293200000000010
 11
179.7023
 21
246.318600000000000
  0
LINE
  8
PT5-Dachy23
  6
CONTINUOUS
 62
     7
 10
33.0021
 20
301.131300000000010
 11
31.2101
 21
301.801299999999970
  0
LINE
  8
PT4-Rzut18
  6
CONTINUOUS
 62
     7
 10
92.1253
 20
113.100399999999980
 11
93.5256
 21
116.847399999999990
  0
LINE
  8
PT4-Rzut18
  6
CONTINUOUS
 62
     7
 10
92.1477
 20
113.091999999999980
 11
94.5608
 21
112.190200000000000
  0
LINE
  8
PT4-Rzut18
  6
CONTINUOUS
 62
     7
 10
94.5608
 20
112.190200000000000
 11
95.9379
 21
115.946000000000030
  0
LINE
  8
PT4-Rzut18
  6
CONTINUOUS
 62
     7
 10
95.9379
 20
115.946000000000030
 11
93.5301
 21
116.845700000000020
  0
LINE
  8
PT4-Rzut18
  6
CONTINUOUS
 62
     7
 10
93.1182
 20
115.718599999999980
 11
94.4337
 21
115.226999999999980
  0
LINE
  8
PT4-Rzut18
  6
CONTINUOUS
 62
     7
 10
94.4337
 20
115.226999999999980
 11
93.8568
 21
113.734399999999990
  0
LINE
  8
PT4-Rzut18
  6
CONTINUOUS
 62
     7
 10
93.8568
 20
113.734399999999990
 11
92.5454
 21
114.224499999999980
  0
CIRCLE
  8
PT4-Rzut18
  6
CONTINUOUS
 62
     7
 10
93.493700000000004
 20
114.685999999999980
 40
0.706400000000000
  0
LINE
  8
PT4-Rzut18
  6
CONTINUOUS
 62
     7
 10
92.8437
 20
114.373499999999980
 11
94.1312
 21
114.998499999999980
  0
LINE
  8
PT1-Tabelka_rysu1
  6
CONTINUOUS
 62
     7
 10
213.7923
 20
339.922100000000000
 11
213.7923
 21
324.646500000000000
  0
LINE
  8
PT1-Tabelka_rysu1
  6
CONTINUOUS
 62
     7
 10
213.7921
 20
324.646500000000000
 11
233.3045
 21
324.646500000000000
  0
LINE
  8
PT1-Tabelka_rysu1
  6
CONTINUOUS
 62
     7
 10
233.3045
 20
324.646799999999980
 11
233.3044
 21
324.070100000000020
  0
LINE
  8
PT1-Tabelka_rysu1
  6
CONTINUOUS
 62
     7
 10
233.3042
 20
324.070100000000020
 11
236.8783
 21
324.070100000000020
  0
LINE
  8
PT1-Tabelka_rysu1
  6
CONTINUOUS
 62
     7
 10
236.8783
 20
324.069799999999990
 11
236.8782
 21
324.646500000000000
  0
LINE
  8
PT1-Tabelka_rysu1
  6
CONTINUOUS
 62
     7
 10
236.878
 20
324.646500000000000
 11
252.5572
 21
324.648500000000010
  0
LINE
  8
PT1-Tabelka_rysu1
  6
CONTINUOUS
 62
     7
 10
252.5572
 20
324.648799999999990
 11
252.5572
 21
324.646500000000000
  0
LINE
  8
PT1-Tabelka_rysu1
  6
CONTINUOUS
 62
     7
 10
252.557
 20
324.646500000000000
 11
252.9415
 21
324.646500000000000
  0
LINE
  8
PT1-Tabelka_rysu1
  6
CONTINUOUS
 62
     7
 10
252.9415
 20
324.646300000000000
 11
252.9415
 21
339.921899999999990
  0
LINE
  8
PT1-Tabelka_rysu1
  6
CONTINUOUS
 62
     7
 10
252.9417
 20
339.921899999999990
 11
236.2731
 21
339.921899999999990
  0
LINE
  8
PT1-Tabelka_rysu1
  6
CONTINUOUS
 62
     7
 10
236.2731
 20
339.922100000000000
 11
236.2731
 21
333.701300000000000
  0
LINE
  8
PT1-Tabelka_rysu1
  6
CONTINUOUS
 62
     7
 10
236.2733
 20
333.701300000000000
 11
233.4101
 21
333.701300000000000
  0
LINE
  8
PT1-Tabelka_rysu1
  6
CONTINUOUS
 62
     7
 10
233.4101
 20
333.701500000000010
 11
233.4101
 21
324.646500000000000
  0
LINE
  8
PT1-Tabelka_rysu1
  6
CONTINUOUS
 62
     7
 10
233.4104
 20
324.646500000000000
 11
233.3909
 21
324.646500000000000
  0
LINE
  8
PT1-Tabelka_rysu1
  6
CONTINUOUS
 62
     7
 10
233.3909
 20
324.646300000000000
 11
233.3909
 21
345.625499999999990
  0
LINE
  8
PT1-Tabelka_rysu1
  6
CONTINUOUS
 62
     7
 10
222.8999
 20
350.701300000000000
 11
222.8999
 21
339.921899999999990
  0
LINE
  8
PT1-Tabelka_rysu1
  6
CONTINUOUS
 62
     7
 10
222.9001
 20
339.921899999999990
 11
213.7923
 21
339.921899999999990
  0
LINE
  8
PT1-Tabelka_rysu1
  6
CONTINUOUS
 62
     7
 10
216.4533
 20
343.390300000000020
 11
216.4535
 21
339.921899999999990
  0
LINE
  8
PT1-Tabelka_rysu1
  6
CONTINUOUS
 62
     7
 10
222.8999
 20
343.390100000000020
 11
216.4533
 21
343.390100000000020
  0
LINE
  8
PT1-Tabelka_rysu1
  6
CONTINUOUS
 62
     7
 10
226.8982
 20
371.339800000000030
 11
219.6431
 21
351.917800000000000
  0
LINE
  8
PT1-Tabelka_rysu1
  6
CONTINUOUS
 62
     7
 10
219.6429
 20
351.917900000000030
 11
229.0277
 21
348.412199999999980
  0
LINE
  8
PT1-Tabelka_rysu1
  6
CONTINUOUS
 62
     7
 10
233.7257
 20
346.657300000000020
 11
240.3321
 21
364.335600000000000
  0
LINE
  8
PT1-Tabelka_rysu1
  6
CONTINUOUS
 62
     7
 10
240.3321
 20
364.335600000000000
 11
243.5719
 21
363.125099999999970
  0
LINE
  8
PT1-Tabelka_rysu1
  6
CONTINUOUS
 62
     7
 10
243.5718
 20
363.124900000000030
 11
245.8588
 21
369.244599999999990
  0
LINE
  8
PT1-Tabelka_rysu1
  6
CONTINUOUS
 62
     7
 10
245.859
 20
369.244500000000020
 11
242.529
 21
370.488800000000030
  0
LINE
  8
PT1-Tabelka_rysu1
  6
CONTINUOUS
 62
     7
 10
242.529
 20
370.488999999999980
 11
242.1473
 21
369.467400000000000
  0
LINE
  8
PT1-Tabelka_rysu1
  6
CONTINUOUS
 62
     7
 10
242.1473
 20
369.467400000000000
 11
228.1521
 21
374.696399999999980
  0
LINE
  8
PT1-Tabelka_rysu1
  6
CONTINUOUS
 62
     7
 10
228.1521
 20
374.696399999999980
 11
226.8981
 21
371.339499999999990
  0
LINE
  8
PT1-Tabelka_rysu1
  6
CONTINUOUS
 62
     7
 10
226.8982
 20
371.339800000000030
 11
219.6431
 21
351.917800000000000
  0
LINE
  8
PT1-Tabelka_rysu1
  6
CONTINUOUS
 62
     7
 10
219.6429
 20
351.917900000000030
 11
229.0277
 21
348.412199999999980
  0
LINE
  8
PT1-Tabelka_rysu1
  6
CONTINUOUS
 62
     7
 10
226.8982
 20
371.339800000000030
 11
219.6431
 21
351.917800000000000
  0
LINE
  8
PT1-Tabelka_rysu1
  6
CONTINUOUS
 62
     7
 10
219.6429
 20
351.917900000000030
 11
233.7257
 21
346.657300000000020
  0
LINE
  8
PT1-Tabelka_rysu1
  6
CONTINUOUS
 62
     7
 10
233.7257
 20
346.657199999999990
 11
233.3909
 21
345.625499999999990
  0
POLYLINE
  8
PT1-Tabelka_rysu1
  6
CONTINUOUS
 62
     7
 66
     1
 70
     1
  0
VERTEX
  8
PT1-Tabelka_rysu1
 10
219.6431
 20
351.917800000000000
  0
VERTEX
  8
PT1-Tabelka_rysu1
 10
233.7257
 20
346.657199999999990
  0
VERTEX
  8
PT1-Tabelka_rysu1
 10
240.3321
 20
364.335600000000000
  0
VERTEX
  8
PT1-Tabelka_rysu1
 10
243.5718
 20
363.124900000000030
  0
VERTEX
  8
PT1-Tabelka_rysu1
 10
245.859
 20
369.244500000000020
  0
VERTEX
  8
PT1-Tabelka_rysu1
 10
242.529
 20
370.488999999999980
  0
VERTEX
  8
PT1-Tabelka_rysu1
 10
242.1551
 20
369.488400000000010
  0
VERTEX
  8
PT1-Tabelka_rysu1
 10
228.1521
 20
374.696399999999980
  0
SEQEND
  8
PT1-Tabelka_rysu1
  0
LINE
  8
PT3-Rzut14
  6
CONTINUOUS
 62
     7
 10
142.7923
 20
260.109500000000030
 11
146.5391
 21
258.709499999999990
  0
LINE
  8
PT3-Rzut14
  6
GESTRICHELT
 62
     7
 10
134.3105
 20
263.229800000000010
 11
33.0018
 21
301.134099999999990
  0
LINE
  8
PT3-Rzut14
  6
GESTRICHELT
 62
     7
 10
28.7692
 20
72.344600000000014
 11
55.1682
 21
62.483200000000011
  0
LINE
  8
PT3-Rzut14
  6
CONTINUOUS
 62
     7
 10
67.2529
 20
57.968900000000019
 11
70.9997
 21
56.569299999999998
  0
LINE
  8
PT3-Rzut14
  6
CONTINUOUS
 62
     7
 10
68.7927
 20
62.089999999999975
 11
141.2519
 21
255.988000000000000
  0
LINE
  8
PT3-Dach17
  6
CONTINUOUS
 62
     7
 10
67.2529
 20
57.968900000000019
 11
66.5526
 21
56.095500000000015
  0
LINE
  8
PT3-Dach17
  6
CONTINUOUS
 62
     7
 10
66.5988
 20
56.079999999999984
 11
28.7692
 21
70.210699999999974
  0
LINE
  8
PT3-Dach17
  6
CONTINUOUS
 62
     7
 10
28.7692
 20
298.379000000000020
 11
30.8919
 21
304.058899999999990
  0
LINE
  8
PT3-Dach17
  6
CONTINUOUS
 62
     7
 10
30.9037
 20
304.072499999999990
 11
143.4748
 21
261.936399999999990
  0
LINE
  8
PT3-Dach17
  6
CONTINUOUS
 62
     7
 10
143.4748
 20
261.936399999999990
 11
142.7923
 21
260.109500000000030
  0
LINE
  8
PT4-Dach21
  6
CONTINUOUS
 62
     7
 10
146.5389
 20
258.709600000000020
 11
147.2393
 21
260.583100000000000
  0
LINE
  8
PT4-Dach21
  6
CONTINUOUS
 62
     7
 10
147.2393
 20
260.583100000000000
 11
178.5238
 21
248.894000000000010
  0
LINE
  8
PT4-Dach21
  6
CONTINUOUS
 62
     7
 10
178.5238
 20
248.894000000000010
 11
195.4315
 21
294.511700000000020
  0
LINE
  8
PT4-Dach21
  6
CONTINUOUS
 62
     7
 10
195.4315
 20
294.511700000000020
 11
233.8719
 21
280.149000000000000
  0
LINE
  8
PT4-Dach21
  6
CONTINUOUS
 62
     7
 10
233.8719
 20
280.149000000000000
 11
208.668
 21
212.704600000000000
  0
LINE
  8
PT4-Dach21
  6
CONTINUOUS
 62
     7
 10
208.668
 20
212.704600000000000
 11
174.945
 21
225.304399999999990
  0
LINE
  8
PT4-Dach21
  6
CONTINUOUS
 62
     7
 10
174.9294
 20
225.329199999999990
 11
106.1789
 21
41.292899999999975
  0
LINE
  8
PT4-Dach21
  6
CONTINUOUS
 62
     7
 10
106.1789
 20
41.292899999999975
 11
70.2713
 21
54.706500000000005
  0
LINE
  8
PT4-Dach21
  6
CONTINUOUS
 62
     7
 10
70.2713
 20
54.706500000000005
 11
70.9997
 21
56.569399999999973
  0
TEXT
  8
PT5-Wymiarowanie24
  6
CONTINUOUS
 62
     7
 10
105.367800000000000
 20
304.667000000000030
 40
1.800000000000000
  1
o
  0
LINE
  8
PT2-Wymiarowanie8
  6
GESTRICHELT
 62
     7
 10
100.5675
 20
19.375900000000001
 11
100.5675
 21
49.632299999999987
  0
LINE
  8
PT2-Wymiarowanie8
  6
CONTINUOUS
 62
     7
 10
56.6921
 20
66.442600000000027
 11
55.1519
 21
62.321599999999989
  0
LINE
  8
PT2-Wymiarowanie8
  6
GESTRICHELT
 62
     7
 10
96.5675
 20
46.858299999999986
 11
96.5675
 21
19.375900000000001
  0
LINE
  8
PT2-Wymiarowanie8
  6
CONTINUOUS
 62
     7
 10
58.9675
 20
28.857300000000009
 11
67.9675
 21
28.857300000000009
  0
LINE
  8
PT2-Wymiarowanie8
  6
CONTINUOUS
 62
     7
 10
67.9675
 20
28.854800000000012
 11
67.9675
 21
32.956299999999999
  0
LINE
  8
PT2-Wymiarowanie8
  6
CONTINUOUS
 62
     7
 10
67.97
 20
32.956299999999999
 11
58.9675
 21
32.957499999999982
  0
LINE
  8
PT2-Wymiarowanie8
  6
CONTINUOUS
 62
     7
 10
58.9675
 20
32.959999999999980
 11
58.9675
 21
28.857300000000009
  0
LINE
  8
PT2-Wymiarowanie8
  6
CONTINUOUS
 62
     7
 10
60.1675
 20
30.054800000000000
 11
60.1675
 21
31.457299999999975
  0
LINE
  8
PT2-Wymiarowanie8
  6
CONTINUOUS
 62
     7
 10
60.165
 20
31.457299999999975
 11
61.5675
 21
31.457299999999975
  0
LINE
  8
PT2-Wymiarowanie8
  6
CONTINUOUS
 62
     7
 10
61.5675
 20
31.459799999999973
 11
61.5675
 21
30.057299999999998
  0
LINE
  8
PT2-Wymiarowanie8
  6
CONTINUOUS
 62
     7
 10
61.57
 20
30.057299999999998
 11
60.1675
 21
30.057299999999998
  0
LINE
  8
PT2-Wymiarowanie8
  6
CONTINUOUS
 62
     7
 10
66.77
 20
30.057299999999998
 11
65.3675
 21
30.057299999999998
  0
LINE
  8
PT2-Wymiarowanie8
  6
CONTINUOUS
 62
     7
 10
65.3675
 20
30.054800000000000
 11
65.3675
 21
31.457299999999975
  0
LINE
  8
PT2-Wymiarowanie8
  6
CONTINUOUS
 62
     7
 10
65.365
 20
31.456700000000012
 11
66.7675
 21
31.457299999999975
  0
LINE
  8
PT2-Wymiarowanie8
  6
CONTINUOUS
 62
     7
 10
66.7675
 20
31.459799999999973
 11
66.7675
 21
30.057299999999998
  0
LINE
  8
PT2-Wymiarowanie8
  6
CONTINUOUS
 62
     7
 10
64.17
 20
30.057299999999998
 11
62.7675
 21
30.057299999999998
  0
LINE
  8
PT2-Wymiarowanie8
  6
CONTINUOUS
 62
     7
 10
62.7675
 20
30.054800000000000
 11
62.7675
 21
31.457299999999975
  0
LINE
  8
PT2-Wymiarowanie8
  6
CONTINUOUS
 62
     7
 10
62.765
 20
31.456999999999994
 11
64.1675
 21
31.457299999999975
  0
LINE
  8
PT2-Wymiarowanie8
  6
CONTINUOUS
 62
     7
 10
64.1675
 20
31.459799999999973
 11
64.1675
 21
30.057299999999998
  0
LINE
  8
PT2-Wymiarowanie8
  6
CONTINUOUS
 62
     7
 10
105.5675
 20
19.375900000000001
 11
105.5675
 21
53.100999999999999
  0
LINE
  8
PT2-Wymiarowanie8
  6
CONTINUOUS
 62
     7
 10
105.5675
 20
53.100999999999999
 11
56.9528
 21
19.375900000000001
  0
LINE
  8
PT2-Wymiarowanie8
  6
CONTINUOUS
 62
     7
 10
105.5675
 20
53.100999999999999
 11
28.7692
 21
81.814700000000016
  0
LINE
  8
PT2-Wymiarowanie8
  6
CONTINUOUS
 62
     7
 10
28.7692
 20
36.546299999999974
 11
40.6807
 21
19.375900000000001
  0
LINE
  8
PT2-Wymiarowanie8
  6
CONTINUOUS
 62
     7
 10
60.1675
 20
30.054800000000000
 11
61.5675
 21
31.459799999999973
  0
LINE
  8
PT2-Wymiarowanie8
  6
CONTINUOUS
 62
     7
 10
62.7675
 20
30.054800000000000
 11
64.1675
 21
31.459799999999973
  0
LINE
  8
PT2-Wymiarowanie8
  6
CONTINUOUS
 62
     7
 10
65.3675
 20
30.054800000000000
 11
66.7675
 21
31.459799999999973
  0
LINE
  8
PT4-Opis19
  6
CONTINUOUS
 62
     7
 10
102.2269
 20
50.721999999999980
 11
105.9765
 21
49.321300000000008
  0
LINE
  8
PT4-Opis19
  6
CONTINUOUS
 62
     7
 10
106.0778
 20
61.025899999999979
 11
109.8272
 21
59.625299999999982
  0
LINE
  8
PT4-Opis19
  6
CONTINUOUS
 62
     7
 10
107.478
 20
64.772800000000018
 11
111.2274
 21
63.372200000000021
  0
LINE
  8
PT4-Opis19
  6
CONTINUOUS
 62
     7
 10
111.3289
 20
75.076799999999992
 11
115.0781
 21
73.676199999999994
  0
LINE
  8
PT4-Opis19
  6
CONTINUOUS
 62
     7
 10
112.7292
 20
78.823599999999999
 11
116.4783
 21
77.423099999999977
  0
LINE
  8
PT4-Opis19
  6
CONTINUOUS
 62
     7
 10
116.58
 20
89.127599999999973
 11
120.329
 21
87.727100000000007
  0
LINE
  8
PT4-Opis19
  6
CONTINUOUS
 62
     7
 10
117.9803
 20
92.874500000000012
 11
121.7292
 21
91.473999999999990
  0
LINE
  8
PT4-Opis19
  6
CONTINUOUS
 62
     7
 10
121.8311
 20
103.178400000000010
 11
125.5799
 21
101.778000000000020
  0
LINE
  8
PT4-Opis19
  6
CONTINUOUS
 62
     7
 10
123.2314
 20
106.925299999999990
 11
126.9801
 21
105.524900000000000
  0
LINE
  8
PT4-Opis19
  6
CONTINUOUS
 62
     7
 10
127.0822
 20
117.229300000000020
 11
130.8308
 21
115.828899999999980
  0
LINE
  8
PT4-Opis19
  6
CONTINUOUS
 62
     7
 10
128.4825
 20
120.976099999999970
 11
132.231
 21
119.575800000000020
  0
LINE
  8
PT4-Opis19
  6
CONTINUOUS
 62
     7
 10
132.3409
 20
131.277199999999990
 11
136.0817
 21
129.879799999999990
  0
LINE
  8
PT4-Opis19
  6
CONTINUOUS
 62
     7
 10
133.7336
 20
135.026999999999990
 11
137.4819
 21
133.626700000000030
  0
LINE
  8
PT4-Opis19
  6
CONTINUOUS
 62
     7
 10
137.5844
 20
145.330900000000010
 11
141.3326
 21
143.930700000000000
  0
LINE
  8
PT4-Opis19
  6
CONTINUOUS
 62
     7
 10
138.9847
 20
149.077800000000000
 11
142.6843
 21
147.695799999999990
  0
LINE
  8
PT4-Opis19
  6
CONTINUOUS
 62
     7
 10
142.8355
 20
159.381800000000000
 11
146.5835
 21
157.981699999999990
  0
LINE
  8
PT4-Opis19
  6
CONTINUOUS
 62
     7
 10
144.2358
 20
163.128600000000010
 11
147.9837
 21
161.728600000000000
  0
LINE
  8
PT4-Opis19
  6
CONTINUOUS
 62
     7
 10
148.0866
 20
173.432600000000010
 11
151.8344
 21
172.032600000000000
  0
LINE
  8
PT4-Opis19
  6
CONTINUOUS
 62
     7
 10
149.4869
 20
177.179499999999990
 11
153.2346
 21
175.779500000000010
  0
LINE
  8
PT4-Opis19
  6
CONTINUOUS
 62
     7
 10
153.3377
 20
187.483399999999990
 11
157.0853
 21
186.083499999999990
  0
LINE
  8
PT4-Opis19
  6
CONTINUOUS
 62
     7
 10
154.738
 20
191.230300000000000
 11
158.4855
 21
189.830400000000000
  0
LINE
  8
PT4-Opis19
  6
CONTINUOUS
 62
     7
 10
158.5888
 20
201.534200000000000
 11
162.3409
 21
200.132600000000000
  0
LINE
  8
PT4-Opis19
  6
CONTINUOUS
 62
     7
 10
159.9891
 20
205.281100000000010
 11
163.7364
 21
203.881300000000010
  0
LINE
  8
PT4-Opis19
  6
CONTINUOUS
 62
     7
 10
163.8399
 20
215.585100000000010
 11
167.5871
 21
214.185300000000010
  0
LINE
  8
PT4-Opis19
  6
CONTINUOUS
 62
     7
 10
165.2402
 20
219.331999999999990
 11
168.9873
 21
217.932199999999990
  0
LINE
  8
PT4-Opis19
  6
CONTINUOUS
 62
     7
 10
169.0911
 20
229.635899999999990
 11
172.838
 21
228.236200000000000
  0
LINE
  8
PT4-Opis19
  6
CONTINUOUS
 62
     7
 10
170.4914
 20
233.382800000000000
 11
177.0484
 21
230.933400000000010
  0
LINE
  8
PT4-Opis19
  6
CONTINUOUS
 62
     7
 10
174.4617
 20
244.006599999999990
 11
181.0213
 21
241.564600000000010
  0
LINE
  8
PT4-Opis19
  6
CONTINUOUS
 62
     7
 10
170.4914
 20
233.382800000000000
 11
169.0911
 21
229.635899999999990
  0
LINE
  8
PT4-Opis19
  6
CONTINUOUS
 62
     7
 10
165.2402
 20
219.331999999999990
 11
163.8399
 21
215.585100000000010
  0
LINE
  8
PT4-Opis19
  6
CONTINUOUS
 62
     7
 10
168.9873
 20
217.932199999999990
 11
167.5871
 21
214.185300000000010
  0
LINE
  8
PT4-Opis19
  6
CONTINUOUS
 62
     7
 10
159.9891
 20
205.281100000000010
 11
158.5888
 21
201.534200000000000
  0
LINE
  8
PT4-Opis19
  6
CONTINUOUS
 62
     7
 10
163.7364
 20
203.881300000000010
 11
162.3409
 21
200.132600000000000
  0
LINE
  8
PT4-Opis19
  6
CONTINUOUS
 62
     7
 10
154.738
 20
191.230300000000000
 11
153.3377
 21
187.483399999999990
  0
LINE
  8
PT4-Opis19
  6
CONTINUOUS
 62
     7
 10
158.4855
 20
189.830400000000000
 11
157.0853
 21
186.083499999999990
  0
LINE
  8
PT4-Opis19
  6
CONTINUOUS
 62
     7
 10
149.4869
 20
177.179499999999990
 11
148.0866
 21
173.432600000000010
  0
LINE
  8
PT4-Opis19
  6
CONTINUOUS
 62
     7
 10
153.2346
 20
175.779500000000010
 11
151.8344
 21
172.032600000000000
  0
LINE
  8
PT4-Opis19
  6
CONTINUOUS
 62
     7
 10
144.2358
 20
163.128600000000010
 11
142.8355
 21
159.381800000000000
  0
LINE
  8
PT4-Opis19
  6
CONTINUOUS
 62
     7
 10
147.9837
 20
161.728600000000000
 11
146.5835
 21
157.981699999999990
  0
LINE
  8
PT4-Opis19
  6
CONTINUOUS
 62
     7
 10
137.5844
 20
145.330900000000010
 11
138.9847
 21
149.077800000000000
  0
LINE
  8
PT4-Opis19
  6
CONTINUOUS
 62
     7
 10
141.3326
 20
143.930700000000000
 11
142.6843
 21
147.695799999999990
  0
LINE
  8
PT4-Opis19
  6
CONTINUOUS
 62
     7
 10
132.3409
 20
131.277199999999990
 11
133.7336
 21
135.026999999999990
  0
LINE
  8
PT4-Opis19
  6
CONTINUOUS
 62
     7
 10
136.0817
 20
129.879799999999990
 11
137.4819
 21
133.626700000000030
  0
LINE
  8
PT4-Opis19
  6
CONTINUOUS
 62
     7
 10
127.0822
 20
117.229300000000020
 11
128.4825
 21
120.976099999999970
  0
LINE
  8
PT4-Opis19
  6
CONTINUOUS
 62
     7
 10
130.8308
 20
115.828899999999980
 11
132.231
 21
119.575800000000020
  0
LINE
  8
PT4-Opis19
  6
CONTINUOUS
 62
     7
 10
121.8311
 20
103.178400000000010
 11
123.2314
 21
106.925299999999990
  0
LINE
  8
PT4-Opis19
  6
CONTINUOUS
 62
     7
 10
125.5799
 20
101.778000000000020
 11
126.9801
 21
105.524900000000000
  0
LINE
  8
PT4-Opis19
  6
CONTINUOUS
 62
     7
 10
116.58
 20
89.127599999999973
 11
117.9803
 21
92.874500000000012
  0
LINE
  8
PT4-Opis19
  6
CONTINUOUS
 62
     7
 10
120.329
 20
87.727100000000007
 11
121.7292
 21
91.473999999999990
  0
LINE
  8
PT4-Opis19
  6
CONTINUOUS
 62
     7
 10
111.3601
 20
75.160500000000013
 11
112.7292
 21
78.823599999999999
  0
LINE
  8
PT4-Opis19
  6
CONTINUOUS
 62
     7
 10
115.0781
 20
73.676199999999994
 11
116.4783
 21
77.423099999999977
  0
LINE
  8
PT4-Opis19
  6
CONTINUOUS
 62
     7
 10
106.0778
 20
61.025899999999979
 11
107.478
 21
64.772800000000018
  0
LINE
  8
PT4-Opis19
  6
CONTINUOUS
 62
     7
 10
109.8272
 20
59.625299999999982
 11
111.2274
 21
63.372200000000021
  0
LINE
  8
PT4-Opis19
  6
CONTINUOUS
 62
     7
 10
104.0687
 20
44.216099999999983
 11
105.9765
 21
49.321300000000008
  0
LINE
  8
PT4-Opis19
  6
CONTINUOUS
 62
     7
 10
101.7194
 20
49.363800000000026
 11
102.2269
 21
50.721999999999980
  0
LINE
  8
PT4-Opis19
  6
GESTRICHELT
 62
     7
 10
75.5779
 20
74.533700000000010
 11
108.6149
 21
62.101800000000026
  0
LINE
  8
PT4-Opis19
  6
GESTRICHELT
 62
     7
 10
86.115
 20
102.730599999999980
 11
119.2094
 21
90.450199999999995
  0
LINE
  8
PT4-Opis19
  6
GESTRICHELT
 62
     7
 10
96.5767
 20
130.725599999999990
 11
129.5646
 21
118.158500000000000
  0
LINE
  8
PT4-Opis19
  6
GESTRICHELT
 62
     7
 10
107.0598
 20
158.777899999999990
 11
140.2202
 21
146.670600000000010
  0
LINE
  8
PT4-Opis19
  6
GESTRICHELT
 62
     7
 10
117.645
 20
187.103399999999990
 11
150.641
 21
174.554399999999990
  0
LINE
  8
PT4-Opis19
  6
GESTRICHELT
 62
     7
 10
128.0727
 20
215.007600000000000
 11
161.17
 21
202.727900000000010
  0
LINE
  8
PT4-Opis19
  6
GESTRICHELT
 62
     7
 10
138.6345
 20
243.270500000000000
 11
171.6607
 21
230.798599999999990
  0
LINE
  8
PT4-Opis19
  6
GESTRICHELT
 62
     7
 10
146.5474
 20
255.875000000000000
 11
126.7877
 21
202.998899999999990
  0
LINE
  8
PT4-Opis19
  6
GESTRICHELT
 62
     7
 10
155.9654
 20
252.778200000000000
 11
82.1668
 21
55.028399999999976
  0
LINE
  8
PT4-Opis19
  6
GESTRICHELT
 62
     7
 10
91.669
 20
51.620499999999993
 11
165.4745
 21
249.388900000000010
  0
LINE
  8
PT4-Opis19
  6
GESTRICHELT
 62
     7
 10
174.7266
 20
245.772300000000000
 11
100.6595
 21
47.379900000000021
  0
LINE
  8
PT4-Opis19
  6
GESTRICHELT
 62
     7
 10
72.6268
 20
58.144400000000019
 11
93.062
 21
112.750400000000010
  0
LINE
  8
PT4-Opis19
  6
GESTRICHELT
 62
     7
 10
94.4623
 20
116.497400000000030
 11
124.8624
 21
197.846800000000000
  0
TEXT
  8
PT4-Opis19
  6
CONTINUOUS
 62
     7
 10
85.621700000000004
 20
71.470599999999990
 40
1.300000000000000
  1
dwuteownik 220 - l=350
  0
TEXT
  8
PT4-Opis19
  6
CONTINUOUS
 62
     7
 10
97.552999999999997
 20
99.194199999999967
 40
1.300000000000000
  1
dwuteownik 220 - l=350
  0
TEXT
  8
PT4-Opis19
  6
CONTINUOUS
 62
     7
 10
108.164900000000000
 20
126.983499999999990
 40
1.300000000000000
  1
dwuteownik 220 - l=350
  0
TEXT
  8
PT4-Opis19
  6
CONTINUOUS
 62
     7
 10
119.086699999999990
 20
155.243799999999990
 40
1.300000000000000
  1
dwuteownik 220 - l=350
  0
TEXT
  8
PT4-Opis19
  6
CONTINUOUS
 62
     7
 10
129.270299999999990
 20
183.384799999999980
 40
1.300000000000000
  1
dwuteownik 220 - l=350
  0
TEXT
  8
PT4-Opis19
  6
CONTINUOUS
 62
     7
 10
139.679300000000010
 20
211.377799999999980
 40
1.300000000000000
  1
dwuteownik 220 - l=350
  0
TEXT
  8
PT4-Opis19
  6
CONTINUOUS
 62
     7
 10
150.446100000000000
 20
239.638099999999980
 40
1.300000000000000
  1
dwuteownik 220 - l=350
  0
TEXT
  8
PT4-Opis19
  6
CONTINUOUS
 62
     7
 10
134.971600000000000
 20
220.582100000000000
 40
1.300000000000000
 50
70.000000000000000
  1
ceownik 140 - l=2110
  0
TEXT
  8
PT4-Opis19
  6
CONTINUOUS
 62
     7
 10
144.142400000000010
 20
217.514299999999990
 40
1.300000000000000
 50
70.000000000000000
  1
ceownik 140 - l=2110
  0
TEXT
  8
PT4-Opis19
  6
CONTINUOUS
 62
     7
 10
153.856900000000000
 20
214.249000000000000
 40
1.300000000000000
 50
70.000000000000000
  1
ceownik 140 - l=2110
  0
TEXT
  8
PT4-Opis19
  6
CONTINUOUS
 62
     7
 10
161.105899999999990
 20
211.830299999999990
 40
1.300000000000000
 50
70.000000000000000
  1
ceownik 140 - l=2110
  0
TEXT
  8
PT4-Opis19
  6
CONTINUOUS
 62
     7
 10
124.542599999999990
 20
45.824700000000007
 40
2.000000000000000
 50
69.500000000000000
  1
1,50
  0
LINE
  8
PT4-Opis19
  6
CONTINUOUS
 62
     7
 10
124.9477
 20
40.096600000000024
 11
130.1986
 21
54.147499999999980
  0
LINE
  8
PT4-Opis19
  6
CONTINUOUS
 62
     7
 10
124.5976
 20
39.159899999999993
 11
124.9477
 21
40.096600000000024
  0
LINE
  8
PT4-Opis19
  6
CONTINUOUS
 62
     7
 10
130.5486
 20
55.084200000000010
 11
130.1986
 21
54.147499999999980
  0
LINE
  8
PT4-Opis19
  6
CONTINUOUS
 62
     7
 10
124.6544
 20
40.739899999999977
 11
125.241
 21
39.453300000000013
  0
LINE
  8
PT4-Opis19
  6
CONTINUOUS
 62
     7
 10
129.9053
 20
54.790799999999990
 11
130.4919
 21
53.504200000000026
  0
LINE
  8
PT4-Opis19
  6
CONTINUOUS
 62
     7
 10
125.8844
 20
39.746500000000026
 11
124.0109
 21
40.446599999999989
  0
LINE
  8
PT4-Opis19
  6
CONTINUOUS
 62
     7
 10
131.1353
 20
53.797399999999982
 11
129.2618
 21
54.497500000000002
  0
TEXT
  8
PT4-Opis19
  6
CONTINUOUS
 62
     7
 10
132.419000000000010
 20
66.901000000000010
 40
2.000000000000000
 50
69.500000000000000
  1
3,00
  0
LINE
  8
PT4-Opis19
  6
CONTINUOUS
 62
     7
 10
130.1986
 20
54.147499999999980
 11
140.7004
 21
82.249300000000005
  0
LINE
  8
PT4-Opis19
  6
CONTINUOUS
 62
     7
 10
129.8485
 20
53.210800000000006
 11
130.1986
 21
54.147499999999980
  0
LINE
  8
PT4-Opis19
  6
CONTINUOUS
 62
     7
 10
141.0504
 20
83.185999999999979
 11
140.7004
 21
82.249300000000005
  0
LINE
  8
PT4-Opis19
  6
CONTINUOUS
 62
     7
 10
129.9053
 20
54.790799999999990
 11
130.4919
 21
53.504200000000026
  0
LINE
  8
PT4-Opis19
  6
CONTINUOUS
 62
     7
 10
140.4071
 20
82.892600000000016
 11
140.9937
 21
81.605999999999995
  0
LINE
  8
PT4-Opis19
  6
CONTINUOUS
 62
     7
 10
131.1353
 20
53.797399999999982
 11
129.2618
 21
54.497599999999977
  0
LINE
  8
PT4-Opis19
  6
CONTINUOUS
 62
     7
 10
141.6371
 20
81.899200000000008
 11
139.7636
 21
82.599400000000003
  0
TEXT
  8
PT4-Opis19
  6
CONTINUOUS
 62
     7
 10
142.920800000000010
 20
95.002900000000011
 40
2.000000000000000
 50
69.500000000000000
  1
3,00
  0
LINE
  8
PT4-Opis19
  6
CONTINUOUS
 62
     7
 10
140.7004
 20
82.249300000000005
 11
151.2022
 21
110.351099999999970
  0
LINE
  8
PT4-Opis19
  6
CONTINUOUS
 62
     7
 10
140.3503
 20
81.312599999999975
 11
140.7004
 21
82.249300000000005
  0
LINE
  8
PT4-Opis19
  6
CONTINUOUS
 62
     7
 10
151.5522
 20
111.287899999999980
 11
151.2022
 21
110.351099999999970
  0
LINE
  8
PT4-Opis19
  6
CONTINUOUS
 62
     7
 10
140.4071
 20
82.892600000000016
 11
140.9937
 21
81.605999999999995
  0
LINE
  8
PT4-Opis19
  6
CONTINUOUS
 62
     7
 10
150.9089
 20
110.994399999999980
 11
151.4955
 21
109.707800000000020
  0
LINE
  8
PT4-Opis19
  6
CONTINUOUS
 62
     7
 10
141.6371
 20
81.899200000000008
 11
139.7636
 21
82.599400000000003
  0
LINE
  8
PT4-Opis19
  6
CONTINUOUS
 62
     7
 10
152.1389
 20
110.001100000000010
 11
150.2655
 21
110.701199999999970
  0
TEXT
  8
PT4-Opis19
  6
CONTINUOUS
 62
     7
 10
153.422599999999990
 20
123.104699999999980
 40
2.000000000000000
 50
69.500000000000000
  1
3,00
  0
LINE
  8
PT4-Opis19
  6
CONTINUOUS
 62
     7
 10
151.2022
 20
110.351099999999970
 11
161.704
 21
138.452900000000000
  0
LINE
  8
PT4-Opis19
  6
CONTINUOUS
 62
     7
 10
150.8521
 20
109.414400000000000
 11
151.2022
 21
110.351099999999970
  0
LINE
  8
PT4-Opis19
  6
CONTINUOUS
 62
     7
 10
162.054
 20
139.389700000000000
 11
161.704
 21
138.452900000000000
  0
LINE
  8
PT4-Opis19
  6
CONTINUOUS
 62
     7
 10
150.9089
 20
110.994399999999980
 11
151.4955
 21
109.707800000000020
  0
LINE
  8
PT4-Opis19
  6
CONTINUOUS
 62
     7
 10
161.4107
 20
139.096200000000010
 11
161.9973
 21
137.809599999999990
  0
LINE
  8
PT4-Opis19
  6
CONTINUOUS
 62
     7
 10
152.1389
 20
110.001100000000010
 11
150.2655
 21
110.701199999999970
  0
LINE
  8
PT4-Opis19
  6
CONTINUOUS
 62
     7
 10
162.6407
 20
138.102899999999980
 11
160.7673
 21
138.803000000000000
  0
TEXT
  8
PT4-Opis19
  6
CONTINUOUS
 62
     7
 10
163.924399999999990
 20
151.206500000000010
 40
2.000000000000000
 50
69.500000000000000
  1
3,00
  0
LINE
  8
PT4-Opis19
  6
CONTINUOUS
 62
     7
 10
161.704
 20
138.452900000000000
 11
172.2058
 21
166.554800000000000
  0
LINE
  8
PT4-Opis19
  6
CONTINUOUS
 62
     7
 10
161.3539
 20
137.516200000000030
 11
161.704
 21
138.452900000000000
  0
LINE
  8
PT4-Opis19
  6
CONTINUOUS
 62
     7
 10
172.5558
 20
167.491500000000000
 11
172.2058
 21
166.554800000000000
  0
LINE
  8
PT4-Opis19
  6
CONTINUOUS
 62
     7
 10
161.4107
 20
139.096200000000010
 11
161.9973
 21
137.809599999999990
  0
LINE
  8
PT4-Opis19
  6
CONTINUOUS
 62
     7
 10
171.9125
 20
167.198100000000010
 11
172.4991
 21
165.911499999999990
  0
LINE
  8
PT4-Opis19
  6
CONTINUOUS
 62
     7
 10
162.6407
 20
138.102899999999980
 11
160.7673
 21
138.803000000000000
  0
LINE
  8
PT4-Opis19
  6
CONTINUOUS
 62
     7
 10
173.1425
 20
166.204700000000000
 11
171.2691
 21
166.904799999999990
  0
TEXT
  8
PT4-Opis19
  6
CONTINUOUS
 62
     7
 10
174.426199999999990
 20
179.308300000000000
 40
2.000000000000000
 50
69.500000000000000
  1
3,00
  0
LINE
  8
PT4-Opis19
  6
CONTINUOUS
 62
     7
 10
172.2058
 20
166.554800000000000
 11
182.7076
 21
194.656600000000000
  0
LINE
  8
PT4-Opis19
  6
CONTINUOUS
 62
     7
 10
171.8557
 20
165.617999999999990
 11
172.2058
 21
166.554800000000000
  0
LINE
  8
PT4-Opis19
  6
CONTINUOUS
 62
     7
 10
183.0577
 20
195.593300000000000
 11
182.7076
 21
194.656600000000000
  0
LINE
  8
PT4-Opis19
  6
CONTINUOUS
 62
     7
 10
171.9125
 20
167.198100000000010
 11
172.4991
 21
165.911499999999990
  0
LINE
  8
PT4-Opis19
  6
CONTINUOUS
 62
     7
 10
182.4143
 20
195.299900000000010
 11
183.0009
 21
194.013299999999990
  0
LINE
  8
PT4-Opis19
  6
CONTINUOUS
 62
     7
 10
173.1425
 20
166.204700000000000
 11
171.2691
 21
166.904799999999990
  0
LINE
  8
PT4-Opis19
  6
CONTINUOUS
 62
     7
 10
183.6443
 20
194.306500000000000
 11
181.7709
 21
195.006599999999990
  0
TEXT
  8
PT4-Opis19
  6
CONTINUOUS
 62
     7
 10
184.928000000000000
 20
207.410100000000000
 40
2.000000000000000
 50
69.500000000000000
  1
3,00
  0
LINE
  8
PT4-Opis19
  6
CONTINUOUS
 62
     7
 10
182.7076
 20
194.656600000000000
 11
193.2094
 21
222.758399999999990
  0
LINE
  8
PT4-Opis19
  6
CONTINUOUS
 62
     7
 10
182.3575
 20
193.719799999999990
 11
182.7076
 21
194.656600000000000
  0
LINE
  8
PT4-Opis19
  6
CONTINUOUS
 62
     7
 10
193.5594
 20
223.695100000000000
 11
193.2094
 21
222.758399999999990
  0
LINE
  8
PT4-Opis19
  6
CONTINUOUS
 62
     7
 10
182.4143
 20
195.299900000000010
 11
183.0009
 21
194.013299999999990
  0
LINE
  8
PT4-Opis19
  6
CONTINUOUS
 62
     7
 10
192.9161
 20
223.401700000000010
 11
193.5027
 21
222.115100000000010
  0
LINE
  8
PT4-Opis19
  6
CONTINUOUS
 62
     7
 10
183.6443
 20
194.306500000000000
 11
181.7709
 21
195.006599999999990
  0
LINE
  8
PT4-Opis19
  6
CONTINUOUS
 62
     7
 10
194.1461
 20
222.408300000000000
 11
192.2727
 21
223.108399999999990
  0
TEXT
  8
PT4-Opis19
  6
CONTINUOUS
 62
     7
 10
192.864700000000000
 20
228.648000000000000
 40
2.000000000000000
 50
69.500000000000000
  1
1,53
  0
TEXT
  8
PT4-Opis19
  6
CONTINUOUS
 62
     7
 10
194.319300000000000
 20
234.697399999999990
 40
1.500000000000000
 50
69.500000000000000
  1
5
  0
LINE
  8
PT4-Opis19
  6
CONTINUOUS
 62
     7
 10
193.2094
 20
222.758399999999990
 11
198.581
 21
237.132399999999990
  0
LINE
  8
PT4-Opis19
  6
CONTINUOUS
 62
     7
 10
192.8593
 20
221.821599999999990
 11
193.2094
 21
222.758399999999990
  0
LINE
  8
PT4-Opis19
  6
CONTINUOUS
 62
     7
 10
198.9311
 20
238.069099999999990
 11
198.581
 21
237.132399999999990
  0
LINE
  8
PT4-Opis19
  6
CONTINUOUS
 62
     7
 10
192.9161
 20
223.401700000000010
 11
193.5027
 21
222.115100000000010
  0
LINE
  8
PT4-Opis19
  6
CONTINUOUS
 62
     7
 10
198.2877
 20
237.775700000000000
 11
198.8743
 21
236.489100000000010
  0
LINE
  8
PT4-Opis19
  6
CONTINUOUS
 62
     7
 10
194.1461
 20
222.408300000000000
 11
192.2727
 21
223.108399999999990
  0
LINE
  8
PT4-Opis19
  6
CONTINUOUS
 62
     7
 10
199.5178
 20
236.782299999999990
 11
197.6443
 21
237.482400000000010
  0
TEXT
  8
PT4-Opis19
  6
CONTINUOUS
 62
     7
 10
122.457900000000000
 20
183.656900000000010
 40
2.000000000000000
 50
339.199999999999990
  1
10
  0
LINE
  8
PT4-Opis19
  6
CONTINUOUS
 62
     7
 10
118.0925
 20
182.653699999999990
 11
119.0272
 21
182.298200000000010
  0
LINE
  8
PT4-Opis19
  6
CONTINUOUS
 62
     7
 10
117.1578
 20
183.009099999999990
 11
118.0925
 21
182.653699999999990
  0
LINE
  8
PT4-Opis19
  6
CONTINUOUS
 62
     7
 10
119.9618
 20
181.942700000000000
 11
119.0272
 21
182.298200000000010
  0
LINE
  8
PT4-Opis19
  6
CONTINUOUS
 62
     7
 10
118.7374
 20
182.943199999999990
 11
117.4475
 21
182.364100000000010
  0
LINE
  8
PT4-Opis19
  6
CONTINUOUS
 62
     7
 10
119.6721
 20
182.587700000000010
 11
118.3822
 21
182.008600000000000
  0
LINE
  8
PT4-Opis19
  6
CONTINUOUS
 62
     7
 10
117.737
 20
181.718999999999990
 11
118.4479
 21
183.588400000000010
  0
LINE
  8
PT4-Opis19
  6
CONTINUOUS
 62
     7
 10
118.6717
 20
181.363499999999990
 11
119.3826
 21
183.232900000000000
  0
TEXT
  8
PT4-Opis19
  6
CONTINUOUS
 62
     7
 10
121.931700000000010
 20
183.857000000000000
 40
2.000000000000000
 50
339.199999999999990
  1
1,00
  0
LINE
  8
PT4-Opis19
  6
CONTINUOUS
 62
     7
 10
119.0272
 20
182.298200000000010
 11
128.3742
 21
178.743400000000010
  0
LINE
  8
PT4-Opis19
  6
CONTINUOUS
 62
     7
 10
118.0925
 20
182.653699999999990
 11
119.0272
 21
182.298200000000010
  0
LINE
  8
PT4-Opis19
  6
CONTINUOUS
 62
     7
 10
129.3089
 20
178.387900000000000
 11
128.3742
 21
178.743400000000010
  0
LINE
  8
PT4-Opis19
  6
CONTINUOUS
 62
     7
 10
119.6721
 20
182.587700000000010
 11
118.3822
 21
182.008600000000000
  0
LINE
  8
PT4-Opis19
  6
CONTINUOUS
 62
     7
 10
129.0192
 20
179.032900000000010
 11
127.7292
 21
178.453800000000000
  0
LINE
  8
PT4-Opis19
  6
CONTINUOUS
 62
     7
 10
118.6717
 20
181.363499999999990
 11
119.3826
 21
183.232900000000000
  0
LINE
  8
PT4-Opis19
  6
CONTINUOUS
 62
     7
 10
128.0187
 20
177.808699999999990
 11
128.7296
 21
179.678000000000000
  0
TEXT
  8
PT4-Opis19
  6
CONTINUOUS
 62
     7
 10
131.278699999999990
 20
180.302200000000000
 40
2.000000000000000
 50
339.199999999999990
  1
1,00
  0
LINE
  8
PT4-Opis19
  6
CONTINUOUS
 62
     7
 10
128.3742
 20
178.743400000000010
 11
137.7212
 21
175.188500000000000
  0
LINE
  8
PT4-Opis19
  6
CONTINUOUS
 62
     7
 10
127.4395
 20
179.098800000000010
 11
128.3742
 21
178.743400000000010
  0
LINE
  8
PT4-Opis19
  6
CONTINUOUS
 62
     7
 10
138.6559
 20
174.833100000000000
 11
137.7212
 21
175.188500000000000
  0
LINE
  8
PT4-Opis19
  6
CONTINUOUS
 62
     7
 10
129.0192
 20
179.032900000000010
 11
127.7292
 21
178.453800000000000
  0
LINE
  8
PT4-Opis19
  6
CONTINUOUS
 62
     7
 10
138.3662
 20
175.478100000000010
 11
137.0762
 21
174.899000000000000
  0
LINE
  8
PT4-Opis19
  6
CONTINUOUS
 62
     7
 10
128.0187
 20
177.808699999999990
 11
128.7296
 21
179.678000000000000
  0
LINE
  8
PT4-Opis19
  6
CONTINUOUS
 62
     7
 10
137.3657
 20
174.253899999999990
 11
138.0767
 21
176.123200000000000
  0
TEXT
  8
PT4-Opis19
  6
CONTINUOUS
 62
     7
 10
140.625800000000000
 20
176.756599999999990
 40
2.000000000000000
 50
339.100000000000020
  1
1,00
  0
LINE
  8
PT4-Opis19
  6
CONTINUOUS
 62
     7
 10
137.7197
 20
175.201100000000000
 11
147.0608
 21
171.631499999999990
  0
LINE
  8
PT4-Opis19
  6
CONTINUOUS
 62
     7
 10
136.7856
 20
175.558100000000000
 11
137.7197
 21
175.201100000000000
  0
LINE
  8
PT4-Opis19
  6
CONTINUOUS
 62
     7
 10
147.9949
 20
171.274599999999990
 11
147.0608
 21
171.631499999999990
  0
LINE
  8
PT4-Opis19
  6
CONTINUOUS
 62
     7
 10
138.3651
 20
175.489600000000000
 11
137.0742
 21
174.912600000000000
  0
LINE
  8
PT4-Opis19
  6
CONTINUOUS
 62
     7
 10
147.7062
 20
171.920099999999990
 11
146.4153
 21
171.342999999999990
  0
LINE
  8
PT4-Opis19
  6
CONTINUOUS
 62
     7
 10
137.3627
 20
174.267000000000000
 11
138.0766
 21
176.135200000000000
  0
LINE
  8
PT4-Opis19
  6
CONTINUOUS
 62
     7
 10
146.7038
 20
170.697399999999990
 11
147.4177
 21
172.565699999999990
  0
TEXT
  8
PT4-Opis19
  6
CONTINUOUS
 62
     7
 10
150.774000000000000
 20
172.878600000000010
 40
2.000000000000000
 50
339.100000000000020
  1
3
  0
LINE
  8
PT4-Opis19
  6
CONTINUOUS
 62
     7
 10
147.0608
 20
171.631499999999990
 11
147.3419
 21
171.524100000000000
  0
LINE
  8
PT4-Opis19
  6
CONTINUOUS
 62
     7
 10
146.1266
 20
171.988499999999990
 11
147.0608
 21
171.631499999999990
  0
LINE
  8
PT4-Opis19
  6
CONTINUOUS
 62
     7
 10
148.276
 20
171.167100000000000
 11
147.3419
 21
171.524100000000000
  0
LINE
  8
PT4-Opis19
  6
CONTINUOUS
 62
     7
 10
147.7062
 20
171.920099999999990
 11
146.4153
 21
171.342999999999990
  0
LINE
  8
PT4-Opis19
  6
CONTINUOUS
 62
     7
 10
147.9874
 20
171.812600000000000
 11
146.6965
 21
171.235600000000010
  0
LINE
  8
PT4-Opis19
  6
CONTINUOUS
 62
     7
 10
146.7038
 20
170.697399999999990
 11
147.4177
 21
172.565699999999990
  0
LINE
  8
PT4-Opis19
  6
CONTINUOUS
 62
     7
 10
146.985
 20
170.590000000000000
 11
147.6989
 21
172.458200000000010
  0
LINE
  8
PT4-Opis19
  6
ENG_PUNKTIERT
 62
     7
 10
192.7097
 20
287.168099999999980
 11
231.1626
 21
272.899299999999980
  0
LINE
  8
PT4-Opis19
  6
ENG_PUNKTIERT
 62
     7
 10
189.2343
 20
277.791400000000010
 11
227.6621
 21
263.531900000000010
  0
LINE
  8
PT4-Opis19
  6
ENG_PUNKTIERT
 62
     7
 10
185.759
 20
268.414700000000040
 11
224.1616
 21
254.164600000000010
  0
LINE
  8
PT4-Opis19
  6
ENG_PUNKTIERT
 62
     7
 10
182.2836
 20
259.038099999999990
 11
220.661
 21
244.797300000000010
  0
LINE
  8
PT4-Opis19
  6
ENG_PUNKTIERT
 62
     7
 10
178.2416
 20
249.871700000000000
 11
217.1605
 21
235.430000000000010
  0
LINE
  8
PT4-Opis19
  6
ENG_PUNKTIERT
 62
     7
 10
143.9989
 20
251.911900000000000
 11
213.6599
 21
226.062700000000010
  0
LINE
  8
PT4-Opis19
  6
ENG_PUNKTIERT
 62
     7
 10
140.5056
 20
242.563899999999990
 11
210.1594
 21
216.695300000000000
  0
LINE
  8
PT4-Opis19
  6
ENG_PUNKTIERT
 62
     7
 10
136.9978
 20
233.177300000000000
 11
172.8863
 21
219.860000000000010
  0
LINE
  8
PT4-Opis19
  6
ENG_PUNKTIERT
 62
     7
 10
133.4972
 20
223.809900000000000
 11
169.3868
 21
210.492300000000000
  0
LINE
  8
PT4-Opis19
  6
ENG_PUNKTIERT
 62
     7
 10
129.9967
 20
214.442600000000000
 11
165.8873
 21
201.124599999999990
  0
LINE
  8
PT4-Opis19
  6
ENG_PUNKTIERT
 62
     7
 10
126.4961
 20
205.075300000000000
 11
162.3878
 21
191.756900000000000
  0
LINE
  8
PT4-Opis19
  6
ENG_PUNKTIERT
 62
     7
 10
122.9956
 20
195.708000000000000
 11
158.8883
 21
182.389199999999990
  0
LINE
  8
PT4-Opis19
  6
ENG_PUNKTIERT
 62
     7
 10
119.495
 20
186.340700000000000
 11
155.3888
 21
173.021500000000000
  0
LINE
  8
PT4-Opis19
  6
ENG_PUNKTIERT
 62
     7
 10
115.9945
 20
176.973299999999990
 11
151.8893
 21
163.653799999999990
  0
LINE
  8
PT4-Opis19
  6
ENG_PUNKTIERT
 62
     7
 10
112.4939
 20
167.605999999999990
 11
148.3898
 21
154.286100000000000
  0
LINE
  8
PT4-Opis19
  6
ENG_PUNKTIERT
 62
     7
 10
108.9385
 20
158.092000000000010
 11
144.8903
 21
144.918399999999990
  0
LINE
  8
PT4-Opis19
  6
ENG_PUNKTIERT
 62
     7
 10
105.4928
 20
148.871399999999990
 11
141.3908
 21
135.550700000000010
  0
LINE
  8
PT4-Opis19
  6
ENG_PUNKTIERT
 62
     7
 10
101.9923
 20
139.504099999999990
 11
137.8913
 21
126.182900000000020
  0
LINE
  8
PT4-Opis19
  6
ENG_PUNKTIERT
 62
     7
 10
98.4917
 20
130.136700000000020
 11
134.3918
 21
116.815200000000000
  0
LINE
  8
PT4-Opis19
  6
ENG_PUNKTIERT
 62
     7
 10
94.9912
 20
120.769400000000020
 11
130.8923
 21
107.447499999999990
  0
LINE
  8
PT4-Opis19
  6
ENG_PUNKTIERT
 62
     7
 10
91.4906
 20
111.402100000000020
 11
127.4154
 21
98.071399999999983
  0
LINE
  8
PT4-Opis19
  6
ENG_PUNKTIERT
 62
     7
 10
87.8023
 20
101.532400000000000
 11
123.6763
 21
88.131300000000010
  0
LINE
  8
PT4-Opis19
  6
ENG_PUNKTIERT
 62
     7
 10
84.3018
 20
92.165099999999995
 11
120.1768
 21
78.763599999999997
  0
LINE
  8
PT4-Opis19
  6
ENG_PUNKTIERT
 62
     7
 10
80.8012
 20
82.797799999999995
 11
116.6774
 21
69.395899999999983
  0
LINE
  8
PT4-Opis19
  6
ENG_PUNKTIERT
 62
     7
 10
77.3007
 20
73.430499999999995
 11
113.1779
 21
60.028200000000027
  0
LINE
  8
PT4-Opis19
  6
ENG_PUNKTIERT
 62
     7
 10
73.8001
 20
64.063199999999995
 11
109.6784
 21
50.660500000000013
  0
TEXT
  8
PT4-Opis19
  6
CONTINUOUS
 62
     7
 10
129.254200000000000
 20
35.580100000000016
 40
2.000000000000000
 50
69.500000000000000
  1
1,00
  0
LINE
  8
PT4-Opis19
  6
CONTINUOUS
 62
     7
 10
130.5349
 20
32.194200000000023
 11
134.0344
 21
41.561899999999980
  0
LINE
  8
PT4-Opis19
  6
CONTINUOUS
 62
     7
 10
130.1849
 20
31.257400000000018
 11
130.5349
 21
32.194200000000023
  0
LINE
  8
PT4-Opis19
  6
CONTINUOUS
 62
     7
 10
134.3843
 20
42.498600000000010
 11
134.0344
 21
41.561899999999980
  0
LINE
  8
PT4-Opis19
  6
CONTINUOUS
 62
     7
 10
130.2415
 20
32.837400000000002
 11
130.8282
 21
31.550900000000013
  0
LINE
  8
PT4-Opis19
  6
CONTINUOUS
 62
     7
 10
133.741
 20
42.205100000000016
 11
134.3277
 21
40.918600000000026
  0
LINE
  8
PT4-Opis19
  6
CONTINUOUS
 62
     7
 10
131.4716
 20
31.844200000000001
 11
129.5981
 21
32.544100000000014
  0
LINE
  8
PT4-Opis19
  6
CONTINUOUS
 62
     7
 10
134.9711
 20
41.211900000000014
 11
133.0976
 21
41.911800000000028
  0
TEXT
  8
PT4-Opis19
  6
CONTINUOUS
 62
     7
 10
132.753700000000010
 20
44.947799999999972
 40
2.000000000000000
 50
69.500000000000000
  1
1,00
  0
LINE
  8
PT4-Opis19
  6
CONTINUOUS
 62
     7
 10
134.0344
 20
41.561899999999980
 11
137.5339
 21
50.929599999999994
  0
LINE
  8
PT4-Opis19
  6
CONTINUOUS
 62
     7
 10
133.6844
 20
40.625099999999975
 11
134.0344
 21
41.561899999999980
  0
LINE
  8
PT4-Opis19
  6
CONTINUOUS
 62
     7
 10
137.8838
 20
51.866300000000024
 11
137.5339
 21
50.929599999999994
  0
LINE
  8
PT4-Opis19
  6
CONTINUOUS
 62
     7
 10
133.741
 20
42.205100000000016
 11
134.3277
 21
40.918600000000026
  0
LINE
  8
PT4-Opis19
  6
CONTINUOUS
 62
     7
 10
137.2405
 20
51.572799999999972
 11
137.8272
 21
50.286299999999983
  0
LINE
  8
PT4-Opis19
  6
CONTINUOUS
 62
     7
 10
134.9711
 20
41.211900000000014
 11
133.0976
 21
41.911800000000028
  0
LINE
  8
PT4-Opis19
  6
CONTINUOUS
 62
     7
 10
138.4706
 20
50.579600000000028
 11
136.5971
 21
51.279499999999985
  0
TEXT
  8
PT4-Opis19
  6
CONTINUOUS
 62
     7
 10
136.253199999999990
 20
54.315499999999986
 40
2.000000000000000
 50
69.500000000000000
  1
1,00
  0
LINE
  8
PT4-Opis19
  6
CONTINUOUS
 62
     7
 10
137.5339
 20
50.929599999999994
 11
141.0333
 21
60.297300000000007
  0
LINE
  8
PT4-Opis19
  6
CONTINUOUS
 62
     7
 10
137.1839
 20
49.992799999999988
 11
137.5339
 21
50.929599999999994
  0
LINE
  8
PT4-Opis19
  6
CONTINUOUS
 62
     7
 10
141.3833
 20
61.233999999999980
 11
141.0333
 21
60.297300000000007
  0
LINE
  8
PT4-Opis19
  6
CONTINUOUS
 62
     7
 10
137.2405
 20
51.572799999999972
 11
137.8272
 21
50.286299999999983
  0
LINE
  8
PT4-Opis19
  6
CONTINUOUS
 62
     7
 10
140.74
 20
60.940499999999986
 11
141.3267
 21
59.653999999999996
  0
LINE
  8
PT4-Opis19
  6
CONTINUOUS
 62
     7
 10
138.4706
 20
50.579600000000028
 11
136.5971
 21
51.279499999999985
  0
LINE
  8
PT4-Opis19
  6
CONTINUOUS
 62
     7
 10
141.9701
 20
59.947299999999984
 11
140.0966
 21
60.647199999999998
  0
TEXT
  8
PT4-Opis19
  6
CONTINUOUS
 62
     7
 10
139.752700000000000
 20
63.683199999999999
 40
2.000000000000000
 50
69.500000000000000
  1
1,00
  0
LINE
  8
PT4-Opis19
  6
CONTINUOUS
 62
     7
 10
141.0333
 20
60.297300000000007
 11
144.5328
 21
69.664899999999989
  0
LINE
  8
PT4-Opis19
  6
CONTINUOUS
 62
     7
 10
140.6834
 20
59.360500000000002
 11
141.0333
 21
60.297300000000007
  0
LINE
  8
PT4-Opis19
  6
CONTINUOUS
 62
     7
 10
144.8828
 20
70.601699999999994
 11
144.5328
 21
69.664899999999989
  0
LINE
  8
PT4-Opis19
  6
CONTINUOUS
 62
     7
 10
140.74
 20
60.940499999999986
 11
141.3267
 21
59.653999999999996
  0
LINE
  8
PT4-Opis19
  6
CONTINUOUS
 62
     7
 10
144.2395
 20
70.308199999999999
 11
144.8262
 21
69.021700000000010
  0
LINE
  8
PT4-Opis19
  6
CONTINUOUS
 62
     7
 10
141.9701
 20
59.947299999999984
 11
140.0966
 21
60.647199999999998
  0
LINE
  8
PT4-Opis19
  6
CONTINUOUS
 62
     7
 10
145.4696
 20
69.314999999999998
 11
143.5961
 21
70.014900000000011
  0
TEXT
  8
PT4-Opis19
  6
CONTINUOUS
 62
     7
 10
143.252199999999990
 20
73.050799999999981
 40
2.000000000000000
 50
69.500000000000000
  1
1,00
  0
LINE
  8
PT4-Opis19
  6
CONTINUOUS
 62
     7
 10
144.5328
 20
69.664899999999989
 11
148.0323
 21
79.032600000000002
  0
LINE
  8
PT4-Opis19
  6
CONTINUOUS
 62
     7
 10
144.1829
 20
68.728200000000015
 11
144.5328
 21
69.664899999999989
  0
LINE
  8
PT4-Opis19
  6
CONTINUOUS
 62
     7
 10
148.3823
 20
79.969400000000007
 11
148.0323
 21
79.032600000000002
  0
LINE
  8
PT4-Opis19
  6
CONTINUOUS
 62
     7
 10
144.2395
 20
70.308199999999999
 11
144.8262
 21
69.021700000000010
  0
LINE
  8
PT4-Opis19
  6
CONTINUOUS
 62
     7
 10
147.739
 20
79.675900000000013
 11
148.3257
 21
78.389400000000023
  0
LINE
  8
PT4-Opis19
  6
CONTINUOUS
 62
     7
 10
145.4696
 20
69.314999999999998
 11
143.5961
 21
70.014900000000011
  0
LINE
  8
PT4-Opis19
  6
CONTINUOUS
 62
     7
 10
148.9691
 20
78.682700000000011
 11
147.0956
 21
79.382600000000025
  0
TEXT
  8
PT4-Opis19
  6
CONTINUOUS
 62
     7
 10
146.860199999999990
 20
82.708900000000028
 40
2.000000000000000
 50
69.500000000000000
  1
1,06
  0
LINE
  8
PT4-Opis19
  6
CONTINUOUS
 62
     7
 10
148.0323
 20
79.032600000000002
 11
151.7488
 21
88.981100000000026
  0
LINE
  8
PT4-Opis19
  6
CONTINUOUS
 62
     7
 10
147.6824
 20
78.095799999999997
 11
148.0323
 21
79.032600000000002
  0
LINE
  8
PT4-Opis19
  6
CONTINUOUS
 62
     7
 10
152.0987
 20
89.917899999999975
 11
151.7488
 21
88.981100000000026
  0
LINE
  8
PT4-Opis19
  6
CONTINUOUS
 62
     7
 10
147.739
 20
79.675900000000013
 11
148.3257
 21
78.389400000000023
  0
LINE
  8
PT4-Opis19
  6
CONTINUOUS
 62
     7
 10
151.4554
 20
89.624399999999980
 11
152.0422
 21
88.337899999999991
  0
LINE
  8
PT4-Opis19
  6
CONTINUOUS
 62
     7
 10
148.9691
 20
78.682700000000011
 11
147.0956
 21
79.382600000000025
  0
LINE
  8
PT4-Opis19
  6
CONTINUOUS
 62
     7
 10
152.6856
 20
88.631199999999978
 11
150.812
 21
89.331099999999992
  0
TEXT
  8
PT4-Opis19
  6
CONTINUOUS
 62
     7
 10
150.496100000000010
 20
92.419699999999978
 40
2.000000000000000
 50
69.700000000000003
  1
1,00
  0
LINE
  8
PT4-Opis19
  6
CONTINUOUS
 62
     7
 10
151.7932
 20
89.031499999999994
 11
155.2701
 21
98.407500000000027
  0
LINE
  8
PT4-Opis19
  6
CONTINUOUS
 62
     7
 10
151.4455
 20
88.093799999999987
 11
151.7932
 21
89.031499999999994
  0
LINE
  8
PT4-Opis19
  6
CONTINUOUS
 62
     7
 10
155.6178
 20
99.345199999999977
 11
155.2701
 21
98.407500000000027
  0
LINE
  8
PT4-Opis19
  6
CONTINUOUS
 62
     7
 10
151.4983
 20
89.673999999999978
 11
152.0881
 21
88.388899999999978
  0
LINE
  8
PT4-Opis19
  6
CONTINUOUS
 62
     7
 10
154.9752
 20
99.050099999999986
 11
155.5651
 21
97.764999999999986
  0
LINE
  8
PT4-Opis19
  6
CONTINUOUS
 62
     7
 10
152.7308
 20
88.683800000000019
 11
150.8556
 21
89.379200000000026
  0
LINE
  8
PT4-Opis19
  6
CONTINUOUS
 62
     7
 10
156.2078
 20
98.059900000000027
 11
154.3325
 21
98.755200000000002
  0
TEXT
  8
PT4-Opis19
  6
CONTINUOUS
 62
     7
 10
153.973000000000010
 20
101.795799999999990
 40
2.000000000000000
 50
69.700000000000003
  1
1,00
  0
LINE
  8
PT4-Opis19
  6
CONTINUOUS
 62
     7
 10
155.2701
 20
98.407500000000027
 11
158.7471
 21
107.783599999999980
  0
LINE
  8
PT4-Opis19
  6
CONTINUOUS
 62
     7
 10
154.9225
 20
97.469899999999996
 11
155.2701
 21
98.407500000000027
  0
LINE
  8
PT4-Opis19
  6
CONTINUOUS
 62
     7
 10
159.0947
 20
108.721200000000010
 11
158.7471
 21
107.783599999999980
  0
LINE
  8
PT4-Opis19
  6
CONTINUOUS
 62
     7
 10
154.9752
 20
99.050099999999986
 11
155.5651
 21
97.764999999999986
  0
LINE
  8
PT4-Opis19
  6
CONTINUOUS
 62
     7
 10
158.4521
 20
108.426199999999990
 11
159.042
 21
107.141099999999990
  0
LINE
  8
PT4-Opis19
  6
CONTINUOUS
 62
     7
 10
156.2078
 20
98.059900000000027
 11
154.3325
 21
98.755200000000002
  0
LINE
  8
PT4-Opis19
  6
CONTINUOUS
 62
     7
 10
159.6847
 20
107.435900000000000
 11
157.8094
 21
108.131300000000010
  0
TEXT
  8
PT4-Opis19
  6
CONTINUOUS
 62
     7
 10
157.449900000000010
 20
111.171899999999990
 40
2.000000000000000
 50
69.700000000000003
  1
1,00
  0
LINE
  8
PT4-Opis19
  6
CONTINUOUS
 62
     7
 10
158.7471
 20
107.783599999999980
 11
162.224
 21
117.159699999999990
  0
LINE
  8
PT4-Opis19
  6
CONTINUOUS
 62
     7
 10
158.3994
 20
106.846000000000000
 11
158.7471
 21
107.783599999999980
  0
LINE
  8
PT4-Opis19
  6
CONTINUOUS
 62
     7
 10
162.5717
 20
118.097300000000020
 11
162.224
 21
117.159699999999990
  0
LINE
  8
PT4-Opis19
  6
CONTINUOUS
 62
     7
 10
158.4521
 20
108.426199999999990
 11
159.042
 21
107.141099999999990
  0
LINE
  8
PT4-Opis19
  6
CONTINUOUS
 62
     7
 10
161.9291
 20
117.802300000000000
 11
162.5189
 21
116.517200000000000
  0
LINE
  8
PT4-Opis19
  6
CONTINUOUS
 62
     7
 10
159.6847
 20
107.435900000000000
 11
157.8094
 21
108.131300000000010
  0
LINE
  8
PT4-Opis19
  6
CONTINUOUS
 62
     7
 10
163.1616
 20
116.812000000000010
 11
161.2864
 21
117.507400000000020
  0
TEXT
  8
PT4-Opis19
  6
CONTINUOUS
 62
     7
 10
160.926799999999990
 20
120.548000000000000
 40
2.000000000000000
 50
69.700000000000003
  1
1,00
  0
LINE
  8
PT4-Opis19
  6
CONTINUOUS
 62
     7
 10
162.224
 20
117.159699999999990
 11
165.7009
 21
126.535799999999990
  0
LINE
  8
PT4-Opis19
  6
CONTINUOUS
 62
     7
 10
161.8763
 20
116.222100000000010
 11
162.224
 21
117.159699999999990
  0
LINE
  8
PT4-Opis19
  6
CONTINUOUS
 62
     7
 10
166.0486
 20
127.473400000000030
 11
165.7009
 21
126.535799999999990
  0
LINE
  8
PT4-Opis19
  6
CONTINUOUS
 62
     7
 10
161.9291
 20
117.802300000000000
 11
162.5189
 21
116.517200000000000
  0
LINE
  8
PT4-Opis19
  6
CONTINUOUS
 62
     7
 10
165.406
 20
127.178400000000010
 11
165.9958
 21
125.893199999999980
  0
LINE
  8
PT4-Opis19
  6
CONTINUOUS
 62
     7
 10
163.1616
 20
116.812000000000010
 11
161.2864
 21
117.507400000000020
  0
LINE
  8
PT4-Opis19
  6
CONTINUOUS
 62
     7
 10
166.6385
 20
126.188100000000020
 11
164.7633
 21
126.883500000000030
  0
TEXT
  8
PT4-Opis19
  6
CONTINUOUS
 62
     7
 10
164.403699999999990
 20
129.924100000000010
 40
2.000000000000000
 50
69.700000000000003
  1
1,00
  0
LINE
  8
PT4-Opis19
  6
CONTINUOUS
 62
     7
 10
165.7009
 20
126.535799999999990
 11
169.1778
 21
135.911900000000000
  0
LINE
  8
PT4-Opis19
  6
CONTINUOUS
 62
     7
 10
165.3532
 20
125.598200000000020
 11
165.7009
 21
126.535799999999990
  0
LINE
  8
PT4-Opis19
  6
CONTINUOUS
 62
     7
 10
169.5255
 20
136.849499999999980
 11
169.1778
 21
135.911900000000000
  0
LINE
  8
PT4-Opis19
  6
CONTINUOUS
 62
     7
 10
165.406
 20
127.178400000000010
 11
165.9958
 21
125.893199999999980
  0
LINE
  8
PT4-Opis19
  6
CONTINUOUS
 62
     7
 10
168.8829
 20
136.554399999999990
 11
169.4727
 21
135.269299999999990
  0
LINE
  8
PT4-Opis19
  6
CONTINUOUS
 62
     7
 10
166.6385
 20
126.188100000000020
 11
164.7633
 21
126.883500000000030
  0
LINE
  8
PT4-Opis19
  6
CONTINUOUS
 62
     7
 10
170.1154
 20
135.564200000000030
 11
168.2402
 21
136.259599999999980
  0
TEXT
  8
PT4-Opis19
  6
CONTINUOUS
 62
     7
 10
167.880599999999990
 20
139.300099999999990
 40
2.000000000000000
 50
69.700000000000003
  1
1,00
  0
LINE
  8
PT4-Opis19
  6
CONTINUOUS
 62
     7
 10
169.1778
 20
135.911900000000000
 11
172.6547
 21
145.288000000000010
  0
LINE
  8
PT4-Opis19
  6
CONTINUOUS
 62
     7
 10
168.8301
 20
134.974300000000030
 11
169.1778
 21
135.911900000000000
  0
LINE
  8
PT4-Opis19
  6
CONTINUOUS
 62
     7
 10
173.0024
 20
146.225599999999990
 11
172.6547
 21
145.288000000000010
  0
LINE
  8
PT4-Opis19
  6
CONTINUOUS
 62
     7
 10
168.8829
 20
136.554399999999990
 11
169.4727
 21
135.269299999999990
  0
LINE
  8
PT4-Opis19
  6
CONTINUOUS
 62
     7
 10
172.3598
 20
145.930499999999990
 11
172.9496
 21
144.645400000000000
  0
LINE
  8
PT4-Opis19
  6
CONTINUOUS
 62
     7
 10
170.1154
 20
135.564200000000030
 11
168.2402
 21
136.259599999999980
  0
LINE
  8
PT4-Opis19
  6
CONTINUOUS
 62
     7
 10
173.5923
 20
144.940300000000010
 11
171.7171
 21
145.635700000000010
  0
TEXT
  8
PT4-Opis19
  6
CONTINUOUS
 62
     7
 10
171.357499999999990
 20
148.676199999999990
 40
2.000000000000000
 50
69.700000000000003
  1
1,00
  0
LINE
  8
PT4-Opis19
  6
CONTINUOUS
 62
     7
 10
172.6547
 20
145.288000000000010
 11
176.1316
 21
154.664099999999990
  0
LINE
  8
PT4-Opis19
  6
CONTINUOUS
 62
     7
 10
172.307
 20
144.350400000000010
 11
172.6547
 21
145.288000000000010
  0
LINE
  8
PT4-Opis19
  6
CONTINUOUS
 62
     7
 10
176.4793
 20
155.601699999999990
 11
176.1316
 21
154.664099999999990
  0
LINE
  8
PT4-Opis19
  6
CONTINUOUS
 62
     7
 10
172.3598
 20
145.930499999999990
 11
172.9496
 21
144.645400000000000
  0
LINE
  8
PT4-Opis19
  6
CONTINUOUS
 62
     7
 10
175.8367
 20
155.306600000000000
 11
176.4265
 21
154.021500000000000
  0
LINE
  8
PT4-Opis19
  6
CONTINUOUS
 62
     7
 10
173.5923
 20
144.940300000000010
 11
171.7171
 21
145.635700000000010
  0
LINE
  8
PT4-Opis19
  6
CONTINUOUS
 62
     7
 10
177.0692
 20
154.316399999999990
 11
175.194
 21
155.011799999999990
  0
TEXT
  8
PT4-Opis19
  6
CONTINUOUS
 62
     7
 10
174.834499999999990
 20
158.052300000000000
 40
2.000000000000000
 50
69.700000000000003
  1
1,00
  0
LINE
  8
PT4-Opis19
  6
CONTINUOUS
 62
     7
 10
176.1316
 20
154.664099999999990
 11
179.6085
 21
164.040100000000000
  0
LINE
  8
PT4-Opis19
  6
CONTINUOUS
 62
     7
 10
175.7839
 20
153.726400000000010
 11
176.1316
 21
154.664099999999990
  0
LINE
  8
PT4-Opis19
  6
CONTINUOUS
 62
     7
 10
179.9562
 20
164.977800000000000
 11
179.6085
 21
164.040100000000000
  0
LINE
  8
PT4-Opis19
  6
CONTINUOUS
 62
     7
 10
175.8367
 20
155.306600000000000
 11
176.4265
 21
154.021500000000000
  0
LINE
  8
PT4-Opis19
  6
CONTINUOUS
 62
     7
 10
179.3136
 20
164.682700000000010
 11
179.9034
 21
163.397600000000010
  0
LINE
  8
PT4-Opis19
  6
CONTINUOUS
 62
     7
 10
177.0692
 20
154.316399999999990
 11
175.194
 21
155.011799999999990
  0
LINE
  8
PT4-Opis19
  6
CONTINUOUS
 62
     7
 10
180.5461
 20
163.692500000000000
 11
178.6709
 21
164.387800000000000
  0
TEXT
  8
PT4-Opis19
  6
CONTINUOUS
 62
     7
 10
178.311399999999990
 20
167.428400000000010
 40
2.000000000000000
 50
69.700000000000003
  1
1,00
  0
LINE
  8
PT4-Opis19
  6
CONTINUOUS
 62
     7
 10
179.6085
 20
164.040100000000000
 11
183.0854
 21
173.416200000000000
  0
LINE
  8
PT4-Opis19
  6
CONTINUOUS
 62
     7
 10
179.2608
 20
163.102499999999990
 11
179.6085
 21
164.040100000000000
  0
LINE
  8
PT4-Opis19
  6
CONTINUOUS
 62
     7
 10
183.4331
 20
174.353800000000010
 11
183.0854
 21
173.416200000000000
  0
LINE
  8
PT4-Opis19
  6
CONTINUOUS
 62
     7
 10
179.3136
 20
164.682700000000010
 11
179.9034
 21
163.397600000000010
  0
LINE
  8
PT4-Opis19
  6
CONTINUOUS
 62
     7
 10
182.7905
 20
174.058799999999990
 11
183.3804
 21
172.773699999999990
  0
LINE
  8
PT4-Opis19
  6
CONTINUOUS
 62
     7
 10
180.5461
 20
163.692500000000000
 11
178.6709
 21
164.387800000000000
  0
LINE
  8
PT4-Opis19
  6
CONTINUOUS
 62
     7
 10
184.0231
 20
173.068500000000000
 11
182.1478
 21
173.763900000000010
  0
TEXT
  8
PT4-Opis19
  6
CONTINUOUS
 62
     7
 10
181.788299999999990
 20
176.804499999999990
 40
2.000000000000000
 50
69.700000000000003
  1
1,00
  0
LINE
  8
PT4-Opis19
  6
CONTINUOUS
 62
     7
 10
183.0854
 20
173.416200000000000
 11
186.5624
 21
182.792300000000010
  0
LINE
  8
PT4-Opis19
  6
CONTINUOUS
 62
     7
 10
182.7378
 20
172.478600000000000
 11
183.0854
 21
173.416200000000000
  0
LINE
  8
PT4-Opis19
  6
CONTINUOUS
 62
     7
 10
186.91
 20
183.729899999999990
 11
186.5624
 21
182.792300000000010
  0
LINE
  8
PT4-Opis19
  6
CONTINUOUS
 62
     7
 10
182.7905
 20
174.058799999999990
 11
183.3804
 21
172.773699999999990
  0
LINE
  8
PT4-Opis19
  6
CONTINUOUS
 62
     7
 10
186.2674
 20
183.434900000000000
 11
186.8573
 21
182.149800000000000
  0
LINE
  8
PT4-Opis19
  6
CONTINUOUS
 62
     7
 10
184.0231
 20
173.068500000000000
 11
182.1478
 21
173.763900000000010
  0
LINE
  8
PT4-Opis19
  6
CONTINUOUS
 62
     7
 10
187.5
 20
182.444600000000010
 11
185.6247
 21
183.139999999999990
  0
TEXT
  8
PT4-Opis19
  6
CONTINUOUS
 62
     7
 10
185.265199999999990
 20
186.180600000000000
 40
2.000000000000000
 50
69.700000000000003
  1
1,00
  0
LINE
  8
PT4-Opis19
  6
CONTINUOUS
 62
     7
 10
186.5624
 20
182.792300000000010
 11
190.0393
 21
192.168399999999990
  0
LINE
  8
PT4-Opis19
  6
CONTINUOUS
 62
     7
 10
186.2147
 20
181.854700000000010
 11
186.5624
 21
182.792300000000010
  0
LINE
  8
PT4-Opis19
  6
CONTINUOUS
 62
     7
 10
190.387
 20
193.105999999999990
 11
190.0393
 21
192.168399999999990
  0
LINE
  8
PT4-Opis19
  6
CONTINUOUS
 62
     7
 10
186.2674
 20
183.434900000000000
 11
186.8573
 21
182.149800000000000
  0
LINE
  8
PT4-Opis19
  6
CONTINUOUS
 62
     7
 10
189.7444
 20
192.811000000000010
 11
190.3342
 21
191.525800000000000
  0
LINE
  8
PT4-Opis19
  6
CONTINUOUS
 62
     7
 10
187.5
 20
182.444600000000010
 11
185.6247
 21
183.139999999999990
  0
LINE
  8
PT4-Opis19
  6
CONTINUOUS
 62
     7
 10
190.9769
 20
191.820699999999990
 11
189.1017
 21
192.516099999999990
  0
TEXT
  8
PT4-Opis19
  6
CONTINUOUS
 62
     7
 10
188.742099999999990
 20
195.556700000000010
 40
2.000000000000000
 50
69.700000000000003
  1
1,00
  0
LINE
  8
PT4-Opis19
  6
CONTINUOUS
 62
     7
 10
190.0393
 20
192.168399999999990
 11
193.5162
 21
201.544500000000000
  0
LINE
  8
PT4-Opis19
  6
CONTINUOUS
 62
     7
 10
189.6916
 20
191.230799999999990
 11
190.0393
 21
192.168399999999990
  0
LINE
  8
PT4-Opis19
  6
CONTINUOUS
 62
     7
 10
193.8639
 20
202.482100000000000
 11
193.5162
 21
201.544500000000000
  0
LINE
  8
PT4-Opis19
  6
CONTINUOUS
 62
     7
 10
189.7444
 20
192.811000000000010
 11
190.3342
 21
191.525800000000000
  0
LINE
  8
PT4-Opis19
  6
CONTINUOUS
 62
     7
 10
193.2213
 20
202.187000000000010
 11
193.8111
 21
200.901900000000010
  0
LINE
  8
PT4-Opis19
  6
CONTINUOUS
 62
     7
 10
190.9769
 20
191.820699999999990
 11
189.1017
 21
192.516099999999990
  0
LINE
  8
PT4-Opis19
  6
CONTINUOUS
 62
     7
 10
194.4538
 20
201.196800000000000
 11
192.5786
 21
201.892200000000000
  0
TEXT
  8
PT4-Opis19
  6
CONTINUOUS
 62
     7
 10
192.218999999999990
 20
204.932700000000010
 40
2.000000000000000
 50
69.700000000000003
  1
1,00
  0
LINE
  8
PT4-Opis19
  6
CONTINUOUS
 62
     7
 10
193.5162
 20
201.544500000000000
 11
196.9931
 21
210.920600000000010
  0
LINE
  8
PT4-Opis19
  6
CONTINUOUS
 62
     7
 10
193.1685
 20
200.606900000000000
 11
193.5162
 21
201.544500000000000
  0
LINE
  8
PT4-Opis19
  6
CONTINUOUS
 62
     7
 10
197.3408
 20
211.858200000000010
 11
196.9931
 21
210.920600000000010
  0
LINE
  8
PT4-Opis19
  6
CONTINUOUS
 62
     7
 10
193.2213
 20
202.187000000000010
 11
193.8111
 21
200.901900000000010
  0
LINE
  8
PT4-Opis19
  6
CONTINUOUS
 62
     7
 10
196.6982
 20
211.563099999999990
 11
197.288
 21
210.277999999999990
  0
LINE
  8
PT4-Opis19
  6
CONTINUOUS
 62
     7
 10
194.4538
 20
201.196800000000000
 11
192.5786
 21
201.892200000000000
  0
LINE
  8
PT4-Opis19
  6
CONTINUOUS
 62
     7
 10
197.9307
 20
210.572900000000000
 11
196.0555
 21
211.268300000000010
  0
TEXT
  8
PT4-Opis19
  6
CONTINUOUS
 62
     7
 10
195.961700000000010
 20
214.147300000000000
 40
2.000000000000000
 50
69.500000000000000
  1
1,00
  0
LINE
  8
PT4-Opis19
  6
CONTINUOUS
 62
     7
 10
197.2423
 20
210.761400000000010
 11
200.7418
 21
220.129099999999990
  0
LINE
  8
PT4-Opis19
  6
CONTINUOUS
 62
     7
 10
196.8923
 20
209.824600000000000
 11
197.2423
 21
210.761400000000010
  0
LINE
  8
PT4-Opis19
  6
CONTINUOUS
 62
     7
 10
201.0917
 20
221.065800000000000
 11
200.7418
 21
220.129099999999990
  0
LINE
  8
PT4-Opis19
  6
CONTINUOUS
 62
     7
 10
196.9489
 20
211.404599999999990
 11
197.5357
 21
210.118100000000000
  0
LINE
  8
PT4-Opis19
  6
CONTINUOUS
 62
     7
 10
200.4484
 20
220.772300000000000
 11
201.0352
 21
219.485800000000010
  0
LINE
  8
PT4-Opis19
  6
CONTINUOUS
 62
     7
 10
198.1791
 20
210.411399999999990
 11
196.3055
 21
211.111300000000000
  0
LINE
  8
PT4-Opis19
  6
CONTINUOUS
 62
     7
 10
201.6786
 20
219.779100000000000
 11
199.805
 21
220.479000000000010
  0
TEXT
  8
PT4-Opis19
  6
CONTINUOUS
 62
     7
 10
199.461199999999990
 20
223.514999999999990
 40
2.000000000000000
 50
69.500000000000000
  1
1,00
  0
LINE
  8
PT4-Opis19
  6
CONTINUOUS
 62
     7
 10
200.7418
 20
220.129099999999990
 11
204.2413
 21
229.496800000000010
  0
LINE
  8
PT4-Opis19
  6
CONTINUOUS
 62
     7
 10
200.3919
 20
219.192299999999990
 11
200.7418
 21
220.129099999999990
  0
LINE
  8
PT4-Opis19
  6
CONTINUOUS
 62
     7
 10
204.5913
 20
230.433600000000010
 11
204.2413
 21
229.496800000000010
  0
LINE
  8
PT4-Opis19
  6
CONTINUOUS
 62
     7
 10
200.4484
 20
220.772300000000000
 11
201.0352
 21
219.485800000000010
  0
LINE
  8
PT4-Opis19
  6
CONTINUOUS
 62
     7
 10
203.948
 20
230.140099999999990
 11
204.5347
 21
228.853600000000000
  0
LINE
  8
PT4-Opis19
  6
CONTINUOUS
 62
     7
 10
201.6786
 20
219.779100000000000
 11
199.805
 21
220.479000000000010
  0
LINE
  8
PT4-Opis19
  6
CONTINUOUS
 62
     7
 10
205.1781
 20
229.146899999999990
 11
203.3045
 21
229.846800000000000
  0
TEXT
  8
PT4-Opis19
  6
CONTINUOUS
 62
     7
 10
202.960700000000000
 20
232.882800000000000
 40
2.000000000000000
 50
69.500000000000000
  1
1,00
  0
LINE
  8
PT4-Opis19
  6
CONTINUOUS
 62
     7
 10
204.2413
 20
229.496800000000010
 11
207.7408
 21
238.864600000000000
  0
LINE
  8
PT4-Opis19
  6
CONTINUOUS
 62
     7
 10
203.8914
 20
228.560100000000010
 11
204.2413
 21
229.496800000000010
  0
LINE
  8
PT4-Opis19
  6
CONTINUOUS
 62
     7
 10
208.0908
 20
239.801300000000000
 11
207.7408
 21
238.864600000000000
  0
LINE
  8
PT4-Opis19
  6
CONTINUOUS
 62
     7
 10
203.948
 20
230.140099999999990
 11
204.5347
 21
228.853600000000000
  0
LINE
  8
PT4-Opis19
  6
CONTINUOUS
 62
     7
 10
207.4475
 20
239.507800000000000
 11
208.0342
 21
238.221300000000010
  0
LINE
  8
PT4-Opis19
  6
CONTINUOUS
 62
     7
 10
205.1781
 20
229.146899999999990
 11
203.3045
 21
229.846800000000000
  0
LINE
  8
PT4-Opis19
  6
CONTINUOUS
 62
     7
 10
208.6776
 20
238.514600000000000
 11
206.8041
 21
239.214499999999990
  0
TEXT
  8
PT4-Opis19
  6
CONTINUOUS
 62
     7
 10
206.460199999999990
 20
242.250499999999990
 40
2.000000000000000
 50
69.500000000000000
  1
1,00
  0
LINE
  8
PT4-Opis19
  6
CONTINUOUS
 62
     7
 10
207.7408
 20
238.864600000000000
 11
211.2403
 21
248.232300000000010
  0
LINE
  8
PT4-Opis19
  6
CONTINUOUS
 62
     7
 10
207.3909
 20
237.927799999999990
 11
207.7408
 21
238.864600000000000
  0
LINE
  8
PT4-Opis19
  6
CONTINUOUS
 62
     7
 10
211.5903
 20
249.169000000000010
 11
211.2403
 21
248.232300000000010
  0
LINE
  8
PT4-Opis19
  6
CONTINUOUS
 62
     7
 10
207.4475
 20
239.507800000000000
 11
208.0342
 21
238.221300000000010
  0
LINE
  8
PT4-Opis19
  6
CONTINUOUS
 62
     7
 10
210.947
 20
248.875499999999990
 11
211.5337
 21
247.589000000000000
  0
LINE
  8
PT4-Opis19
  6
CONTINUOUS
 62
     7
 10
208.6776
 20
238.514600000000000
 11
206.8041
 21
239.214499999999990
  0
LINE
  8
PT4-Opis19
  6
CONTINUOUS
 62
     7
 10
212.1771
 20
247.882299999999990
 11
210.3036
 21
248.582200000000000
  0
TEXT
  8
PT4-Opis19
  6
CONTINUOUS
 62
     7
 10
209.959700000000000
 20
251.618200000000000
 40
2.000000000000000
 50
69.500000000000000
  1
1,00
  0
LINE
  8
PT4-Opis19
  6
CONTINUOUS
 62
     7
 10
211.2403
 20
248.232300000000010
 11
214.7398
 21
257.600000000000020
  0
LINE
  8
PT4-Opis19
  6
CONTINUOUS
 62
     7
 10
210.8904
 20
247.295500000000000
 11
211.2403
 21
248.232300000000010
  0
LINE
  8
PT4-Opis19
  6
CONTINUOUS
 62
     7
 10
215.0898
 20
258.536700000000000
 11
214.7398
 21
257.600000000000020
  0
LINE
  8
PT4-Opis19
  6
CONTINUOUS
 62
     7
 10
210.947
 20
248.875499999999990
 11
211.5337
 21
247.589000000000000
  0
LINE
  8
PT4-Opis19
  6
CONTINUOUS
 62
     7
 10
214.4465
 20
258.243200000000000
 11
215.0332
 21
256.956700000000010
  0
LINE
  8
PT4-Opis19
  6
CONTINUOUS
 62
     7
 10
212.1771
 20
247.882299999999990
 11
210.3036
 21
248.582200000000000
  0
LINE
  8
PT4-Opis19
  6
CONTINUOUS
 62
     7
 10
215.6766
 20
257.250000000000000
 11
213.8031
 21
257.949900000000010
  0
TEXT
  8
PT4-Opis19
  6
CONTINUOUS
 62
     7
 10
213.459200000000010
 20
260.985900000000020
 40
2.000000000000000
 50
69.500000000000000
  1
1,00
  0
LINE
  8
PT4-Opis19
  6
CONTINUOUS
 62
     7
 10
214.7398
 20
257.600000000000020
 11
218.2393
 21
266.967700000000040
  0
LINE
  8
PT4-Opis19
  6
CONTINUOUS
 62
     7
 10
214.3899
 20
256.663199999999960
 11
214.7398
 21
257.600000000000020
  0
LINE
  8
PT4-Opis19
  6
CONTINUOUS
 62
     7
 10
218.5893
 20
267.904499999999980
 11
218.2393
 21
266.967700000000040
  0
LINE
  8
PT4-Opis19
  6
CONTINUOUS
 62
     7
 10
214.4465
 20
258.243200000000000
 11
215.0332
 21
256.956700000000010
  0
LINE
  8
PT4-Opis19
  6
CONTINUOUS
 62
     7
 10
217.946
 20
267.610900000000020
 11
218.5327
 21
266.324399999999970
  0
LINE
  8
PT4-Opis19
  6
CONTINUOUS
 62
     7
 10
215.6766
 20
257.250000000000000
 11
213.8031
 21
257.949900000000010
  0
LINE
  8
PT4-Opis19
  6
CONTINUOUS
 62
     7
 10
219.1761
 20
266.617700000000010
 11
217.3026
 21
267.317599999999970
  0
TEXT
  8
PT4-Opis19
  6
CONTINUOUS
 62
     7
 10
216.958699999999990
 20
270.353600000000030
 40
2.000000000000000
 50
69.500000000000000
  1
1,00
  0
LINE
  8
PT4-Opis19
  6
CONTINUOUS
 62
     7
 10
218.2393
 20
266.967700000000040
 11
221.7388
 21
276.335399999999990
  0
LINE
  8
PT4-Opis19
  6
CONTINUOUS
 62
     7
 10
217.8894
 20
266.030899999999970
 11
218.2393
 21
266.967700000000040
  0
LINE
  8
PT4-Opis19
  6
CONTINUOUS
 62
     7
 10
222.0888
 20
277.272200000000000
 11
221.7388
 21
276.335399999999990
  0
LINE
  8
PT4-Opis19
  6
CONTINUOUS
 62
     7
 10
217.946
 20
267.610900000000020
 11
218.5327
 21
266.324399999999970
  0
LINE
  8
PT4-Opis19
  6
CONTINUOUS
 62
     7
 10
221.4455
 20
276.978700000000000
 11
222.0322
 21
275.692099999999980
  0
LINE
  8
PT4-Opis19
  6
CONTINUOUS
 62
     7
 10
219.1761
 20
266.617700000000010
 11
217.3026
 21
267.317599999999970
  0
LINE
  8
PT4-Opis19
  6
CONTINUOUS
 62
     7
 10
222.6756
 20
275.985500000000000
 11
220.8021
 21
276.685299999999980
  0
TEXT
  8
PT4-Opis19
  6
CONTINUOUS
 62
     7
 10
220.474999999999990
 20
279.766300000000000
 40
2.000000000000000
 50
69.500000000000000
  1
77
  0
TEXT
  8
PT4-Opis19
  6
CONTINUOUS
 62
     7
 10
220.987100000000000
 20
283.295000000000020
 40
1.500000000000000
 50
69.500000000000000
  1
5
  0
LINE
  8
PT4-Opis19
  6
CONTINUOUS
 62
     7
 10
221.7388
 20
276.335399999999990
 11
224.453
 21
283.601000000000000
  0
LINE
  8
PT4-Opis19
  6
CONTINUOUS
 62
     7
 10
221.3889
 20
275.398599999999990
 11
221.7388
 21
276.335399999999990
  0
LINE
  8
PT4-Opis19
  6
CONTINUOUS
 62
     7
 10
224.803
 20
284.537800000000000
 11
224.453
 21
283.601000000000000
  0
LINE
  8
PT4-Opis19
  6
CONTINUOUS
 62
     7
 10
221.4455
 20
276.978700000000000
 11
222.0322
 21
275.692099999999980
  0
LINE
  8
PT4-Opis19
  6
CONTINUOUS
 62
     7
 10
224.1597
 20
284.244300000000010
 11
224.7464
 21
282.957699999999990
  0
LINE
  8
PT4-Opis19
  6
CONTINUOUS
 62
     7
 10
222.6756
 20
275.985500000000000
 11
220.8021
 21
276.685299999999980
  0
LINE
  8
PT4-Opis19
  6
CONTINUOUS
 62
     7
 10
225.3898
 20
283.250999999999980
 11
223.5163
 21
283.950899999999990
  0
TEXT
  8
PT4-Opis19
  6
CONTINUOUS
 62
     7
 10
216.013800000000000
 20
299.084100000000030
 40
2.000000000000000
 50
339.500000000000000
  1
4,10
  0
TEXT
  8
PT4-Opis19
  6
CONTINUOUS
 62
     7
 10
222.185800000000000
 20
297.556699999999980
 40
1.500000000000000
 50
339.500000000000000
  1
5
  0
LINE
  8
PT4-Opis19
  6
CONTINUOUS
 62
     7
 10
198.5815
 20
302.942400000000020
 11
237.0219
 21
288.579799999999980
  0
LINE
  8
PT4-Opis19
  6
CONTINUOUS
 62
     7
 10
197.6447
 20
303.292399999999990
 11
198.5815
 21
302.942400000000020
  0
LINE
  8
PT4-Opis19
  6
CONTINUOUS
 62
     7
 10
237.9586
 20
288.229800000000010
 11
237.0219
 21
288.579799999999980
  0
LINE
  8
PT4-Opis19
  6
CONTINUOUS
 62
     7
 10
199.2248
 20
303.235700000000010
 11
197.9382
 21
302.649099999999980
  0
LINE
  8
PT4-Opis19
  6
CONTINUOUS
 62
     7
 10
237.6652
 20
288.873100000000020
 11
236.3786
 21
288.286400000000010
  0
LINE
  8
PT4-Opis19
  6
CONTINUOUS
 62
     7
 10
198.9315
 20
303.879199999999970
 11
198.2315
 21
302.005699999999990
  0
LINE
  8
PT4-Opis19
  6
CONTINUOUS
 62
     7
 10
237.3719
 20
289.516500000000010
 11
236.6719
 21
287.643000000000030
  0
TEXT
  8
PT4-Opis19
  6
CONTINUOUS
 62
     7
 10
179.125000000000000
 20
247.941000000000000
 40
2.000000000000000
 50
339.600000000000020
  1
7,43
  0
LINE
  8
PT4-Opis19
  6
CONTINUOUS
 62
     7
 10
146.0862
 20
257.537100000000010
 11
215.7473
 21
231.687900000000010
  0
LINE
  8
PT4-Opis19
  6
CONTINUOUS
 62
     7
 10
145.1487
 20
257.884999999999990
 11
146.0862
 21
257.537100000000010
  0
LINE
  8
PT4-Opis19
  6
CONTINUOUS
 62
     7
 10
216.6848
 20
231.340000000000000
 11
215.7473
 21
231.687900000000010
  0
LINE
  8
PT4-Opis19
  6
CONTINUOUS
 62
     7
 10
146.7289
 20
257.831900000000020
 11
145.4436
 21
257.242300000000000
  0
LINE
  8
PT4-Opis19
  6
CONTINUOUS
 62
     7
 10
216.3899
 20
231.982599999999990
 11
215.1047
 21
231.393100000000000
  0
LINE
  8
PT4-Opis19
  6
CONTINUOUS
 62
     7
 10
146.4341
 20
258.474600000000010
 11
145.7383
 21
256.599600000000010
  0
LINE
  8
PT4-Opis19
  6
CONTINUOUS
 62
     7
 10
216.0952
 20
232.625400000000010
 11
215.3994
 21
230.750300000000010
  0
TEXT
  8
PT4-Opis19
  6
CONTINUOUS
 62
     7
 10
98.700800000000001
 20
84.103599999999972
 40
2.000000000000000
 50
339.500000000000000
  1
3,83
  0
LINE
  8
PT4-Opis19
  6
CONTINUOUS
 62
     7
 10
82.5509
 20
87.481699999999989
 11
118.4271
 21
74.079799999999977
  0
LINE
  8
PT4-Opis19
  6
CONTINUOUS
 62
     7
 10
81.6142
 20
87.831599999999980
 11
82.5509
 21
87.481699999999989
  0
LINE
  8
PT4-Opis19
  6
CONTINUOUS
 62
     7
 10
119.3638
 20
73.729800000000012
 11
118.4271
 21
74.079799999999977
  0
LINE
  8
PT4-Opis19
  6
CONTINUOUS
 62
     7
 10
83.1942
 20
87.774999999999977
 11
81.9077
 21
87.188300000000027
  0
LINE
  8
PT4-Opis19
  6
CONTINUOUS
 62
     7
 10
119.0703
 20
74.373199999999997
 11
117.7838
 21
73.786400000000015
  0
LINE
  8
PT4-Opis19
  6
CONTINUOUS
 62
     7
 10
82.9009
 20
88.418400000000020
 11
82.201
 21
86.544899999999984
  0
LINE
  8
PT4-Opis19
  6
CONTINUOUS
 62
     7
 10
118.777
 20
75.016599999999983
 11
118.0771
 21
73.142999999999972
  0
LINE
  8
PT1-Tabelka_rysu1
  6
GESTRICHELT
 62
     7
 10
28.7692
 20
355.358099999999980
 11
28.7692
 21
7.082200000000000
  0
TEXT
  8
PT4-Opis19
  6
CONTINUOUS
 62
     7
 10
187.436100000000010
 20
175.393700000000000
 40
2.500000000000000
  1
Płyty warstwowe dachowe ISOCOP 5-1000
  0
TEXT
  8
PT4-Opis19
  6
CONTINUOUS
 62
     7
 10
187.436100000000010
 20
171.643700000000000
 40
2.500000000000000
  1
z rdzeniem poliuretanowym grub. 100 mm:
  0
TEXT
  8
PT4-Opis19
  6
CONTINUOUS
 62
     7
 10
187.436100000000010
 20
167.893700000000000
 40
2.500000000000000
  1
- płyty długości 3,83 m - 19 szt
  0
TEXT
  8
PT4-Opis19
  6
CONTINUOUS
 62
     7
 10
187.436100000000010
 20
164.143700000000000
 40
2.500000000000000
  1
- płyty długości 7,43 m -   3 szt
  0
TEXT
  8
PT4-Opis19
  6
CONTINUOUS
 62
     7
 10
187.436100000000010
 20
160.393700000000000
 40
2.500000000000000
  1
- płyty długości 4,10 m -   5 szt
  0
TEXT
  8
PT4-Opis19
  6
CONTINUOUS
 62
     7
 10
187.436100000000010
 20
156.643700000000000
 40
2.500000000000000
  1

  0
TEXT
  8
PT4-Opis19
  6
CONTINUOUS
 62
     7
 10
187.436100000000010
 20
152.893700000000000
 40
2.500000000000000
  1
Belki stalowe - dwuteownik 220:
  0
TEXT
  8
PT4-Opis19
  6
CONTINUOUS
 62
     7
 10
187.436100000000010
 20
149.143700000000000
 40
2.500000000000000
  1
- długość 3,50 m - 7 szt (razem: 762,0 kg)
  0
TEXT
  8
PT4-Opis19
  6
CONTINUOUS
 62
     7
 10
187.436100000000010
 20
145.393700000000000
 40
2.500000000000000
  1

  0
TEXT
  8
PT4-Opis19
  6
CONTINUOUS
 62
     7
 10
187.436100000000010
 20
141.643699999999970
 40
2.500000000000000
  1
Płatwie stalowe - ceownik 140:
  0
TEXT
  8
PT4-Opis19
  6
CONTINUOUS
 62
     7
 10
187.436100000000010
 20
137.893699999999970
 40
2.500000000000000
  1
- długość 21,1 m - 4 szt (razem: 1350,5 kg)
  0
POLYLINE
  8
PT1-Tabelka_rysu1
  6
CONTINUOUS
 62
     7
 66
     1
 70
     1
  0
VERTEX
  8
PT1-Tabelka_rysu1
 10
184.2681
 20
7.023199999999974
  0
VERTEX
  8
PT1-Tabelka_rysu1
 10
256.2348
 20
7.023199999999974
  0
VERTEX
  8
PT1-Tabelka_rysu1
 10
256.2348
 20
8.081500000000006
  0
VERTEX
  8
PT1-Tabelka_rysu1
 10
184.2681
 20
8.081500000000006
  0
SEQEND
  8
PT1-Tabelka_rysu1
  0
LINE
  8
PT1-Tabelka_rysu1
  6
CONTINUOUS
 62
     7
 10
183.2098
 20
8.081399999999974
 11
255.1765
 21
8.081399999999974
  0
LINE
  8
PT1-Tabelka_rysu1
  6
CONTINUOUS
 62
     7
 10
183.9153
 20
8.786999999999978
 11
254.4709
 21
8.786999999999978
  0
LINE
  8
PT1-Tabelka_rysu1
  6
CONTINUOUS
 62
     7
 10
254.4709
 20
8.786999999999978
 11
254.4709
 21
53.942600000000027
  0
LINE
  8
PT1-Tabelka_rysu1
  6
CONTINUOUS
 62
     7
 10
254.4709
 20
53.942600000000027
 11
183.9153
 21
53.942600000000027
  0
LINE
  8
PT1-Tabelka_rysu1
  6
CONTINUOUS
 62
     7
 10
183.9153
 20
8.786999999999978
 11
183.9153
 21
53.942600000000027
  0
LINE
  8
PT1-Tabelka_rysu1
  6
CONTINUOUS
 62
     7
 10
183.9153
 20
25.720399999999984
 11
254.4709
 21
25.720399999999984
  0
TEXT
  8
PT1-Tabelka_rysu1
  6
CONTINUOUS
 62
     7
 10
184.620900000000010
 20
23.569999999999993
 40
1.797600000000000
  1
Skala:
  0
TEXT
  8
PT1-Tabelka_rysu1
  6
CONTINUOUS
 62
     7
 10
184.620900000000010
 20
23.569999999999993
 40
1.797600000000000
  1
1 : 100
  0
LINE
  8
PT1-Tabelka_rysu1
  6
CONTINUOUS
 62
     7
 10
207.1987
 20
25.720399999999984
 11
207.1987
 21
22.192600000000027
  0
TEXT
  8
PT1-Tabelka_rysu1
  6
CONTINUOUS
 62
     7
 10
207.904200000000000
 20
23.569999999999993
 40
1.797600000000000
  1
Data:
  0
TEXT
  8
PT1-Tabelka_rysu1
  6
CONTINUOUS
 62
     7
 10
207.904200000000000
 20
23.569999999999993
 40
1.797600000000000
  1
07.2004
  0
LINE
  8
PT1-Tabelka_rysu1
  6
CONTINUOUS
 62
     7
 10
230.482
 20
25.720399999999984
 11
230.482
 21
22.192600000000027
  0
TEXT
  8
PT1-Tabelka_rysu1
  6
CONTINUOUS
 62
     7
 10
231.487300000000000
 20
23.569999999999993
 40
1.797600000000000
  1
04-P-04/K
  0
LINE
  8
PT1-Tabelka_rysu1
  6
CONTINUOUS
 62
     7
 10
183.9153
 20
29.248100000000022
 11
254.4709
 21
29.248100000000022
  0
TEXT
  8
PT1-Tabelka_rysu1
  6
CONTINUOUS
 62
     7
 10
184.620900000000010
 20
27.097800000000007
 40
1.797600000000000
  1
Branża: konstrukcyjna
  0
TEXT
  8
PT1-Tabelka_rysu1
  6
CONTINUOUS
 62
     7
 10
184.620900000000010
 20
51.439400000000035
 40
1.797600000000000
  1
Projekt: Rozbudowa Szkoły Podstawowej i Gimnazjum
  0
TEXT
  8
PT1-Tabelka_rysu1
  6
CONTINUOUS
 62
     7
 10
184.620900000000010
 20
48.743000000000052
 40
1.797600000000000
  1
              w Rzerzęczycach
  0
LINE
  8
PT1-Tabelka_rysu1
  6
CONTINUOUS
 62
     7
 10
183.9153
 20
45.828700000000026
 11
254.4709
 21
45.828700000000026
  0
TEXT
  8
PT1-Tabelka_rysu1
  6
CONTINUOUS
 62
     7
 10
184.770800000000010
 20
43.325500000000034
 40
1.797600000000000
  1
Inwestor: Urząd Gminy w Kłomnicach
  0
TEXT
  8
PT1-Tabelka_rysu1
  6
CONTINUOUS
 62
     7
 10
184.770800000000010
 20
40.629099999999994
 40
1.797600000000000
  1
                ul. Strażacka 20, 42-270 Kłomnice
  0
LINE
  8
PT1-Tabelka_rysu1
  6
CONTINUOUS
 62
     7
 10
183.9153
 20
37.714800000000025
 11
254.4709
 21
37.714800000000025
  0
TEXT
  8
PT1-Tabelka_rysu1
  6
CONTINUOUS
 62
     7
 10
184.620900000000010
 20
35.801199999999994
 40
1.797600000000000
  1
Projektował: Elżbieta Ochocka UAN-VIII/83861/146/87
  0
TEXT
  8
PT1-Tabelka_rysu1
  6
CONTINUOUS
 62
     7
 10
196.262499999999990
 20
39.797799999999995
 40
1.797600000000000
  1
 
  0
LINE
  8
PT1-Tabelka_rysu1
  6
CONTINUOUS
 62
     7
 10
183.9153
 20
22.192600000000027
 11
254.4709
 21
22.192600000000027
  0
TEXT
  8
PT1-Tabelka_rysu1
  6
CONTINUOUS
 62
     7
 10
184.620900000000010
 20
19.336600000000033
 40
1.797600000000000
  1

  0
TEXT
  8
PT1-Tabelka_rysu1
  6
CONTINUOUS
 62
     7
 10
184.544299999999990
 20
32.906200000000013
 40
1.797600000000000
  1
Sprawdził: Stanisław Kret UAN-VIII-7342/199/94
  0
TEXT
  8
PT1-Tabelka_rysu1
  6
CONTINUOUS
 62
     7
 10
184.628600000000010
 20
30.126700000000028
 40
1.797600000000000
  1
Opracował: Michał Urbańczyk
  0
TEXT
  8
PT1-Tabelka_rysu1
  6
CONTINUOUS
 62
     7
 10
184.672400000000010
 20
19.813700000000040
 40
1.797600000000000
  1
Nazwa rysunku:
  0
TEXT
  8
PT1-Tabelka_rysu1
  6
CONTINUOUS
 62
     7
 10
184.331700000000010
 20
15.870799999999974
 40
2.500000000000000
  1
KONSTRUKCJA DACHU NAD GALERIĄ
  0
TEXT
  8
PT1-Tabelka_rysu1
  6
CONTINUOUS
 62
     7
 10
184.331700000000010
 20
12.120799999999974
 40
2.500000000000000
  1
(WIDOWNIĄ)
  0
ENDSEC
  0
EOF
