  0
SECTION
  2
HEADER
  9
$ACADVER
  1
AC1004
  9
$EXTMIN
 10
0.0
 20
0.0
  9
$EXTMAX
 10
570.000000000000000
 20
400.000000000000000
  9
$LIMMIN
 10
0.0
 20
0.0
  9
$LIMMAX
 10
570.000000000000000
 20
400.000000000000000
  9
$CLAYER
  8
PT5-Opis32
  0
ENDSEC
  0
SECTION
  2
TABLES
  0
TABLE
  2
LTYPE
 70
11
  0
LTYPE
  2
CONTINUOUS
 70
     0
  3
Solid line
 72
    65
 73
     0
 40
     0.0
  0
LTYPE
  2
GESTRICHELT
 70
     0
  3
__ __ __ __ __ __ __ __ __ __ __ __ __ __ __
 72
    65
 73
     2
 40
     0.75
 49
0.5
 49
-0.25
  0
LTYPE
  2
VERDECKT
 70
     0
  3
_ _ _ _ _ _ _ _ _ _ _ _ _ _ _ _ _ _ _ _ _ _
 72
    65
 73
     2
 40
     0.25
 49
0.125
 49
-0.125
  0
LTYPE
  2
MITTELLINIE
 70
     0
  3
____ _ ____ _ ____ _ ____ _ ____ _ ____ _ __
 72
    65
 73
     4
 40
     2.0
 49
1.25
 49
-0.25
 49
0.25
 49
-0.25
  0
LTYPE
  2
PHANTOM
 70
     0
  3
_____ _ _ _____ _ _ _____ _ _ _____ _ _ ____
 72
    65
 73
     6
 40
     2.5
 49
1.25
 49
-0.25
 49
0.25
 49
-0.25
 49
0.25
 49
-0.25
  0
LTYPE
  2
PUNKTIERT
 70
     0
  3
............................................
 72
    65
 73
     2
 40
     0.25
 49
0.0
 49
-0.25
  0
LTYPE
  2
STRICHPUNKTIERT
 70
     0
  3
__ . __ . __ . __ . __ . __ . __ . __ . __ .
 72
    65
 73
     4
 40
     1.0
 49
0.5
 49
-0.25
 49
0.0
 49
-0.25
  0
LTYPE
  2
RAND
 70
     0
  3
__ __ . __ __ . __ __ . __ __ . __ __ . __ _
 72
    65
 73
     6
 40
     1.75
 49
0.5
 49
-0.25
 49
0.5
 49
-0.25
 49
0.0
 49
-0.25
  0
LTYPE
  2
TRENNLINIE
 70
     0
  3
__ . . __ . . __ . . __ . . __ . . __ . . __
 72
    65
 73
     6
 40
     1.25
 49
0.5
 49
-0.25
 49
0.0
 49
-0.25
 49
0.0
 49
-0.25
  0
LTYPE
  2
ENG_PUNKTIERT
 70
     0
  3
Schließen
 72
    65
 73
     2
 40
     0.1
 49
0.05
 49
-0.05
  0
LTYPE
  2
CLOSE
 70
     0
  3

 72
    65
 73
     0
 40
     0.0
  0
ENDTAB
  0
TABLE
  2
LAYER
 70
   40
  0
LAYER
  2
PT1-Tabelka_rysu1
 70
     0
 62
    -7
  6
CONTINUOUS
  0
LAYER
  2
PT2-Rzut2
 70
     0
 62
     7
  6
CONTINUOUS
  0
LAYER
  2
PT2-Kreskowanie3
 70
     0
 62
     7
  6
CONTINUOUS
  0
LAYER
  2
PT2-Okna_i_drzwi4
 70
     0
 62
     7
  6
CONTINUOUS
  0
LAYER
  2
PT2-Schody5
 70
     0
 62
     7
  6
CONTINUOUS
  0
LAYER
  2
PT2-Podciąg6
 70
     0
 62
     7
  6
CONTINUOUS
  0
LAYER
  2
PT2-Opis7
 70
     0
 62
     7
  6
CONTINUOUS
  0
LAYER
  2
PT2-Wymiarowanie8
 70
     0
 62
     7
  6
CONTINUOUS
  0
LAYER
  2
PT2-Wyposażenie9
 70
     0
 62
     7
  6
CONTINUOUS
  0
LAYER
  2
PT2-Symbole_prze10
 70
     0
 62
     7
  6
CONTINUOUS
  0
LAYER
  2
PT2-Linie_pomocn11
 70
     0
 62
     7
  6
CONTINUOUS
  0
LAYER
  2
PT2-Grafika_2D12
 70
     0
 62
     7
  6
CONTINUOUS
  0
LAYER
  2
PT2-Podesty13
 70
     0
 62
     7
  6
CONTINUOUS
  0
LAYER
  2
PT3-Rzut14
 70
     0
 62
     7
  6
CONTINUOUS
  0
LAYER
  2
PT3-Kreskowanie15
 70
     0
 62
     7
  6
CONTINUOUS
  0
LAYER
  2
PT3-Okna_i_drzwi16
 70
     0
 62
     7
  6
CONTINUOUS
  0
LAYER
  2
PT3-Schody17
 70
     0
 62
     7
  6
CONTINUOUS
  0
LAYER
  2
PT3-Podciąg18
 70
     0
 62
     7
  6
CONTINUOUS
  0
LAYER
  2
PT3-Opis19
 70
     0
 62
     7
  6
CONTINUOUS
  0
LAYER
  2
PT3-Wymiarowanie20
 70
     0
 62
     7
  6
CONTINUOUS
  0
LAYER
  2
PT3-Wyposażenie21
 70
     0
 62
     7
  6
CONTINUOUS
  0
LAYER
  2
PT3-Symbole_prze22
 70
     0
 62
     7
  6
CONTINUOUS
  0
LAYER
  2
PT3-Linie_pomocn23
 70
     0
 62
     7
  6
CONTINUOUS
  0
LAYER
  2
PT3-Grafika_2D24
 70
     0
 62
     7
  6
CONTINUOUS
  0
LAYER
  2
PT3-Podesty25
 70
     0
 62
     7
  6
CONTINUOUS
  0
LAYER
  2
PT4-Schody26
 70
     0
 62
    -7
  6
CONTINUOUS
  0
LAYER
  2
PT5-Rzut27
 70
     0
 62
     7
  6
CONTINUOUS
  0
LAYER
  2
PT5-Kreskowanie28
 70
     0
 62
     7
  6
CONTINUOUS
  0
LAYER
  2
PT5-Okna_i_drzwi29
 70
     0
 62
     7
  6
CONTINUOUS
  0
LAYER
  2
PT5-Schody30
 70
     0
 62
     7
  6
CONTINUOUS
  0
LAYER
  2
PT5-Podciąg31
 70
     0
 62
     7
  6
CONTINUOUS
  0
LAYER
  2
PT5-Opis32
 70
     0
 62
     7
  6
CONTINUOUS
  0
LAYER
  2
PT5-Wymiarowanie33
 70
     0
 62
     7
  6
CONTINUOUS
  0
LAYER
  2
PT5-Wyposażenie34
 70
     0
 62
     7
  6
CONTINUOUS
  0
LAYER
  2
PT5-Symbole_prze35
 70
     0
 62
     7
  6
CONTINUOUS
  0
LAYER
  2
PT5-Linie_pomocn36
 70
     0
 62
     7
  6
CONTINUOUS
  0
LAYER
  2
PT5-Grafika_2D37
 70
     0
 62
     7
  6
CONTINUOUS
  0
LAYER
  2
PT5-Podesty38
 70
     0
 62
     7
  6
CONTINUOUS
  0
LAYER
  2
PT6-Rzut39
 70
     0
 62
     7
  6
CONTINUOUS
  0
LAYER
  2
PT6-Dachy40
 70
     0
 62
     7
  6
CONTINUOUS
  0
ENDTAB
  0
TABLE
  2
STYLE
 70
    1
  0
STYLE
  2
STANDARD
 70
    0
 40
0.0
 41
1.0
 50
0.0
71
     0
 42
0.2
  3
txt
  4

  0
ENDTAB
  0
ENDSEC
  0
SECTION
  2
ENTITIES
  0
POLYLINE
  8
PT1-Tabelka_rysu1
  6
CONTINUOUS
 62
     7
 66
     1
 70
     1
  0
VERTEX
  8
PT1-Tabelka_rysu1
 10
558.6228
 20
9.815099999999973
  0
VERTEX
  8
PT1-Tabelka_rysu1
 10
559.6811
 20
9.815099999999973
  0
VERTEX
  8
PT1-Tabelka_rysu1
 10
559.6811
 20
70.845700000000022
  0
VERTEX
  8
PT1-Tabelka_rysu1
 10
558.6228
 20
70.845700000000022
  0
SEQEND
  8
PT1-Tabelka_rysu1
  0
LINE
  8
PT1-Tabelka_rysu1
  6
CONTINUOUS
 62
     7
 10
558.6228
 20
10.873400000000004
 11
558.6228
 21
71.903999999999996
  0
LINE
  8
PT1-Tabelka_rysu1
  6
CONTINUOUS
 62
     7
 10
558.6228
 20
71.903999999999996
 11
486.6561
 21
71.903999999999996
  0
LINE
  8
PT1-Tabelka_rysu1
  6
CONTINUOUS
 62
     7
 10
486.6561
 20
10.873400000000004
 11
486.6561
 21
71.903999999999996
  0
LINE
  8
PT2-Rzut2
  6
CONTINUOUS
 62
     7
 10
158.9402
 20
44.125299999999982
 11
159.9402
 21
44.125299999999982
  0
LINE
  8
PT2-Rzut2
  6
CONTINUOUS
 62
     7
 10
159.9402
 20
44.125299999999982
 11
159.9402
 21
44.625299999999982
  0
LINE
  8
PT2-Rzut2
  6
CONTINUOUS
 62
     7
 10
159.9402
 20
44.625299999999982
 11
162.9402
 21
44.625299999999982
  0
LINE
  8
PT2-Rzut2
  6
CONTINUOUS
 62
     7
 10
158.9402
 20
67.525300000000016
 11
159.9402
 21
67.525300000000016
  0
LINE
  8
PT2-Rzut2
  6
CONTINUOUS
 62
     7
 10
159.9402
 20
67.525300000000016
 11
159.9402
 21
68.025300000000016
  0
LINE
  8
PT2-Rzut2
  6
CONTINUOUS
 62
     7
 10
159.9402
 20
68.025300000000016
 11
162.9402
 21
68.025300000000016
  0
LINE
  8
PT2-Rzut2
  6
CONTINUOUS
 62
     7
 10
158.9402
 20
52.925299999999993
 11
159.9402
 21
52.925299999999993
  0
LINE
  8
PT2-Rzut2
  6
CONTINUOUS
 62
     7
 10
159.9402
 20
52.925299999999993
 11
159.9402
 21
52.425299999999993
  0
LINE
  8
PT2-Rzut2
  6
CONTINUOUS
 62
     7
 10
159.9402
 20
52.425299999999993
 11
162.9402
 21
52.425299999999993
  0
LINE
  8
PT2-Rzut2
  6
CONTINUOUS
 62
     7
 10
158.9402
 20
90.825300000000027
 11
159.9402
 21
90.825300000000027
  0
LINE
  8
PT2-Rzut2
  6
CONTINUOUS
 62
     7
 10
159.9402
 20
90.825300000000027
 11
159.9402
 21
91.325300000000027
  0
LINE
  8
PT2-Rzut2
  6
CONTINUOUS
 62
     7
 10
159.9402
 20
91.325300000000027
 11
162.9402
 21
91.325300000000027
  0
LINE
  8
PT2-Rzut2
  6
CONTINUOUS
 62
     7
 10
158.9402
 20
76.225300000000004
 11
159.9402
 21
76.225300000000004
  0
LINE
  8
PT2-Rzut2
  6
CONTINUOUS
 62
     7
 10
159.9402
 20
76.225300000000004
 11
159.9402
 21
75.725300000000004
  0
LINE
  8
PT2-Rzut2
  6
CONTINUOUS
 62
     7
 10
159.9402
 20
75.725300000000004
 11
162.9402
 21
75.725300000000004
  0
LINE
  8
PT2-Rzut2
  6
CONTINUOUS
 62
     7
 10
158.9402
 20
44.125299999999982
 11
159.9402
 21
44.125299999999982
  0
LINE
  8
PT2-Rzut2
  6
CONTINUOUS
 62
     7
 10
159.9402
 20
44.125299999999982
 11
159.9402
 21
44.625299999999982
  0
LINE
  8
PT2-Rzut2
  6
CONTINUOUS
 62
     7
 10
159.9402
 20
44.625299999999982
 11
162.9402
 21
44.625299999999982
  0
LINE
  8
PT2-Rzut2
  6
CONTINUOUS
 62
     7
 10
158.9402
 20
67.525300000000016
 11
159.9402
 21
67.525300000000016
  0
LINE
  8
PT2-Rzut2
  6
CONTINUOUS
 62
     7
 10
159.9402
 20
67.525300000000016
 11
159.9402
 21
68.025300000000016
  0
LINE
  8
PT2-Rzut2
  6
CONTINUOUS
 62
     7
 10
159.9402
 20
68.025300000000016
 11
162.9402
 21
68.025300000000016
  0
LINE
  8
PT2-Rzut2
  6
CONTINUOUS
 62
     7
 10
158.9402
 20
52.925299999999993
 11
159.9402
 21
52.925299999999993
  0
LINE
  8
PT2-Rzut2
  6
CONTINUOUS
 62
     7
 10
159.9402
 20
52.925299999999993
 11
159.9402
 21
52.425299999999993
  0
LINE
  8
PT2-Rzut2
  6
CONTINUOUS
 62
     7
 10
159.9402
 20
52.425299999999993
 11
162.9402
 21
52.425299999999993
  0
LINE
  8
PT2-Rzut2
  6
CONTINUOUS
 62
     7
 10
158.9402
 20
90.825300000000027
 11
159.9402
 21
90.825300000000027
  0
LINE
  8
PT2-Rzut2
  6
CONTINUOUS
 62
     7
 10
159.9402
 20
90.825300000000027
 11
159.9402
 21
91.325300000000027
  0
LINE
  8
PT2-Rzut2
  6
CONTINUOUS
 62
     7
 10
159.9402
 20
91.325300000000027
 11
162.9402
 21
91.325300000000027
  0
LINE
  8
PT2-Rzut2
  6
CONTINUOUS
 62
     7
 10
158.9402
 20
76.225300000000004
 11
159.9402
 21
76.225300000000004
  0
LINE
  8
PT2-Rzut2
  6
CONTINUOUS
 62
     7
 10
159.9402
 20
76.225300000000004
 11
159.9402
 21
75.725300000000004
  0
LINE
  8
PT2-Rzut2
  6
CONTINUOUS
 62
     7
 10
159.9402
 20
75.725300000000004
 11
162.9402
 21
75.725300000000004
  0
POLYLINE
  8
PT2-Kreskowanie3
  6
CONTINUOUS
 62
     7
 66
     1
 70
     1
  0
VERTEX
  8
PT2-Kreskowanie3
 10
158.9402
 20
44.125299999999982
  0
VERTEX
  8
PT2-Kreskowanie3
 10
159.9402
 20
44.125299999999982
  0
VERTEX
  8
PT2-Kreskowanie3
 10
159.9402
 20
44.625299999999982
  0
VERTEX
  8
PT2-Kreskowanie3
 10
162.9402
 20
44.625299999999982
  0
VERTEX
  8
PT2-Kreskowanie3
 10
162.9402
 20
52.425299999999993
  0
VERTEX
  8
PT2-Kreskowanie3
 10
159.9402
 20
52.425299999999993
  0
VERTEX
  8
PT2-Kreskowanie3
 10
159.9402
 20
52.925299999999993
  0
VERTEX
  8
PT2-Kreskowanie3
 10
158.9402
 20
52.925299999999993
  0
SEQEND
  8
PT2-Kreskowanie3
  0
POLYLINE
  8
PT2-Kreskowanie3
  6
CONTINUOUS
 62
     7
 66
     1
 70
     1
  0
VERTEX
  8
PT2-Kreskowanie3
 10
158.9402
 20
67.525300000000016
  0
VERTEX
  8
PT2-Kreskowanie3
 10
159.9402
 20
67.525300000000016
  0
VERTEX
  8
PT2-Kreskowanie3
 10
159.9402
 20
68.025300000000016
  0
VERTEX
  8
PT2-Kreskowanie3
 10
162.9402
 20
68.025300000000016
  0
VERTEX
  8
PT2-Kreskowanie3
 10
162.9402
 20
75.725300000000004
  0
VERTEX
  8
PT2-Kreskowanie3
 10
159.9402
 20
75.725300000000004
  0
VERTEX
  8
PT2-Kreskowanie3
 10
159.9402
 20
76.225300000000004
  0
VERTEX
  8
PT2-Kreskowanie3
 10
158.9402
 20
76.225300000000004
  0
SEQEND
  8
PT2-Kreskowanie3
  0
POLYLINE
  8
PT2-Kreskowanie3
  6
CONTINUOUS
 62
     7
 66
     1
 70
     1
  0
VERTEX
  8
PT2-Kreskowanie3
 10
158.9402
 20
90.825300000000027
  0
VERTEX
  8
PT2-Kreskowanie3
 10
159.9402
 20
90.825300000000027
  0
VERTEX
  8
PT2-Kreskowanie3
 10
159.9402
 20
91.325300000000027
  0
VERTEX
  8
PT2-Kreskowanie3
 10
162.9402
 20
91.325300000000027
  0
VERTEX
  8
PT2-Kreskowanie3
 10
162.9402
 20
96.241300000000024
  0
VERTEX
  8
PT2-Kreskowanie3
 10
158.9402
 20
97.736199999999997
  0
SEQEND
  8
PT2-Kreskowanie3
  0
LINE
  8
PT2-Okna_i_drzwi4
  6
CONTINUOUS
 62
     7
 10
158.9402
 20
44.125299999999982
 11
158.9402
 21
30.790300000000002
  0
LINE
  8
PT2-Okna_i_drzwi4
  6
CONTINUOUS
 62
     7
 10
159.9402
 20
44.625299999999982
 11
159.9402
 21
30.790300000000002
  0
LINE
  8
PT2-Okna_i_drzwi4
  6
CONTINUOUS
 62
     7
 10
160.9402
 20
44.625299999999982
 11
160.9402
 21
30.790300000000002
  0
LINE
  8
PT2-Okna_i_drzwi4
  6
CONTINUOUS
 62
     7
 10
159.9402
 20
43.425299999999993
 11
160.9402
 21
43.425299999999993
  0
LINE
  8
PT2-Okna_i_drzwi4
  6
CONTINUOUS
 62
     7
 10
162.9402
 20
30.790300000000002
 11
162.9402
 21
44.625299999999982
  0
LINE
  8
PT2-Okna_i_drzwi4
  6
CONTINUOUS
 62
     7
 10
158.9402
 20
67.525300000000016
 11
158.9402
 21
52.925299999999993
  0
LINE
  8
PT2-Okna_i_drzwi4
  6
CONTINUOUS
 62
     7
 10
159.9402
 20
68.025300000000016
 11
159.9402
 21
52.425299999999993
  0
LINE
  8
PT2-Okna_i_drzwi4
  6
CONTINUOUS
 62
     7
 10
160.9402
 20
68.025300000000016
 11
160.9402
 21
52.425299999999993
  0
LINE
  8
PT2-Okna_i_drzwi4
  6
CONTINUOUS
 62
     7
 10
159.9402
 20
66.825300000000027
 11
160.9402
 21
66.825300000000027
  0
LINE
  8
PT2-Okna_i_drzwi4
  6
CONTINUOUS
 62
     7
 10
159.9402
 20
53.625299999999982
 11
160.9402
 21
53.625299999999982
  0
LINE
  8
PT2-Okna_i_drzwi4
  6
CONTINUOUS
 62
     7
 10
162.9402
 20
52.425299999999993
 11
162.9402
 21
68.025300000000016
  0
LINE
  8
PT2-Okna_i_drzwi4
  6
CONTINUOUS
 62
     7
 10
158.9402
 20
90.825300000000027
 11
158.9402
 21
76.225300000000004
  0
LINE
  8
PT2-Okna_i_drzwi4
  6
CONTINUOUS
 62
     7
 10
159.9402
 20
91.325300000000027
 11
159.9402
 21
75.725300000000004
  0
LINE
  8
PT2-Okna_i_drzwi4
  6
CONTINUOUS
 62
     7
 10
160.9402
 20
91.325300000000027
 11
160.9402
 21
75.725300000000004
  0
LINE
  8
PT2-Okna_i_drzwi4
  6
CONTINUOUS
 62
     7
 10
159.9402
 20
90.125299999999982
 11
160.9402
 21
90.125299999999982
  0
LINE
  8
PT2-Okna_i_drzwi4
  6
CONTINUOUS
 62
     7
 10
159.9402
 20
76.925299999999993
 11
160.9402
 21
76.925299999999993
  0
LINE
  8
PT2-Okna_i_drzwi4
  6
CONTINUOUS
 62
     7
 10
162.9402
 20
75.725300000000004
 11
162.9402
 21
91.325300000000027
  0
TEXT
  8
PT2-Wymiarowanie8
  6
CONTINUOUS
 62
     7
 10
148.823500000000000
 20
38.036800000000028
 40
2.022300000000000
  1
146
  0
TEXT
  8
PT2-Wymiarowanie8
  6
CONTINUOUS
 62
     7
 10
148.823500000000000
 20
34.156200000000013
 40
2.022300000000000
 50
360.000000000000000
  1
180
  0
TEXT
  8
PT2-Wymiarowanie8
  6
CONTINUOUS
 62
     7
 10
148.823500000000000
 20
61.436800000000005
 40
2.022300000000000
  1
146
  0
TEXT
  8
PT2-Wymiarowanie8
  6
CONTINUOUS
 62
     7
 10
148.823500000000000
 20
57.556200000000047
 40
2.022300000000000
 50
360.000000000000000
  1
180
  0
LINE
  8
PT2-Wymiarowanie8
  6
CONTINUOUS
 62
     7
 10
160.9402
 20
36.825300000000027
 11
145.9402
 21
36.825300000000027
  0
TEXT
  8
PT2-Wymiarowanie8
  6
CONTINUOUS
 62
     7
 10
148.823500000000000
 20
84.736800000000017
 40
2.022300000000000
  1
146
  0
TEXT
  8
PT2-Wymiarowanie8
  6
CONTINUOUS
 62
     7
 10
148.823500000000000
 20
80.856300000000033
 40
2.022300000000000
 50
360.000000000000000
  1
180
  0
LINE
  8
PT2-Wymiarowanie8
  6
CONTINUOUS
 62
     7
 10
160.9402
 20
60.225300000000004
 11
145.9402
 21
60.225300000000004
  0
LINE
  8
PT2-Wymiarowanie8
  6
CONTINUOUS
 62
     7
 10
160.9402
 20
83.525300000000016
 11
145.9402
 21
83.525300000000016
  0
POLYLINE
  8
PT2-Kreskowanie3
  6
CONTINUOUS
 62
     7
 66
     1
 70
     1
  0
VERTEX
  8
PT2-Kreskowanie3
 10
227.7402
 20
43.036299999999983
  0
VERTEX
  8
PT2-Kreskowanie3
 10
226.5402
 20
44.536400000000015
  0
VERTEX
  8
PT2-Kreskowanie3
 10
226.5402
 20
40.436300000000017
  0
VERTEX
  8
PT2-Kreskowanie3
 10
227.7402
 20
41.636300000000006
  0
SEQEND
  8
PT2-Kreskowanie3
  0
POLYLINE
  8
PT2-Kreskowanie3
  6
CONTINUOUS
 62
     7
 66
     1
 70
     1
  0
VERTEX
  8
PT2-Kreskowanie3
 10
227.7402
 20
41.636300000000006
  0
VERTEX
  8
PT2-Kreskowanie3
 10
226.5402
 20
40.436300000000017
  0
VERTEX
  8
PT2-Kreskowanie3
 10
235.5402
 20
40.436300000000017
  0
VERTEX
  8
PT2-Kreskowanie3
 10
234.3402
 20
41.636300000000006
  0
SEQEND
  8
PT2-Kreskowanie3
  0
POLYLINE
  8
PT2-Kreskowanie3
  6
CONTINUOUS
 62
     7
 66
     1
 70
     1
  0
VERTEX
  8
PT2-Kreskowanie3
 10
234.3402
 20
41.636300000000006
  0
VERTEX
  8
PT2-Kreskowanie3
 10
235.5402
 20
40.436300000000017
  0
VERTEX
  8
PT2-Kreskowanie3
 10
235.5402
 20
44.535300000000007
  0
VERTEX
  8
PT2-Kreskowanie3
 10
234.3402
 20
43.036299999999983
  0
SEQEND
  8
PT2-Kreskowanie3
  0
POLYLINE
  8
PT2-Kreskowanie3
  6
CONTINUOUS
 62
     7
 66
     1
 70
     1
  0
VERTEX
  8
PT2-Kreskowanie3
 10
229.1402
 20
41.636300000000006
  0
VERTEX
  8
PT2-Kreskowanie3
 10
230.3402
 20
41.636300000000006
  0
VERTEX
  8
PT2-Kreskowanie3
 10
230.3402
 20
43.036299999999983
  0
VERTEX
  8
PT2-Kreskowanie3
 10
229.1402
 20
43.036299999999983
  0
SEQEND
  8
PT2-Kreskowanie3
  0
POLYLINE
  8
PT2-Kreskowanie3
  6
CONTINUOUS
 62
     7
 66
     1
 70
     1
  0
VERTEX
  8
PT2-Kreskowanie3
 10
231.7402
 20
41.636300000000006
  0
VERTEX
  8
PT2-Kreskowanie3
 10
232.9402
 20
41.636300000000006
  0
VERTEX
  8
PT2-Kreskowanie3
 10
232.9402
 20
43.036299999999983
  0
VERTEX
  8
PT2-Kreskowanie3
 10
231.7402
 20
43.036299999999983
  0
SEQEND
  8
PT2-Kreskowanie3
  0
POLYLINE
  8
PT2-Kreskowanie3
  6
CONTINUOUS
 62
     7
 66
     1
 70
     1
  0
VERTEX
  8
PT2-Kreskowanie3
 10
226.5402
 20
44.536400000000015
  0
VERTEX
  8
PT2-Kreskowanie3
 10
227.7402
 20
43.036299999999983
  0
VERTEX
  8
PT2-Kreskowanie3
 10
234.3402
 20
43.036299999999983
  0
VERTEX
  8
PT2-Kreskowanie3
 10
235.5402
 20
44.535300000000007
  0
SEQEND
  8
PT2-Kreskowanie3
  0
POLYLINE
  8
PT2-Kreskowanie3
  6
CONTINUOUS
 62
     7
 66
     1
 70
     1
  0
VERTEX
  8
PT2-Kreskowanie3
 10
264.3365
 20
44.536400000000015
  0
VERTEX
  8
PT2-Kreskowanie3
 10
264.3364
 20
46.036400000000015
  0
VERTEX
  8
PT2-Kreskowanie3
 10
197.8402
 20
46.044899999999984
  0
VERTEX
  8
PT2-Kreskowanie3
 10
201.8402
 20
44.544399999999996
  0
SEQEND
  8
PT2-Kreskowanie3
  0
LINE
  8
PT2-Rzut2
  6
CONTINUOUS
 62
     7
 10
268.1367
 20
40.936300000000017
 11
264.3367
 21
40.936100000000010
  0
LINE
  8
PT2-Rzut2
  6
CONTINUOUS
 62
     7
 10
268.1367
 20
40.936300000000017
 11
264.3367
 21
40.936100000000010
  0
POLYLINE
  8
PT2-Kreskowanie3
  6
CONTINUOUS
 62
     7
 66
     1
 70
     1
  0
VERTEX
  8
PT2-Kreskowanie3
 10
264.3367
 20
40.936100000000010
  0
VERTEX
  8
PT2-Kreskowanie3
 10
268.1367
 20
40.936300000000017
  0
VERTEX
  8
PT2-Kreskowanie3
 10
268.1364
 20
46.273700000000019
  0
VERTEX
  8
PT2-Kreskowanie3
 10
264.3364
 20
46.960800000000006
  0
SEQEND
  8
PT2-Kreskowanie3
  0
LINE
  8
PT2-Okna_i_drzwi4
  6
CONTINUOUS
 62
     7
 10
268.1374
 20
30.790300000000002
 11
268.1367
 21
40.936300000000017
  0
LINE
  8
PT2-Okna_i_drzwi4
  6
CONTINUOUS
 62
     7
 10
266.7374
 20
30.790300000000002
 11
266.7368
 21
40.936199999999985
  0
LINE
  8
PT2-Okna_i_drzwi4
  6
CONTINUOUS
 62
     7
 10
265.7374
 20
30.790300000000002
 11
265.7368
 21
40.936100000000010
  0
LINE
  8
PT2-Okna_i_drzwi4
  6
CONTINUOUS
 62
     7
 10
266.7368
 20
39.736199999999997
 11
265.7368
 21
39.736100000000022
  0
LINE
  8
PT2-Okna_i_drzwi4
  6
CONTINUOUS
 62
     7
 10
264.3367
 20
40.936100000000010
 11
264.3373
 21
30.790300000000002
  0
TEXT
  8
PT2-Wymiarowanie8
  6
CONTINUOUS
 62
     7
 10
273.870400000000020
 20
34.998200000000054
 40
2.022300000000000
 50
0.003600000000000
  1
143
  0
TEXT
  8
PT2-Wymiarowanie8
  6
CONTINUOUS
 62
     7
 10
273.870700000000000
 20
31.117700000000013
 40
2.022300000000000
 50
0.003600000000000
  1
145
  0
LINE
  8
PT2-Wymiarowanie8
  6
CONTINUOUS
 62
     7
 10
266.2372
 20
33.786200000000008
 11
280.9872
 21
33.787100000000009
  0
POLYLINE
  8
PT2-Kreskowanie3
  6
CONTINUOUS
 62
     7
 66
     1
 70
     1
  0
VERTEX
  8
PT2-Kreskowanie3
 10
264.3364
 20
46.960800000000006
  0
VERTEX
  8
PT2-Kreskowanie3
 10
268.1364
 20
46.273700000000019
  0
VERTEX
  8
PT2-Kreskowanie3
 10
271.6305
 20
55.618400000000008
  0
VERTEX
  8
PT2-Kreskowanie3
 10
268.0709
 20
56.948699999999974
  0
SEQEND
  8
PT2-Kreskowanie3
  0
TEXT
  8
PT2-Wymiarowanie8
  6
CONTINUOUS
 62
     7
 10
248.663299999999990
 20
54.052200000000028
 40
2.000000000000000
 50
69.500000000000000
  1
240
  0
TEXT
  8
PT2-Wymiarowanie8
  6
CONTINUOUS
 62
     7
 10
251.549200000000010
 20
52.866499999999974
 40
2.000000000000000
 50
69.500000000000000
  1
210
  0
LINE
  8
PT2-Wymiarowanie8
  6
CONTINUOUS
 62
     7
 10
253.9736
 20
64.245900000000006
 11
248.8097
 21
50.429399999999987
  0
POLYLINE
  8
PT2-Kreskowanie3
  6
CONTINUOUS
 62
     7
 66
     1
 70
     1
  0
VERTEX
  8
PT2-Kreskowanie3
 10
197.8402
 20
30.790300000000002
  0
VERTEX
  8
PT2-Kreskowanie3
 10
201.8402
 20
30.790300000000002
  0
VERTEX
  8
PT2-Kreskowanie3
 10
201.8377
 20
44.544399999999996
  0
VERTEX
  8
PT2-Kreskowanie3
 10
197.8402
 20
46.044899999999984
  0
SEQEND
  8
PT2-Kreskowanie3
  0
LINE
  8
PT2-Rzut2
  6
CONTINUOUS
 62
     7
 10
268.1367
 20
40.936300000000017
 11
268.1364
 21
46.273700000000019
  0
LINE
  8
PT2-Rzut2
  6
CONTINUOUS
 62
     7
 10
268.1355
 20
46.271400000000028
 11
271.6305
 21
55.618400000000008
  0
LINE
  8
PT2-Rzut2
  6
CONTINUOUS
 62
     7
 10
158.9402
 20
97.736199999999997
 11
158.9402
 21
90.825300000000027
  0
LINE
  8
PT2-Rzut2
  6
CONTINUOUS
 62
     7
 10
158.9402
 20
76.225300000000004
 11
158.9402
 21
67.525300000000016
  0
LINE
  8
PT2-Rzut2
  6
CONTINUOUS
 62
     7
 10
158.9402
 20
52.925299999999993
 11
158.9402
 21
44.125299999999982
  0
LINE
  8
PT2-Rzut2
  6
CONTINUOUS
 62
     7
 10
162.9402
 20
44.625299999999982
 11
162.9402
 21
52.425299999999993
  0
LINE
  8
PT2-Rzut2
  6
CONTINUOUS
 62
     7
 10
162.9402
 20
68.025300000000016
 11
162.9402
 21
75.725300000000004
  0
LINE
  8
PT2-Rzut2
  6
CONTINUOUS
 62
     7
 10
162.9402
 20
91.325300000000027
 11
162.9402
 21
96.241199999999992
  0
LINE
  8
PT2-Rzut2
  6
CONTINUOUS
 62
     7
 10
158.9402
 20
97.736199999999997
 11
162.9402
 21
96.241199999999992
  0
LINE
  8
PT2-Rzut2
  6
CONTINUOUS
 62
     7
 10
268.0709
 20
56.948699999999974
 11
271.6305
 21
55.618400000000008
  0
LINE
  8
PT2-Rzut2
  6
CONTINUOUS
 62
     7
 10
268.0709
 20
56.948699999999974
 11
264.3364
 21
46.960800000000006
  0
LINE
  8
PT2-Rzut2
  6
CONTINUOUS
 62
     7
 10
264.3364
 20
46.963199999999972
 11
264.3364
 21
46.036400000000015
  0
LINE
  8
PT2-Rzut2
  6
CONTINUOUS
 62
     7
 10
264.3389
 20
46.036400000000015
 11
197.8402
 21
46.044899999999984
  0
LINE
  8
PT2-Rzut2
  6
CONTINUOUS
 62
     7
 10
197.8402
 20
46.047399999999982
 11
197.8402
 21
30.790300000000002
  0
LINE
  8
PT2-Rzut2
  6
CONTINUOUS
 62
     7
 10
226.5402
 20
44.538900000000012
 11
226.5402
 21
40.436300000000017
  0
LINE
  8
PT2-Rzut2
  6
CONTINUOUS
 62
     7
 10
235.5402
 20
40.433800000000019
 11
235.5402
 21
44.535300000000007
  0
LINE
  8
PT2-Rzut2
  6
CONTINUOUS
 62
     7
 10
235.5427
 20
44.535300000000007
 11
226.5402
 21
44.536400000000015
  0
LINE
  8
PT2-Rzut2
  6
CONTINUOUS
 62
     7
 10
227.7402
 20
41.633800000000008
 11
227.7402
 21
43.036299999999983
  0
LINE
  8
PT2-Rzut2
  6
CONTINUOUS
 62
     7
 10
227.7377
 20
43.036299999999983
 11
229.1402
 21
43.036299999999983
  0
LINE
  8
PT2-Rzut2
  6
CONTINUOUS
 62
     7
 10
229.1402
 20
43.038799999999981
 11
229.1402
 21
41.636300000000006
  0
LINE
  8
PT2-Rzut2
  6
CONTINUOUS
 62
     7
 10
229.1427
 20
41.636300000000006
 11
227.7402
 21
41.636300000000006
  0
LINE
  8
PT2-Rzut2
  6
CONTINUOUS
 62
     7
 10
234.3427
 20
41.636300000000006
 11
232.9402
 21
41.636300000000006
  0
LINE
  8
PT2-Rzut2
  6
CONTINUOUS
 62
     7
 10
232.9402
 20
40.436300000000017
 11
232.9402
 21
43.036299999999983
  0
LINE
  8
PT2-Rzut2
  6
CONTINUOUS
 62
     7
 10
232.9377
 20
43.035599999999988
 11
234.3402
 21
43.036299999999983
  0
LINE
  8
PT2-Rzut2
  6
CONTINUOUS
 62
     7
 10
234.3402
 20
43.038799999999981
 11
234.3402
 21
40.436300000000017
  0
LINE
  8
PT2-Rzut2
  6
CONTINUOUS
 62
     7
 10
231.7427
 20
41.636300000000006
 11
230.3402
 21
41.636300000000006
  0
LINE
  8
PT2-Rzut2
  6
CONTINUOUS
 62
     7
 10
230.3402
 20
41.633800000000008
 11
230.3402
 21
43.036299999999983
  0
LINE
  8
PT2-Rzut2
  6
CONTINUOUS
 62
     7
 10
230.3377
 20
43.035900000000026
 11
231.7402
 21
43.036299999999983
  0
LINE
  8
PT2-Rzut2
  6
CONTINUOUS
 62
     7
 10
231.7402
 20
43.038799999999981
 11
231.7402
 21
41.636300000000006
  0
LINE
  8
PT2-Rzut2
  6
CONTINUOUS
 62
     7
 10
201.8402
 20
30.790300000000002
 11
201.8402
 21
44.544399999999996
  0
LINE
  8
PT2-Rzut2
  6
CONTINUOUS
 62
     7
 10
201.8377
 20
44.544399999999996
 11
264.3365
 21
44.536400000000015
  0
LINE
  8
PT2-Rzut2
  6
CONTINUOUS
 62
     7
 10
264.3365
 20
44.538900000000012
 11
264.3367
 21
40.936100000000010
  0
TEXT
  8
PT2-Opis7
  6
CONTINUOUS
 62
     7
 10
192.648300000000010
 20
60.620200000000011
 40
2.500000000000000
  1
Korytarz
  0
TEXT
  8
PT2-Opis7
  6
CONTINUOUS
 62
     7
 10
192.648300000000010
 20
56.870200000000011
 40
2.500000000000000
  1
107.55 m2
  0
TEXT
  8
PT2-Opis7
  6
CONTINUOUS
 62
     7
 10
239.729099999999990
 20
40.117999999999995
 40
2.500000000000000
  1
Szatnia
  0
TEXT
  8
PT2-Opis7
  6
CONTINUOUS
 62
     7
 10
239.729099999999990
 20
36.367999999999995
 40
2.500000000000000
  1
36.0 m2
  0
POLYLINE
  8
PT3-Kreskowanie15
  6
CONTINUOUS
 62
     7
 66
     1
 70
     1
  0
VERTEX
  8
PT3-Kreskowanie15
 10
222.7236
 20
73.897600000000011
  0
VERTEX
  8
PT3-Kreskowanie15
 10
224.2679
 20
74.601800000000026
  0
VERTEX
  8
PT3-Kreskowanie15
 10
224.9679
 20
76.475199999999973
  0
VERTEX
  8
PT3-Kreskowanie15
 10
224.2639
 20
78.019200000000012
  0
SEQEND
  8
PT3-Kreskowanie15
  0
POLYLINE
  8
PT3-Kreskowanie15
  6
CONTINUOUS
 62
     7
 66
     1
 70
     1
  0
VERTEX
  8
PT3-Kreskowanie15
 10
224.2639
 20
78.019200000000012
  0
VERTEX
  8
PT3-Kreskowanie15
 10
224.9679
 20
76.475199999999973
  0
VERTEX
  8
PT3-Kreskowanie15
 10
225.0616
 20
76.440200000000004
  0
VERTEX
  8
PT3-Kreskowanie15
 10
225.4815
 20
77.564300000000003
  0
SEQEND
  8
PT3-Kreskowanie15
  0
POLYLINE
  8
PT3-Kreskowanie15
  6
CONTINUOUS
 62
     7
 66
     1
 70
     1
  0
VERTEX
  8
PT3-Kreskowanie15
 10
226.6057
 20
77.144400000000019
  0
VERTEX
  8
PT3-Kreskowanie15
 10
226.1857
 20
76.020300000000020
  0
VERTEX
  8
PT3-Kreskowanie15
 10
227.4972
 20
75.530399999999986
  0
VERTEX
  8
PT3-Kreskowanie15
 10
227.9171
 20
76.654499999999985
  0
SEQEND
  8
PT3-Kreskowanie15
  0
POLYLINE
  8
PT3-Kreskowanie15
  6
CONTINUOUS
 62
     7
 66
     1
 70
     1
  0
VERTEX
  8
PT3-Kreskowanie15
 10
229.0413
 20
76.234600000000000
  0
VERTEX
  8
PT3-Kreskowanie15
 10
228.6214
 20
75.110400000000027
  0
VERTEX
  8
PT3-Kreskowanie15
 10
233.5863
 20
73.255800000000022
  0
VERTEX
  8
PT3-Kreskowanie15
 10
234.0062
 20
74.379900000000021
  0
SEQEND
  8
PT3-Kreskowanie15
  0
POLYLINE
  8
PT3-Kreskowanie15
  6
CONTINUOUS
 62
     7
 66
     1
 70
     1
  0
VERTEX
  8
PT3-Kreskowanie15
 10
235.1303
 20
73.959999999999980
  0
VERTEX
  8
PT3-Kreskowanie15
 10
234.7104
 20
72.835899999999981
  0
VERTEX
  8
PT3-Kreskowanie15
 10
234.8041
 20
72.800900000000013
  0
VERTEX
  8
PT3-Kreskowanie15
 10
236.3483
 20
73.504999999999995
  0
SEQEND
  8
PT3-Kreskowanie15
  0
POLYLINE
  8
PT3-Kreskowanie15
  6
CONTINUOUS
 62
     7
 66
     1
 70
     1
  0
VERTEX
  8
PT3-Kreskowanie15
 10
236.3483
 20
73.504999999999995
  0
VERTEX
  8
PT3-Kreskowanie15
 10
234.8041
 20
72.800900000000013
  0
VERTEX
  8
PT3-Kreskowanie15
 10
234.104
 20
70.927399999999977
  0
VERTEX
  8
PT3-Kreskowanie15
 10
234.808
 20
69.383399999999995
  0
SEQEND
  8
PT3-Kreskowanie15
  0
POLYLINE
  8
PT3-Kreskowanie15
  6
CONTINUOUS
 62
     7
 66
     1
 70
     1
  0
VERTEX
  8
PT3-Kreskowanie15
 10
234.808
 20
69.383399999999995
  0
VERTEX
  8
PT3-Kreskowanie15
 10
234.104
 20
70.927399999999977
  0
VERTEX
  8
PT3-Kreskowanie15
 10
230.9658
 20
72.099699999999984
  0
VERTEX
  8
PT3-Kreskowanie15
 10
230.5459
 20
70.975599999999986
  0
SEQEND
  8
PT3-Kreskowanie15
  0
POLYLINE
  8
PT3-Kreskowanie15
  6
CONTINUOUS
 62
     7
 66
     1
 70
     1
  0
VERTEX
  8
PT3-Kreskowanie15
 10
229.4217
 20
71.395500000000027
  0
VERTEX
  8
PT3-Kreskowanie15
 10
229.8416
 20
72.519600000000025
  0
VERTEX
  8
PT3-Kreskowanie15
 10
224.2679
 20
74.601800000000026
  0
VERTEX
  8
PT3-Kreskowanie15
 10
222.7236
 20
73.897600000000011
  0
SEQEND
  8
PT3-Kreskowanie15
  0
POLYLINE
  8
PT3-Kreskowanie15
  6
CONTINUOUS
 62
     7
 66
     1
 70
     1
  0
VERTEX
  8
PT3-Kreskowanie15
 10
225.5793
 20
74.111800000000017
  0
VERTEX
  8
PT3-Kreskowanie15
 10
226.7035
 20
73.691899999999976
  0
VERTEX
  8
PT3-Kreskowanie15
 10
227.4035
 20
75.565400000000011
  0
VERTEX
  8
PT3-Kreskowanie15
 10
226.2794
 20
75.985299999999995
  0
SEQEND
  8
PT3-Kreskowanie15
  0
POLYLINE
  8
PT3-Kreskowanie15
  6
CONTINUOUS
 62
     7
 66
     1
 70
     1
  0
VERTEX
  8
PT3-Kreskowanie15
 10
228.0149
 20
73.201999999999998
  0
VERTEX
  8
PT3-Kreskowanie15
 10
229.1391
 20
72.782100000000014
  0
VERTEX
  8
PT3-Kreskowanie15
 10
229.8392
 20
74.655500000000018
  0
VERTEX
  8
PT3-Kreskowanie15
 10
228.715
 20
75.075499999999977
  0
SEQEND
  8
PT3-Kreskowanie15
  0
POLYLINE
  8
PT3-Kreskowanie15
  6
CONTINUOUS
 62
     7
 66
     1
 70
     1
  0
VERTEX
  8
PT3-Kreskowanie15
 10
231.6684
 20
71.837300000000027
  0
VERTEX
  8
PT3-Kreskowanie15
 10
232.7925
 20
71.417300000000012
  0
VERTEX
  8
PT3-Kreskowanie15
 10
233.4926
 20
73.290799999999990
  0
VERTEX
  8
PT3-Kreskowanie15
 10
232.3685
 20
73.710699999999974
  0
SEQEND
  8
PT3-Kreskowanie15
  0
POLYLINE
  8
PT3-Kreskowanie15
  6
CONTINUOUS
 62
     7
 66
     1
 70
     1
  0
VERTEX
  8
PT3-Kreskowanie15
 10
301.9167
 20
274.674199999999980
  0
VERTEX
  8
PT3-Kreskowanie15
 10
302.6209
 20
273.130000000000000
  0
VERTEX
  8
PT3-Kreskowanie15
 10
308.8034
 20
270.819999999999990
  0
VERTEX
  8
PT3-Kreskowanie15
 10
310.3476
 20
271.524099999999980
  0
SEQEND
  8
PT3-Kreskowanie15
  0
POLYLINE
  8
PT3-Kreskowanie15
  6
CONTINUOUS
 62
     7
 66
     1
 70
     1
  0
VERTEX
  8
PT3-Kreskowanie15
 10
310.3476
 20
271.524099999999980
  0
VERTEX
  8
PT3-Kreskowanie15
 10
308.8034
 20
270.819999999999990
  0
VERTEX
  8
PT3-Kreskowanie15
 10
308.1033
 20
268.946599999999990
  0
VERTEX
  8
PT3-Kreskowanie15
 10
308.8073
 20
267.402500000000030
  0
SEQEND
  8
PT3-Kreskowanie15
  0
POLYLINE
  8
PT3-Kreskowanie15
  6
CONTINUOUS
 62
     7
 66
     1
 70
     1
  0
VERTEX
  8
PT3-Kreskowanie15
 10
308.8073
 20
267.402500000000030
  0
VERTEX
  8
PT3-Kreskowanie15
 10
308.1033
 20
268.946599999999990
  0
VERTEX
  8
PT3-Kreskowanie15
 10
308.0096
 20
268.981599999999960
  0
VERTEX
  8
PT3-Kreskowanie15
 10
307.5896
 20
267.857499999999960
  0
SEQEND
  8
PT3-Kreskowanie15
  0
POLYLINE
  8
PT3-Kreskowanie15
  6
CONTINUOUS
 62
     7
 66
     1
 70
     1
  0
VERTEX
  8
PT3-Kreskowanie15
 10
306.4655
 20
268.277500000000030
  0
VERTEX
  8
PT3-Kreskowanie15
 10
306.8855
 20
269.401600000000030
  0
VERTEX
  8
PT3-Kreskowanie15
 10
305.5741
 20
269.891600000000040
  0
VERTEX
  8
PT3-Kreskowanie15
 10
305.1541
 20
268.767500000000040
  0
SEQEND
  8
PT3-Kreskowanie15
  0
POLYLINE
  8
PT3-Kreskowanie15
  6
CONTINUOUS
 62
     7
 66
     1
 70
     1
  0
VERTEX
  8
PT3-Kreskowanie15
 10
304.03
 20
269.187500000000000
  0
VERTEX
  8
PT3-Kreskowanie15
 10
304.45
 20
270.311600000000000
  0
VERTEX
  8
PT3-Kreskowanie15
 10
303.1385
 20
270.801600000000010
  0
VERTEX
  8
PT3-Kreskowanie15
 10
302.7185
 20
269.677500000000010
  0
SEQEND
  8
PT3-Kreskowanie15
  0
POLYLINE
  8
PT3-Kreskowanie15
  6
CONTINUOUS
 62
     7
 66
     1
 70
     1
  0
VERTEX
  8
PT3-Kreskowanie15
 10
301.5944
 20
270.097499999999970
  0
VERTEX
  8
PT3-Kreskowanie15
 10
302.0144
 20
271.221599999999970
  0
VERTEX
  8
PT3-Kreskowanie15
 10
301.9208
 20
271.256599999999990
  0
VERTEX
  8
PT3-Kreskowanie15
 10
300.3766
 20
270.552500000000010
  0
SEQEND
  8
PT3-Kreskowanie15
  0
POLYLINE
  8
PT3-Kreskowanie15
  6
CONTINUOUS
 62
     7
 66
     1
 70
     1
  0
VERTEX
  8
PT3-Kreskowanie15
 10
300.3766
 20
270.552500000000010
  0
VERTEX
  8
PT3-Kreskowanie15
 10
301.9208
 20
271.256599999999990
  0
VERTEX
  8
PT3-Kreskowanie15
 10
302.6209
 20
273.130000000000000
  0
VERTEX
  8
PT3-Kreskowanie15
 10
301.9167
 20
274.674199999999980
  0
SEQEND
  8
PT3-Kreskowanie15
  0
POLYLINE
  8
PT3-Kreskowanie15
  6
CONTINUOUS
 62
     7
 66
     1
 70
     1
  0
VERTEX
  8
PT3-Kreskowanie15
 10
303.2322
 20
270.766600000000040
  0
VERTEX
  8
PT3-Kreskowanie15
 10
304.3563
 20
270.346599999999970
  0
VERTEX
  8
PT3-Kreskowanie15
 10
305.0564
 20
272.220100000000000
  0
VERTEX
  8
PT3-Kreskowanie15
 10
303.9323
 20
272.640100000000020
  0
SEQEND
  8
PT3-Kreskowanie15
  0
POLYLINE
  8
PT3-Kreskowanie15
  6
CONTINUOUS
 62
     7
 66
     1
 70
     1
  0
VERTEX
  8
PT3-Kreskowanie15
 10
305.6678
 20
269.856599999999960
  0
VERTEX
  8
PT3-Kreskowanie15
 10
306.7918
 20
269.436600000000000
  0
VERTEX
  8
PT3-Kreskowanie15
 10
307.4919
 20
271.310000000000000
  0
VERTEX
  8
PT3-Kreskowanie15
 10
306.3679
 20
271.730000000000020
  0
SEQEND
  8
PT3-Kreskowanie15
  0
POLYLINE
  8
PT3-Kreskowanie15
  6
CONTINUOUS
 62
     7
 66
     1
 70
     1
  0
VERTEX
  8
PT3-Kreskowanie15
 10
222.7236
 20
73.897600000000011
  0
VERTEX
  8
PT3-Kreskowanie15
 10
224.1239
 20
77.644499999999994
  0
VERTEX
  8
PT3-Kreskowanie15
 10
130.1866
 20
112.732399999999980
  0
VERTEX
  8
PT3-Kreskowanie15
 10
125.0383
 20
110.388199999999980
  0
SEQEND
  8
PT3-Kreskowanie15
  0
LINE
  8
PT3-Rzut14
  6
CONTINUOUS
 62
     7
 10
137.0609
 20
142.565499999999990
 11
140.808
 21
141.165799999999990
  0
LINE
  8
PT3-Rzut14
  6
CONTINUOUS
 62
     7
 10
146.1592
 20
166.921699999999990
 11
149.9063
 21
165.521899999999990
  0
LINE
  8
PT3-Rzut14
  6
CONTINUOUS
 62
     7
 10
147.559
 20
170.668800000000000
 11
151.3061
 21
169.269000000000010
  0
LINE
  8
PT3-Rzut14
  6
CONTINUOUS
 62
     7
 10
156.6573
 20
195.024900000000000
 11
160.4044
 21
193.625200000000010
  0
LINE
  8
PT3-Rzut14
  6
CONTINUOUS
 62
     7
 10
158.057
 20
198.771999999999990
 11
161.8041
 21
197.372199999999990
  0
LINE
  8
PT3-Rzut14
  6
CONTINUOUS
 62
     7
 10
167.1553
 20
223.128099999999990
 11
170.9024
 21
221.728399999999990
  0
LINE
  8
PT3-Rzut14
  6
CONTINUOUS
 62
     7
 10
179.0531
 20
254.978399999999990
 11
182.8002
 21
253.578700000000000
  0
LINE
  8
PT3-Rzut14
  6
CONTINUOUS
 62
     7
 10
188.1514
 20
279.334600000000020
 11
191.8985
 21
277.934800000000000
  0
LINE
  8
PT3-Rzut14
  6
CONTINUOUS
 62
     7
 10
189.5511
 20
283.081599999999980
 11
193.2982
 21
281.681899999999980
  0
LINE
  8
PT3-Rzut14
  6
CONTINUOUS
 62
     7
 10
198.6494
 20
307.437700000000010
 11
202.3965
 21
306.038000000000010
  0
LINE
  8
PT3-Rzut14
  6
CONTINUOUS
 62
     7
 10
126.5629
 20
114.462300000000030
 11
130.31
 21
113.062599999999970
  0
LINE
  8
PT3-Rzut14
  6
CONTINUOUS
 62
     7
 10
135.6612
 20
138.818400000000000
 11
139.4083
 21
137.418700000000000
  0
LINE
  8
PT3-Rzut14
  6
CONTINUOUS
 62
     7
 10
137.0609
 20
142.565499999999990
 11
140.808
 21
141.165799999999990
  0
LINE
  8
PT3-Rzut14
  6
CONTINUOUS
 62
     7
 10
146.1592
 20
166.921699999999990
 11
149.9063
 21
165.521899999999990
  0
POLYLINE
  8
PT3-Kreskowanie15
  6
CONTINUOUS
 62
     7
 66
     1
 70
     1
  0
VERTEX
  8
PT3-Kreskowanie15
 10
125.0407
 20
110.387299999999980
  0
VERTEX
  8
PT3-Kreskowanie15
 10
130.1875
 20
112.734699999999980
  0
VERTEX
  8
PT3-Kreskowanie15
 10
130.31
 20
113.062599999999970
  0
VERTEX
  8
PT3-Kreskowanie15
 10
126.5629
 20
114.462300000000030
  0
SEQEND
  8
PT3-Kreskowanie15
  0
POLYLINE
  8
PT3-Kreskowanie15
  6
CONTINUOUS
 62
     7
 66
     1
 70
     1
  0
VERTEX
  8
PT3-Kreskowanie15
 10
135.6612
 20
138.818400000000000
  0
VERTEX
  8
PT3-Kreskowanie15
 10
139.4083
 20
137.418700000000000
  0
VERTEX
  8
PT3-Kreskowanie15
 10
140.808
 20
141.165799999999990
  0
VERTEX
  8
PT3-Kreskowanie15
 10
137.0609
 20
142.565499999999990
  0
SEQEND
  8
PT3-Kreskowanie15
  0
POLYLINE
  8
PT3-Kreskowanie15
  6
CONTINUOUS
 62
     7
 66
     1
 70
     1
  0
VERTEX
  8
PT3-Kreskowanie15
 10
146.1592
 20
166.921699999999990
  0
VERTEX
  8
PT3-Kreskowanie15
 10
149.9063
 20
165.521899999999990
  0
VERTEX
  8
PT3-Kreskowanie15
 10
151.3061
 20
169.269000000000010
  0
VERTEX
  8
PT3-Kreskowanie15
 10
147.559
 20
170.668800000000000
  0
SEQEND
  8
PT3-Kreskowanie15
  0
POLYLINE
  8
PT3-Kreskowanie15
  6
CONTINUOUS
 62
     7
 66
     1
 70
     1
  0
VERTEX
  8
PT3-Kreskowanie15
 10
156.6573
 20
195.024900000000000
  0
VERTEX
  8
PT3-Kreskowanie15
 10
160.4044
 20
193.625200000000010
  0
VERTEX
  8
PT3-Kreskowanie15
 10
161.8041
 20
197.372199999999990
  0
VERTEX
  8
PT3-Kreskowanie15
 10
158.057
 20
198.771999999999990
  0
SEQEND
  8
PT3-Kreskowanie15
  0
POLYLINE
  8
PT3-Kreskowanie15
  6
CONTINUOUS
 62
     7
 66
     1
 70
     1
  0
VERTEX
  8
PT3-Kreskowanie15
 10
167.1553
 20
223.128099999999990
  0
VERTEX
  8
PT3-Kreskowanie15
 10
170.9024
 20
221.728399999999990
  0
VERTEX
  8
PT3-Kreskowanie15
 10
172.3021
 20
225.475400000000010
  0
VERTEX
  8
PT3-Kreskowanie15
 10
168.555
 20
226.875200000000010
  0
SEQEND
  8
PT3-Kreskowanie15
  0
POLYLINE
  8
PT3-Kreskowanie15
  6
CONTINUOUS
 62
     7
 66
     1
 70
     1
  0
VERTEX
  8
PT3-Kreskowanie15
 10
177.6533
 20
251.231300000000000
  0
VERTEX
  8
PT3-Kreskowanie15
 10
181.4004
 20
249.831600000000010
  0
VERTEX
  8
PT3-Kreskowanie15
 10
182.8002
 20
253.578700000000000
  0
VERTEX
  8
PT3-Kreskowanie15
 10
179.0531
 20
254.978399999999990
  0
SEQEND
  8
PT3-Kreskowanie15
  0
POLYLINE
  8
PT3-Kreskowanie15
  6
CONTINUOUS
 62
     7
 66
     1
 70
     1
  0
VERTEX
  8
PT3-Kreskowanie15
 10
188.1514
 20
279.334600000000020
  0
VERTEX
  8
PT3-Kreskowanie15
 10
191.8985
 20
277.934800000000000
  0
VERTEX
  8
PT3-Kreskowanie15
 10
193.2982
 20
281.681899999999980
  0
VERTEX
  8
PT3-Kreskowanie15
 10
189.5511
 20
283.081599999999980
  0
SEQEND
  8
PT3-Kreskowanie15
  0
POLYLINE
  8
PT3-Kreskowanie15
  6
CONTINUOUS
 62
     7
 66
     1
 70
     1
  0
VERTEX
  8
PT3-Kreskowanie15
 10
198.6494
 20
307.437700000000010
  0
VERTEX
  8
PT3-Kreskowanie15
 10
202.3965
 20
306.038000000000010
  0
VERTEX
  8
PT3-Kreskowanie15
 10
202.9048
 20
307.398700000000020
  0
VERTEX
  8
PT3-Kreskowanie15
 10
200.5575
 20
312.545799999999990
  0
SEQEND
  8
PT3-Kreskowanie15
  0
LINE
  8
PT3-Okna_i_drzwi16
  6
CONTINUOUS
 62
     7
 10
131.1121
 20
126.640400000000000
 11
126.5629
 21
114.462300000000030
  0
LINE
  8
PT3-Okna_i_drzwi16
  6
CONTINUOUS
 62
     7
 10
132.5172
 20
126.115500000000000
 11
127.9681
 21
113.937400000000030
  0
LINE
  8
PT3-Okna_i_drzwi16
  6
CONTINUOUS
 62
     7
 10
133.454
 20
125.765499999999970
 11
128.9048
 21
113.587499999999980
  0
LINE
  8
PT3-Okna_i_drzwi16
  6
CONTINUOUS
 62
     7
 10
132.0973
 20
124.991400000000000
 11
133.0341
 21
124.641399999999980
  0
LINE
  8
PT3-Okna_i_drzwi16
  6
CONTINUOUS
 62
     7
 10
128.388
 20
115.061500000000020
 11
129.3248
 21
114.711599999999980
  0
LINE
  8
PT3-Okna_i_drzwi16
  6
CONTINUOUS
 62
     7
 10
130.31
 20
113.062599999999970
 11
134.8591
 21
125.240599999999970
  0
LINE
  8
PT3-Okna_i_drzwi16
  6
CONTINUOUS
 62
     7
 10
135.6612
 20
138.818400000000000
 11
131.1121
 21
126.640400000000000
  0
LINE
  8
PT3-Okna_i_drzwi16
  6
CONTINUOUS
 62
     7
 10
137.0664
 20
138.293499999999990
 11
132.5172
 21
126.115500000000000
  0
LINE
  8
PT3-Okna_i_drzwi16
  6
CONTINUOUS
 62
     7
 10
138.0031
 20
137.943600000000000
 11
133.454
 21
125.765499999999970
  0
LINE
  8
PT3-Okna_i_drzwi16
  6
CONTINUOUS
 62
     7
 10
136.6464
 20
137.169400000000000
 11
137.5832
 21
136.819500000000010
  0
LINE
  8
PT3-Okna_i_drzwi16
  6
CONTINUOUS
 62
     7
 10
132.9371
 20
127.239600000000000
 11
133.8739
 21
126.889700000000000
  0
LINE
  8
PT3-Okna_i_drzwi16
  6
CONTINUOUS
 62
     7
 10
134.8591
 20
125.240700000000000
 11
139.4083
 21
137.418700000000000
  0
LINE
  8
PT3-Okna_i_drzwi16
  6
CONTINUOUS
 62
     7
 10
141.6101
 20
154.743599999999990
 11
137.0609
 21
142.565499999999990
  0
LINE
  8
PT3-Okna_i_drzwi16
  6
CONTINUOUS
 62
     7
 10
143.0152
 20
154.218700000000010
 11
138.4661
 21
142.040599999999980
  0
LINE
  8
PT3-Okna_i_drzwi16
  6
CONTINUOUS
 62
     7
 10
143.952
 20
153.868699999999990
 11
139.4029
 21
141.690699999999990
  0
LINE
  8
PT3-Okna_i_drzwi16
  6
CONTINUOUS
 62
     7
 10
142.5953
 20
153.094600000000010
 11
143.5321
 21
152.744599999999990
  0
LINE
  8
PT3-Okna_i_drzwi16
  6
CONTINUOUS
 62
     7
 10
138.886
 20
143.164800000000010
 11
139.8228
 21
142.814799999999990
  0
LINE
  8
PT3-Okna_i_drzwi16
  6
CONTINUOUS
 62
     7
 10
140.808
 20
141.165799999999990
 11
145.3572
 21
153.343799999999990
  0
LINE
  8
PT3-Okna_i_drzwi16
  6
CONTINUOUS
 62
     7
 10
146.1592
 20
166.921699999999990
 11
141.6101
 21
154.743599999999990
  0
LINE
  8
PT3-Okna_i_drzwi16
  6
CONTINUOUS
 62
     7
 10
147.5644
 20
166.396800000000010
 11
143.0152
 21
154.218700000000010
  0
LINE
  8
PT3-Okna_i_drzwi16
  6
CONTINUOUS
 62
     7
 10
148.5012
 20
166.046799999999990
 11
143.952
 21
153.868799999999990
  0
LINE
  8
PT3-Okna_i_drzwi16
  6
CONTINUOUS
 62
     7
 10
147.1445
 20
165.272600000000010
 11
148.0813
 21
164.922699999999990
  0
LINE
  8
PT3-Okna_i_drzwi16
  6
CONTINUOUS
 62
     7
 10
143.4352
 20
155.342800000000010
 11
144.3719
 21
154.992899999999990
  0
LINE
  8
PT3-Okna_i_drzwi16
  6
CONTINUOUS
 62
     7
 10
145.3572
 20
153.343899999999990
 11
149.9063
 21
165.521899999999990
  0
LINE
  8
PT3-Okna_i_drzwi16
  6
CONTINUOUS
 62
     7
 10
152.1081
 20
182.846800000000000
 11
147.559
 21
170.668800000000000
  0
LINE
  8
PT3-Okna_i_drzwi16
  6
CONTINUOUS
 62
     7
 10
153.5133
 20
182.321900000000000
 11
148.9641
 21
170.143900000000000
  0
LINE
  8
PT3-Okna_i_drzwi16
  6
CONTINUOUS
 62
     7
 10
154.4501
 20
181.972000000000010
 11
149.9009
 21
169.793900000000010
  0
LINE
  8
PT3-Okna_i_drzwi16
  6
CONTINUOUS
 62
     7
 10
153.0934
 20
181.197800000000000
 11
154.0301
 21
180.847900000000010
  0
LINE
  8
PT3-Okna_i_drzwi16
  6
CONTINUOUS
 62
     7
 10
149.3841
 20
171.268000000000000
 11
150.3208
 21
170.918000000000010
  0
LINE
  8
PT3-Okna_i_drzwi16
  6
CONTINUOUS
 62
     7
 10
151.3061
 20
169.269000000000010
 11
155.8552
 21
181.447100000000010
  0
LINE
  8
PT3-Okna_i_drzwi16
  6
CONTINUOUS
 62
     7
 10
156.6573
 20
195.024900000000000
 11
152.1081
 21
182.846800000000000
  0
LINE
  8
PT3-Okna_i_drzwi16
  6
CONTINUOUS
 62
     7
 10
158.0624
 20
194.500000000000000
 11
153.5133
 21
182.321900000000000
  0
LINE
  8
PT3-Okna_i_drzwi16
  6
CONTINUOUS
 62
     7
 10
158.9992
 20
194.150100000000010
 11
154.4501
 21
181.972000000000010
  0
LINE
  8
PT3-Okna_i_drzwi16
  6
CONTINUOUS
 62
     7
 10
157.6425
 20
193.375900000000000
 11
158.5793
 21
193.025900000000010
  0
LINE
  8
PT3-Okna_i_drzwi16
  6
CONTINUOUS
 62
     7
 10
153.9332
 20
183.446100000000000
 11
154.87
 21
183.096100000000010
  0
LINE
  8
PT3-Okna_i_drzwi16
  6
CONTINUOUS
 62
     7
 10
155.8552
 20
181.447100000000010
 11
160.4044
 21
193.625200000000010
  0
LINE
  8
PT3-Okna_i_drzwi16
  6
CONTINUOUS
 62
     7
 10
162.6062
 20
210.949999999999990
 11
158.057
 21
198.771999999999990
  0
LINE
  8
PT3-Okna_i_drzwi16
  6
CONTINUOUS
 62
     7
 10
164.0113
 20
210.425099999999990
 11
159.4622
 21
198.247000000000010
  0
LINE
  8
PT3-Okna_i_drzwi16
  6
CONTINUOUS
 62
     7
 10
164.9481
 20
210.075200000000000
 11
160.3989
 21
197.897099999999990
  0
LINE
  8
PT3-Okna_i_drzwi16
  6
CONTINUOUS
 62
     7
 10
163.5914
 20
209.300999999999990
 11
164.5282
 21
208.951100000000000
  0
LINE
  8
PT3-Okna_i_drzwi16
  6
CONTINUOUS
 62
     7
 10
159.8821
 20
199.371199999999990
 11
160.8189
 21
199.021199999999990
  0
LINE
  8
PT3-Okna_i_drzwi16
  6
CONTINUOUS
 62
     7
 10
161.8041
 20
197.372199999999990
 11
166.3533
 21
209.550299999999990
  0
LINE
  8
PT3-Okna_i_drzwi16
  6
CONTINUOUS
 62
     7
 10
167.1553
 20
223.128099999999990
 11
162.6062
 21
210.949999999999990
  0
LINE
  8
PT3-Okna_i_drzwi16
  6
CONTINUOUS
 62
     7
 10
168.5605
 20
222.603199999999990
 11
164.0113
 21
210.425099999999990
  0
LINE
  8
PT3-Okna_i_drzwi16
  6
CONTINUOUS
 62
     7
 10
169.4972
 20
222.253300000000000
 11
164.9481
 21
210.075200000000000
  0
LINE
  8
PT3-Okna_i_drzwi16
  6
CONTINUOUS
 62
     7
 10
168.1405
 20
221.479099999999990
 11
169.0773
 21
221.129099999999990
  0
LINE
  8
PT3-Okna_i_drzwi16
  6
CONTINUOUS
 62
     7
 10
164.4312
 20
211.549200000000010
 11
165.368
 21
211.199299999999990
  0
LINE
  8
PT3-Okna_i_drzwi16
  6
CONTINUOUS
 62
     7
 10
166.3533
 20
209.550299999999990
 11
170.9024
 21
221.728399999999990
  0
LINE
  8
PT3-Okna_i_drzwi16
  6
CONTINUOUS
 62
     7
 10
173.1042
 20
239.053200000000000
 11
168.555
 21
226.875200000000010
  0
LINE
  8
PT3-Okna_i_drzwi16
  6
CONTINUOUS
 62
     7
 10
174.5094
 20
238.528300000000000
 11
169.9602
 21
226.350300000000000
  0
LINE
  8
PT3-Okna_i_drzwi16
  6
CONTINUOUS
 62
     7
 10
175.4461
 20
238.178400000000010
 11
170.897
 21
226.000300000000010
  0
LINE
  8
PT3-Okna_i_drzwi16
  6
CONTINUOUS
 62
     7
 10
174.0894
 20
237.404200000000000
 11
175.0262
 21
237.054300000000010
  0
LINE
  8
PT3-Okna_i_drzwi16
  6
CONTINUOUS
 62
     7
 10
170.3801
 20
227.474400000000000
 11
171.3169
 21
227.124500000000010
  0
LINE
  8
PT3-Okna_i_drzwi16
  6
CONTINUOUS
 62
     7
 10
172.3021
 20
225.475400000000010
 11
176.8513
 21
237.653500000000010
  0
LINE
  8
PT3-Okna_i_drzwi16
  6
CONTINUOUS
 62
     7
 10
177.6533
 20
251.231300000000000
 11
173.1042
 21
239.053200000000000
  0
LINE
  8
PT3-Okna_i_drzwi16
  6
CONTINUOUS
 62
     7
 10
179.0585
 20
250.706400000000000
 11
174.5093
 21
238.528300000000000
  0
LINE
  8
PT3-Okna_i_drzwi16
  6
CONTINUOUS
 62
     7
 10
179.9953
 20
250.356500000000010
 11
175.4461
 21
238.178400000000010
  0
LINE
  8
PT3-Okna_i_drzwi16
  6
CONTINUOUS
 62
     7
 10
178.6386
 20
249.582300000000000
 11
179.5753
 21
249.232300000000010
  0
LINE
  8
PT3-Okna_i_drzwi16
  6
CONTINUOUS
 62
     7
 10
174.9293
 20
239.652500000000000
 11
175.866
 21
239.302500000000010
  0
LINE
  8
PT3-Okna_i_drzwi16
  6
CONTINUOUS
 62
     7
 10
176.8513
 20
237.653500000000010
 11
181.4004
 21
249.831600000000010
  0
LINE
  8
PT3-Okna_i_drzwi16
  6
CONTINUOUS
 62
     7
 10
183.6022
 20
267.156499999999990
 11
179.0531
 21
254.978399999999990
  0
LINE
  8
PT3-Okna_i_drzwi16
  6
CONTINUOUS
 62
     7
 10
185.0074
 20
266.631599999999990
 11
180.4582
 21
254.453499999999990
  0
LINE
  8
PT3-Okna_i_drzwi16
  6
CONTINUOUS
 62
     7
 10
185.9442
 20
266.281700000000000
 11
181.395
 21
254.103600000000000
  0
LINE
  8
PT3-Okna_i_drzwi16
  6
CONTINUOUS
 62
     7
 10
184.5875
 20
265.507499999999990
 11
185.5242
 21
265.157500000000030
  0
LINE
  8
PT3-Okna_i_drzwi16
  6
CONTINUOUS
 62
     7
 10
180.8782
 20
255.577699999999990
 11
181.8149
 21
255.227700000000000
  0
LINE
  8
PT3-Okna_i_drzwi16
  6
CONTINUOUS
 62
     7
 10
182.8002
 20
253.578700000000000
 11
187.3493
 21
265.756700000000020
  0
LINE
  8
PT3-Okna_i_drzwi16
  6
CONTINUOUS
 62
     7
 10
188.1514
 20
279.334600000000020
 11
183.6022
 21
267.156499999999990
  0
LINE
  8
PT3-Okna_i_drzwi16
  6
CONTINUOUS
 62
     7
 10
189.5565
 20
278.809700000000020
 11
185.0074
 21
266.631599999999990
  0
LINE
  8
PT3-Okna_i_drzwi16
  6
CONTINUOUS
 62
     7
 10
190.4933
 20
278.459700000000000
 11
185.9442
 21
266.281700000000000
  0
LINE
  8
PT3-Okna_i_drzwi16
  6
CONTINUOUS
 62
     7
 10
189.1366
 20
277.685499999999990
 11
190.0734
 21
277.335600000000000
  0
LINE
  8
PT3-Okna_i_drzwi16
  6
CONTINUOUS
 62
     7
 10
185.4273
 20
267.755699999999990
 11
186.3641
 21
267.405800000000000
  0
LINE
  8
PT3-Okna_i_drzwi16
  6
CONTINUOUS
 62
     7
 10
187.3493
 20
265.756700000000020
 11
191.8985
 21
277.934800000000000
  0
LINE
  8
PT3-Okna_i_drzwi16
  6
CONTINUOUS
 62
     7
 10
194.1003
 20
295.259700000000010
 11
189.5511
 21
283.081599999999980
  0
LINE
  8
PT3-Okna_i_drzwi16
  6
CONTINUOUS
 62
     7
 10
195.5054
 20
294.734800000000010
 11
190.9563
 21
282.556699999999980
  0
LINE
  8
PT3-Okna_i_drzwi16
  6
CONTINUOUS
 62
     7
 10
196.4422
 20
294.384799999999980
 11
191.893
 21
282.206799999999990
  0
LINE
  8
PT3-Okna_i_drzwi16
  6
CONTINUOUS
 62
     7
 10
195.0855
 20
293.610599999999980
 11
196.0223
 21
293.260699999999990
  0
LINE
  8
PT3-Okna_i_drzwi16
  6
CONTINUOUS
 62
     7
 10
191.3762
 20
283.680799999999980
 11
192.313
 21
283.330899999999990
  0
LINE
  8
PT3-Okna_i_drzwi16
  6
CONTINUOUS
 62
     7
 10
193.2982
 20
281.681899999999980
 11
197.8474
 21
293.859899999999980
  0
LINE
  8
PT3-Okna_i_drzwi16
  6
CONTINUOUS
 62
     7
 10
198.6494
 20
307.437700000000010
 11
194.1003
 21
295.259700000000010
  0
LINE
  8
PT3-Okna_i_drzwi16
  6
CONTINUOUS
 62
     7
 10
200.0546
 20
306.912800000000000
 11
195.5054
 21
294.734800000000010
  0
LINE
  8
PT3-Okna_i_drzwi16
  6
CONTINUOUS
 62
     7
 10
200.9913
 20
306.562900000000010
 11
196.4422
 21
294.384799999999980
  0
LINE
  8
PT3-Okna_i_drzwi16
  6
CONTINUOUS
 62
     7
 10
199.6346
 20
305.788700000000010
 11
200.5714
 21
305.438800000000010
  0
LINE
  8
PT3-Okna_i_drzwi16
  6
CONTINUOUS
 62
     7
 10
195.9253
 20
295.858900000000010
 11
196.8621
 21
295.509000000000010
  0
LINE
  8
PT3-Okna_i_drzwi16
  6
CONTINUOUS
 62
     7
 10
197.8474
 20
293.859899999999980
 11
202.3965
 21
306.038000000000010
  0
POLYLINE
  8
PT3-Kreskowanie15
  6
CONTINUOUS
 62
     7
 66
     1
 70
     1
  0
VERTEX
  8
PT3-Kreskowanie15
 10
201.272
 20
312.278799999999990
  0
VERTEX
  8
PT3-Kreskowanie15
 10
202.6174
 20
308.029000000000000
  0
VERTEX
  8
PT3-Kreskowanie15
 10
300.5166
 20
270.927199999999970
  0
VERTEX
  8
PT3-Kreskowanie15
 10
301.9167
 20
274.674199999999980
  0
SEQEND
  8
PT3-Kreskowanie15
  0
LINE
  8
PT3-Rzut14
  6
CONTINUOUS
 62
     7
 10
303.0876
 20
240.669800000000010
 11
299.3406
 21
242.070100000000000
  0
LINE
  8
PT3-Rzut14
  6
CONTINUOUS
 62
     7
 10
312.189
 20
265.024800000000030
 11
308.442
 21
266.425000000000010
  0
LINE
  8
PT3-Rzut14
  6
CONTINUOUS
 62
     7
 10
293.4064
 20
214.763399999999990
 11
289.6595
 21
216.163600000000000
  0
LINE
  8
PT3-Rzut14
  6
CONTINUOUS
 62
     7
 10
301.4576
 20
236.308200000000000
 11
297.7107
 21
237.708400000000010
  0
LINE
  8
PT3-Rzut14
  6
CONTINUOUS
 62
     7
 10
282.0842
 20
184.465599999999990
 11
278.3372
 21
185.865800000000010
  0
LINE
  8
PT3-Rzut14
  6
CONTINUOUS
 62
     7
 10
291.1856
 20
208.820600000000010
 11
287.4387
 21
210.220800000000000
  0
LINE
  8
PT3-Rzut14
  6
CONTINUOUS
 62
     7
 10
271.5827
 20
156.364200000000010
 11
267.8358
 21
157.764399999999990
  0
LINE
  8
PT3-Rzut14
  6
CONTINUOUS
 62
     7
 10
280.6841
 20
180.719200000000000
 11
276.9372
 21
182.119400000000010
  0
LINE
  8
PT3-Rzut14
  6
CONTINUOUS
 62
     7
 10
270.1823
 20
152.616800000000010
 11
266.4354
 21
154.017000000000000
  0
LINE
  8
PT3-Rzut14
  6
CONTINUOUS
 62
     7
 10
250.5793
 20
100.160000000000030
 11
246.8324
 21
101.560200000000010
  0
LINE
  8
PT3-Rzut14
  6
CONTINUOUS
 62
     7
 10
259.6807
 20
124.514900000000010
 11
255.9338
 21
125.915200000000030
  0
LINE
  8
PT3-Rzut14
  6
CONTINUOUS
 62
     7
 10
240.4277
 20
72.994700000000023
 11
236.6808
 21
74.394900000000007
  0
LINE
  8
PT3-Rzut14
  6
CONTINUOUS
 62
     7
 10
249.179
 20
96.412899999999979
 11
245.4321
 21
97.813100000000020
  0
LINE
  8
PT3-Rzut14
  6
CONTINUOUS
 62
     7
 10
303.0876
 20
240.669800000000010
 11
299.3406
 21
242.070100000000000
  0
LINE
  8
PT3-Rzut14
  6
CONTINUOUS
 62
     7
 10
312.189
 20
265.024800000000030
 11
308.442
 21
266.425000000000010
  0
LINE
  8
PT3-Rzut14
  6
CONTINUOUS
 62
     7
 10
293.4064
 20
214.763399999999990
 11
289.6595
 21
216.163600000000000
  0
LINE
  8
PT3-Rzut14
  6
CONTINUOUS
 62
     7
 10
301.4576
 20
236.308200000000000
 11
297.7107
 21
237.708400000000010
  0
LINE
  8
PT3-Rzut14
  6
CONTINUOUS
 62
     7
 10
282.0842
 20
184.465599999999990
 11
278.3372
 21
185.865800000000010
  0
LINE
  8
PT3-Rzut14
  6
CONTINUOUS
 62
     7
 10
291.1856
 20
208.820600000000010
 11
287.4387
 21
210.220800000000000
  0
LINE
  8
PT3-Rzut14
  6
CONTINUOUS
 62
     7
 10
271.5827
 20
156.364200000000010
 11
267.8358
 21
157.764399999999990
  0
LINE
  8
PT3-Rzut14
  6
CONTINUOUS
 62
     7
 10
280.6841
 20
180.719200000000000
 11
276.9372
 21
182.119400000000010
  0
LINE
  8
PT3-Rzut14
  6
CONTINUOUS
 62
     7
 10
270.1823
 20
152.616800000000010
 11
266.4354
 21
154.017000000000000
  0
LINE
  8
PT3-Rzut14
  6
CONTINUOUS
 62
     7
 10
250.5793
 20
100.160000000000030
 11
246.8324
 21
101.560200000000010
  0
LINE
  8
PT3-Rzut14
  6
CONTINUOUS
 62
     7
 10
259.6807
 20
124.514900000000010
 11
255.9338
 21
125.915200000000030
  0
LINE
  8
PT3-Rzut14
  6
CONTINUOUS
 62
     7
 10
240.4277
 20
72.994700000000023
 11
236.6808
 21
74.394900000000007
  0
LINE
  8
PT3-Rzut14
  6
CONTINUOUS
 62
     7
 10
249.179
 20
96.412899999999979
 11
245.4321
 21
97.813100000000020
  0
POLYLINE
  8
PT3-Kreskowanie15
  6
CONTINUOUS
 62
     7
 66
     1
 70
     1
  0
VERTEX
  8
PT3-Kreskowanie15
 10
314.0946
 20
270.124100000000000
  0
VERTEX
  8
PT3-Kreskowanie15
 10
310.3476
 20
271.524099999999980
  0
VERTEX
  8
PT3-Kreskowanie15
 10
308.442
 20
266.425000000000010
  0
VERTEX
  8
PT3-Kreskowanie15
 10
312.189
 20
265.024800000000030
  0
SEQEND
  8
PT3-Kreskowanie15
  0
POLYLINE
  8
PT3-Kreskowanie15
  6
CONTINUOUS
 62
     7
 66
     1
 70
     1
  0
VERTEX
  8
PT3-Kreskowanie15
 10
303.0876
 20
240.669800000000010
  0
VERTEX
  8
PT3-Kreskowanie15
 10
299.3406
 20
242.070100000000000
  0
VERTEX
  8
PT3-Kreskowanie15
 10
297.7107
 20
237.708400000000010
  0
VERTEX
  8
PT3-Kreskowanie15
 10
301.4576
 20
236.308200000000000
  0
SEQEND
  8
PT3-Kreskowanie15
  0
POLYLINE
  8
PT3-Kreskowanie15
  6
CONTINUOUS
 62
     7
 66
     1
 70
     1
  0
VERTEX
  8
PT3-Kreskowanie15
 10
293.4064
 20
214.763399999999990
  0
VERTEX
  8
PT3-Kreskowanie15
 10
289.6595
 20
216.163600000000000
  0
VERTEX
  8
PT3-Kreskowanie15
 10
287.4387
 20
210.220800000000000
  0
VERTEX
  8
PT3-Kreskowanie15
 10
291.1856
 20
208.820600000000010
  0
SEQEND
  8
PT3-Kreskowanie15
  0
POLYLINE
  8
PT3-Kreskowanie15
  6
CONTINUOUS
 62
     7
 66
     1
 70
     1
  0
VERTEX
  8
PT3-Kreskowanie15
 10
282.0842
 20
184.465599999999990
  0
VERTEX
  8
PT3-Kreskowanie15
 10
278.3372
 20
185.865800000000010
  0
VERTEX
  8
PT3-Kreskowanie15
 10
276.9372
 20
182.119400000000010
  0
VERTEX
  8
PT3-Kreskowanie15
 10
280.6841
 20
180.719200000000000
  0
SEQEND
  8
PT3-Kreskowanie15
  0
POLYLINE
  8
PT3-Kreskowanie15
  6
CONTINUOUS
 62
     7
 66
     1
 70
     1
  0
VERTEX
  8
PT3-Kreskowanie15
 10
271.5827
 20
156.364200000000010
  0
VERTEX
  8
PT3-Kreskowanie15
 10
267.8358
 20
157.764399999999990
  0
VERTEX
  8
PT3-Kreskowanie15
 10
266.6259
 20
154.526800000000010
  0
VERTEX
  8
PT3-Kreskowanie15
 10
270.3728
 20
153.126600000000000
  0
SEQEND
  8
PT3-Kreskowanie15
  0
POLYLINE
  8
PT3-Kreskowanie15
  6
CONTINUOUS
 62
     7
 66
     1
 70
     1
  0
VERTEX
  8
PT3-Kreskowanie15
 10
261.0809
 20
128.261900000000030
  0
VERTEX
  8
PT3-Kreskowanie15
 10
257.334
 20
129.662100000000010
  0
VERTEX
  8
PT3-Kreskowanie15
 10
255.9338
 20
125.915200000000030
  0
VERTEX
  8
PT3-Kreskowanie15
 10
259.6807
 20
124.514900000000010
  0
SEQEND
  8
PT3-Kreskowanie15
  0
POLYLINE
  8
PT3-Kreskowanie15
  6
CONTINUOUS
 62
     7
 66
     1
 70
     1
  0
VERTEX
  8
PT3-Kreskowanie15
 10
250.5793
 20
100.160000000000030
  0
VERTEX
  8
PT3-Kreskowanie15
 10
246.8324
 20
101.560200000000010
  0
VERTEX
  8
PT3-Kreskowanie15
 10
245.4321
 20
97.813100000000020
  0
VERTEX
  8
PT3-Kreskowanie15
 10
249.179
 20
96.412899999999979
  0
SEQEND
  8
PT3-Kreskowanie15
  0
POLYLINE
  8
PT3-Kreskowanie15
  6
CONTINUOUS
 62
     7
 66
     1
 70
     1
  0
VERTEX
  8
PT3-Kreskowanie15
 10
240.4277
 20
72.994700000000023
  0
VERTEX
  8
PT3-Kreskowanie15
 10
236.6808
 20
74.394900000000007
  0
VERTEX
  8
PT3-Kreskowanie15
 10
234.808
 20
69.383399999999995
  0
VERTEX
  8
PT3-Kreskowanie15
 10
238.5549
 20
67.983200000000011
  0
SEQEND
  8
PT3-Kreskowanie15
  0
LINE
  8
PT3-Rzut14
  6
CONTINUOUS
 62
     7
 10
224.267
 20
74.599400000000003
 11
224.9679
 21
76.475199999999973
  0
LINE
  8
PT3-Rzut14
  6
CONTINUOUS
 62
     7
 10
226.1857
 20
76.020300000000020
 11
224.9679
 21
76.475199999999973
  0
LINE
  8
PT3-Rzut14
  6
CONTINUOUS
 62
     7
 10
226.2803
 20
75.987599999999986
 11
225.5793
 21
74.111800000000017
  0
LINE
  8
PT3-Rzut14
  6
CONTINUOUS
 62
     7
 10
225.5817
 20
74.110999999999990
 11
224.2679
 21
74.601800000000026
  0
LINE
  8
PT3-Rzut14
  6
CONTINUOUS
 62
     7
 10
224.2648
 20
78.021500000000003
 11
224.1239
 21
77.644499999999994
  0
LINE
  8
PT3-Rzut14
  6
CONTINUOUS
 62
     7
 10
224.1239
 20
77.644499999999994
 11
130.1875
 21
112.734699999999980
  0
LINE
  8
PT3-Rzut14
  6
CONTINUOUS
 62
     7
 10
130.1866
 20
112.732399999999980
 11
130.31
 21
113.062599999999970
  0
LINE
  8
PT3-Rzut14
  6
CONTINUOUS
 62
     7
 10
139.4083
 20
137.418700000000000
 11
140.808
 21
141.165799999999990
  0
LINE
  8
PT3-Rzut14
  6
CONTINUOUS
 62
     7
 10
149.9063
 20
165.521899999999990
 11
151.3061
 21
169.269000000000010
  0
LINE
  8
PT3-Rzut14
  6
CONTINUOUS
 62
     7
 10
160.4044
 20
193.625200000000010
 11
161.8041
 21
197.372199999999990
  0
LINE
  8
PT3-Rzut14
  6
CONTINUOUS
 62
     7
 10
170.9024
 20
221.728399999999990
 11
172.3021
 21
225.475400000000010
  0
LINE
  8
PT3-Rzut14
  6
CONTINUOUS
 62
     7
 10
181.4004
 20
249.831600000000010
 11
182.8002
 21
253.578700000000000
  0
LINE
  8
PT3-Rzut14
  6
CONTINUOUS
 62
     7
 10
191.8985
 20
277.934800000000000
 11
193.2982
 21
281.681899999999980
  0
LINE
  8
PT3-Rzut14
  6
CONTINUOUS
 62
     7
 10
202.3965
 20
306.038000000000010
 11
202.9048
 21
307.398700000000020
  0
LINE
  8
PT3-Rzut14
  6
CONTINUOUS
 62
     7
 10
202.9024
 20
307.399499999999990
 11
297.2167
 21
272.160200000000030
  0
LINE
  8
PT3-Rzut14
  6
CONTINUOUS
 62
     7
 10
297.2167
 20
272.160200000000030
 11
300.5166
 21
270.927199999999970
  0
LINE
  8
PT3-Rzut14
  6
CONTINUOUS
 62
     7
 10
300.5175
 20
270.929599999999990
 11
300.3766
 21
270.552599999999980
  0
LINE
  8
PT3-Rzut14
  6
CONTINUOUS
 62
     7
 10
300.3766
 20
270.552599999999980
 11
308.8073
 21
267.402500000000030
  0
LINE
  8
PT3-Rzut14
  6
CONTINUOUS
 62
     7
 10
308.8082
 20
267.404800000000020
 11
308.442
 21
266.425000000000010
  0
LINE
  8
PT3-Rzut14
  6
CONTINUOUS
 62
     7
 10
299.3406
 20
242.070100000000000
 11
297.7107
 21
237.708400000000010
  0
LINE
  8
PT3-Rzut14
  6
CONTINUOUS
 62
     7
 10
289.6595
 20
216.163600000000000
 11
287.4387
 21
210.220800000000000
  0
LINE
  8
PT3-Rzut14
  6
CONTINUOUS
 62
     7
 10
278.3372
 20
185.865800000000010
 11
276.9372
 21
182.119400000000010
  0
LINE
  8
PT3-Rzut14
  6
CONTINUOUS
 62
     7
 10
267.8358
 20
157.764399999999990
 11
266.4354
 21
154.017000000000000
  0
LINE
  8
PT3-Rzut14
  6
CONTINUOUS
 62
     7
 10
257.334
 20
129.662100000000010
 11
255.9338
 21
125.915100000000000
  0
LINE
  8
PT3-Rzut14
  6
CONTINUOUS
 62
     7
 10
246.8324
 20
101.560200000000010
 11
245.4321
 21
97.813100000000020
  0
LINE
  8
PT3-Rzut14
  6
CONTINUOUS
 62
     7
 10
236.6808
 20
74.394900000000007
 11
236.3481
 21
73.504500000000007
  0
LINE
  8
PT3-Rzut14
  6
CONTINUOUS
 62
     7
 10
236.3481
 20
73.504500000000007
 11
224.2639
 21
78.019200000000012
  0
LINE
  8
PT3-Rzut14
  6
CONTINUOUS
 62
     7
 10
228.715
 20
75.075499999999977
 11
227.4032
 21
75.564599999999984
  0
LINE
  8
PT3-Rzut14
  6
CONTINUOUS
 62
     7
 10
228.715
 20
75.075499999999977
 11
228.0149
 21
73.201999999999998
  0
LINE
  8
PT3-Rzut14
  6
CONTINUOUS
 62
     7
 10
228.0173
 20
73.201099999999997
 11
226.7035
 21
73.691899999999976
  0
LINE
  8
PT3-Rzut14
  6
CONTINUOUS
 62
     7
 10
226.7026
 20
73.689599999999984
 11
227.4032
 21
75.564599999999984
  0
LINE
  8
PT3-Rzut14
  6
CONTINUOUS
 62
     7
 10
229.8368
 20
74.656400000000019
 11
232.3685
 21
73.710699999999974
  0
LINE
  8
PT3-Rzut14
  6
CONTINUOUS
 62
     7
 10
232.3693
 20
73.713000000000022
 11
231.6684
 21
71.837300000000027
  0
LINE
  8
PT3-Rzut14
  6
CONTINUOUS
 62
     7
 10
231.6707
 20
71.836400000000026
 11
229.139
 21
72.781999999999982
  0
LINE
  8
PT3-Rzut14
  6
CONTINUOUS
 62
     7
 10
229.139
 20
72.781999999999982
 11
229.8392
 21
74.655500000000018
  0
LINE
  8
PT3-Rzut14
  6
CONTINUOUS
 62
     7
 10
233.4926
 20
73.290799999999990
 11
234.8041
 21
72.800900000000013
  0
LINE
  8
PT3-Rzut14
  6
CONTINUOUS
 62
     7
 10
234.8049
 20
72.803200000000004
 11
234.104
 21
70.927399999999977
  0
LINE
  8
PT3-Rzut14
  6
CONTINUOUS
 62
     7
 10
234.1063
 20
70.926600000000008
 11
232.7925
 21
71.417300000000012
  0
LINE
  8
PT3-Rzut14
  6
CONTINUOUS
 62
     7
 10
232.7916
 20
71.415000000000020
 11
233.4926
 21
73.290799999999990
  0
LINE
  8
PT3-Rzut14
  6
CONTINUOUS
 62
     7
 10
238.5552
 20
67.983799999999974
 11
240.4277
 21
72.994700000000023
  0
LINE
  8
PT3-Rzut14
  6
CONTINUOUS
 62
     7
 10
249.179
 20
96.412899999999979
 11
250.5793
 21
100.160000000000030
  0
LINE
  8
PT3-Rzut14
  6
CONTINUOUS
 62
     7
 10
259.6807
 20
124.514900000000010
 11
261.081
 21
128.261900000000030
  0
LINE
  8
PT3-Rzut14
  6
CONTINUOUS
 62
     7
 10
270.1823
 20
152.616800000000010
 11
271.5827
 21
156.364200000000010
  0
LINE
  8
PT3-Rzut14
  6
CONTINUOUS
 62
     7
 10
280.6841
 20
180.719200000000000
 11
282.0842
 21
184.465599999999990
  0
LINE
  8
PT3-Rzut14
  6
CONTINUOUS
 62
     7
 10
291.1856
 20
208.820600000000010
 11
293.4064
 21
214.763399999999990
  0
LINE
  8
PT3-Rzut14
  6
CONTINUOUS
 62
     7
 10
301.4576
 20
236.308200000000000
 11
303.0876
 21
240.669800000000010
  0
LINE
  8
PT3-Rzut14
  6
CONTINUOUS
 62
     7
 10
312.189
 20
265.024800000000030
 11
314.0946
 21
270.124000000000020
  0
LINE
  8
PT3-Rzut14
  6
CONTINUOUS
 62
     7
 10
314.0946
 20
270.124000000000020
 11
200.5575
 21
312.545799999999990
  0
LINE
  8
PT3-Rzut14
  6
CONTINUOUS
 62
     7
 10
200.5584
 20
312.548099999999980
 11
198.6494
 21
307.437700000000010
  0
LINE
  8
PT3-Rzut14
  6
CONTINUOUS
 62
     7
 10
189.5511
 20
283.081599999999980
 11
188.1514
 21
279.334600000000020
  0
LINE
  8
PT3-Rzut14
  6
CONTINUOUS
 62
     7
 10
179.0531
 20
254.978399999999990
 11
177.6533
 21
251.231300000000000
  0
LINE
  8
PT3-Rzut14
  6
CONTINUOUS
 62
     7
 10
168.555
 20
226.875200000000010
 11
167.1553
 21
223.128099999999990
  0
LINE
  8
PT3-Rzut14
  6
CONTINUOUS
 62
     7
 10
158.057
 20
198.771999999999990
 11
156.6573
 21
195.024900000000000
  0
LINE
  8
PT3-Rzut14
  6
CONTINUOUS
 62
     7
 10
147.559
 20
170.668800000000000
 11
146.1592
 21
166.921699999999990
  0
LINE
  8
PT3-Rzut14
  6
CONTINUOUS
 62
     7
 10
137.0609
 20
142.565499999999990
 11
135.6612
 21
138.818400000000000
  0
LINE
  8
PT3-Rzut14
  6
CONTINUOUS
 62
     7
 10
126.5629
 20
114.462300000000030
 11
125.0407
 21
110.387299999999980
  0
LINE
  8
PT3-Rzut14
  6
CONTINUOUS
 62
     7
 10
125.0383
 20
110.388199999999980
 11
238.5552
 21
67.983799999999974
  0
LINE
  8
PT3-Rzut14
  6
CONTINUOUS
 62
     7
 10
302.6185
 20
273.130900000000000
 11
303.9323
 21
272.640100000000020
  0
LINE
  8
PT3-Rzut14
  6
CONTINUOUS
 62
     7
 10
303.9332
 20
272.642400000000010
 11
303.2322
 21
270.766600000000040
  0
LINE
  8
PT3-Rzut14
  6
CONTINUOUS
 62
     7
 10
303.2346
 20
270.765700000000040
 11
301.9208
 21
271.256499999999960
  0
LINE
  8
PT3-Rzut14
  6
CONTINUOUS
 62
     7
 10
301.9208
 20
271.256499999999960
 11
302.6209
 21
273.130000000000000
  0
LINE
  8
PT3-Rzut14
  6
CONTINUOUS
 62
     7
 10
305.0541
 20
272.220900000000030
 11
306.3679
 21
271.730000000000020
  0
LINE
  8
PT3-Rzut14
  6
CONTINUOUS
 62
     7
 10
306.3687
 20
271.732399999999980
 11
305.6678
 21
269.856599999999960
  0
LINE
  8
PT3-Rzut14
  6
CONTINUOUS
 62
     7
 10
305.6701
 20
269.855700000000010
 11
304.3564
 21
270.346999999999980
  0
LINE
  8
PT3-Rzut14
  6
CONTINUOUS
 62
     7
 10
304.3564
 20
270.346999999999980
 11
305.0564
 21
272.220100000000000
  0
LINE
  8
PT3-Rzut14
  6
CONTINUOUS
 62
     7
 10
307.4896
 20
271.310900000000000
 11
308.8034
 21
270.819999999999990
  0
LINE
  8
PT3-Rzut14
  6
CONTINUOUS
 62
     7
 10
308.8043
 20
270.822400000000020
 11
308.1033
 21
268.946599999999990
  0
LINE
  8
PT3-Rzut14
  6
CONTINUOUS
 62
     7
 10
308.1056
 20
268.945699999999990
 11
306.792
 21
269.436900000000040
  0
LINE
  8
PT3-Rzut14
  6
CONTINUOUS
 62
     7
 10
306.792
 20
269.436900000000040
 11
307.4919
 21
271.310000000000000
  0
TEXT
  8
PT3-Opis19
  6
CONTINUOUS
 62
     7
 10
193.692700000000000
 20
167.653500000000010
 40
2.500000000000000
  1
Sala gimnastyczna
  0
TEXT
  8
PT3-Opis19
  6
CONTINUOUS
 62
     7
 10
193.692700000000000
 20
163.903500000000010
 40
2.500000000000000
  1
235.1 m2
  0
LINE
  8
PT3-Wymiarowanie20
  6
CONTINUOUS
 62
     7
 10
94.8421
 20
126.311699999999970
 11
93.3199
 21
122.236800000000020
  0
LINE
  8
PT3-Wymiarowanie20
  6
CONTINUOUS
 62
     7
 10
95.192
 20
127.248499999999980
 11
94.8421
 21
126.311699999999970
  0
LINE
  8
PT3-Wymiarowanie20
  6
CONTINUOUS
 62
     7
 10
92.97
 20
121.300000000000010
 11
93.3199
 21
122.236800000000020
  0
LINE
  8
PT3-Wymiarowanie20
  6
CONTINUOUS
 62
     7
 10
95.1355
 20
125.668400000000020
 11
94.5487
 21
126.954999999999980
  0
LINE
  8
PT3-Wymiarowanie20
  6
CONTINUOUS
 62
     7
 10
93.6133
 20
121.593500000000010
 11
93.0265
 21
122.880100000000030
  0
LINE
  8
PT3-Wymiarowanie20
  6
CONTINUOUS
 62
     7
 10
93.9053
 20
126.661600000000020
 11
95.7789
 21
125.961799999999980
  0
LINE
  8
PT3-Wymiarowanie20
  6
CONTINUOUS
 62
     7
 10
92.3831
 20
122.586700000000010
 11
94.2567
 21
121.886900000000030
  0
TEXT
  8
PT3-Wymiarowanie20
  6
CONTINUOUS
 62
     7
 10
91.206199999999995
 20
121.674800000000000
 40
2.000000000000000
 50
429.500000000000000
  1
43
  0
TEXT
  8
PT3-Wymiarowanie20
  6
CONTINUOUS
 62
     7
 10
91.426100000000005
 20
125.882700000000000
 40
1.500000000000000
 50
429.500000000000000
  1
5
  0
LINE
  8
PT3-Wymiarowanie20
  6
CONTINUOUS
 62
     7
 10
103.9404
 20
150.667800000000000
 11
94.8421
 21
126.311699999999970
  0
LINE
  8
PT3-Wymiarowanie20
  6
CONTINUOUS
 62
     7
 10
104.2903
 20
151.604600000000000
 11
103.9404
 21
150.667800000000000
  0
LINE
  8
PT3-Wymiarowanie20
  6
CONTINUOUS
 62
     7
 10
94.4922
 20
125.374900000000030
 11
94.8421
 21
126.311699999999970
  0
LINE
  8
PT3-Wymiarowanie20
  6
CONTINUOUS
 62
     7
 10
104.2338
 20
150.024499999999990
 11
103.647
 21
151.311100000000010
  0
LINE
  8
PT3-Wymiarowanie20
  6
CONTINUOUS
 62
     7
 10
95.1355
 20
125.668400000000020
 11
94.5487
 21
126.954999999999980
  0
LINE
  8
PT3-Wymiarowanie20
  6
CONTINUOUS
 62
     7
 10
103.0036
 20
151.017699999999990
 11
104.8772
 21
150.317900000000010
  0
LINE
  8
PT3-Wymiarowanie20
  6
CONTINUOUS
 62
     7
 10
93.9053
 20
126.661600000000020
 11
95.7789
 21
125.961799999999980
  0
TEXT
  8
PT3-Wymiarowanie20
  6
CONTINUOUS
 62
     7
 10
96.022599999999997
 20
134.568400000000000
 40
2.000000000000000
 50
429.500000000000000
  1
2,60
  0
LINE
  8
PT3-Wymiarowanie20
  6
CONTINUOUS
 62
     7
 10
105.3401
 20
154.414999999999990
 11
103.9404
 21
150.667900000000000
  0
LINE
  8
PT3-Wymiarowanie20
  6
CONTINUOUS
 62
     7
 10
105.69
 20
155.351800000000000
 11
105.3401
 21
154.414999999999990
  0
LINE
  8
PT3-Wymiarowanie20
  6
CONTINUOUS
 62
     7
 10
103.5905
 20
149.731100000000000
 11
103.9404
 21
150.667900000000000
  0
LINE
  8
PT3-Wymiarowanie20
  6
CONTINUOUS
 62
     7
 10
105.6335
 20
153.771700000000010
 11
105.0467
 21
155.058200000000000
  0
LINE
  8
PT3-Wymiarowanie20
  6
CONTINUOUS
 62
     7
 10
104.2338
 20
150.024599999999990
 11
103.647
 21
151.311100000000010
  0
LINE
  8
PT3-Wymiarowanie20
  6
CONTINUOUS
 62
     7
 10
104.4033
 20
154.764900000000010
 11
106.2769
 21
154.065100000000000
  0
LINE
  8
PT3-Wymiarowanie20
  6
CONTINUOUS
 62
     7
 10
103.0036
 20
151.017799999999990
 11
104.8772
 21
150.318000000000010
  0
TEXT
  8
PT3-Wymiarowanie20
  6
CONTINUOUS
 62
     7
 10
101.765400000000000
 20
149.941900000000000
 40
2.000000000000000
 50
429.500000000000000
  1
40
  0
LINE
  8
PT3-Wymiarowanie20
  6
CONTINUOUS
 62
     7
 10
114.4384
 20
178.771099999999990
 11
105.3401
 21
154.414899999999990
  0
LINE
  8
PT3-Wymiarowanie20
  6
CONTINUOUS
 62
     7
 10
114.7883
 20
179.707900000000000
 11
114.4384
 21
178.771099999999990
  0
LINE
  8
PT3-Wymiarowanie20
  6
CONTINUOUS
 62
     7
 10
104.9902
 20
153.478100000000010
 11
105.3401
 21
154.414899999999990
  0
LINE
  8
PT3-Wymiarowanie20
  6
CONTINUOUS
 62
     7
 10
114.7318
 20
178.127800000000010
 11
114.145
 21
179.414400000000000
  0
LINE
  8
PT3-Wymiarowanie20
  6
CONTINUOUS
 62
     7
 10
105.6335
 20
153.771600000000010
 11
105.0467
 21
155.058200000000000
  0
LINE
  8
PT3-Wymiarowanie20
  6
CONTINUOUS
 62
     7
 10
113.5016
 20
179.121000000000010
 11
115.3752
 21
178.421200000000000
  0
LINE
  8
PT3-Wymiarowanie20
  6
CONTINUOUS
 62
     7
 10
104.4033
 20
154.764800000000010
 11
106.2769
 21
154.065000000000000
  0
TEXT
  8
PT3-Wymiarowanie20
  6
CONTINUOUS
 62
     7
 10
106.520600000000000
 20
162.671699999999990
 40
2.000000000000000
 50
429.500000000000000
  1
2,60
  0
LINE
  8
PT3-Wymiarowanie20
  6
CONTINUOUS
 62
     7
 10
115.8381
 20
182.518100000000000
 11
114.4384
 21
178.770999999999990
  0
LINE
  8
PT3-Wymiarowanie20
  6
CONTINUOUS
 62
     7
 10
116.188
 20
183.454900000000010
 11
115.8381
 21
182.518100000000000
  0
LINE
  8
PT3-Wymiarowanie20
  6
CONTINUOUS
 62
     7
 10
114.0885
 20
177.834200000000010
 11
114.4384
 21
178.770999999999990
  0
LINE
  8
PT3-Wymiarowanie20
  6
CONTINUOUS
 62
     7
 10
116.1315
 20
181.874799999999990
 11
115.5447
 21
183.161300000000010
  0
LINE
  8
PT3-Wymiarowanie20
  6
CONTINUOUS
 62
     7
 10
114.7318
 20
178.127700000000000
 11
114.145
 21
179.414199999999990
  0
LINE
  8
PT3-Wymiarowanie20
  6
CONTINUOUS
 62
     7
 10
114.9013
 20
182.867999999999990
 11
116.7749
 21
182.168200000000010
  0
LINE
  8
PT3-Wymiarowanie20
  6
CONTINUOUS
 62
     7
 10
113.5016
 20
179.120900000000010
 11
115.3752
 21
178.421100000000000
  0
TEXT
  8
PT3-Wymiarowanie20
  6
CONTINUOUS
 62
     7
 10
112.263400000000000
 20
178.045099999999990
 40
2.000000000000000
 50
429.500000000000000
  1
40
  0
LINE
  8
PT3-Wymiarowanie20
  6
CONTINUOUS
 62
     7
 10
124.9364
 20
206.874300000000010
 11
115.8381
 21
182.518200000000010
  0
LINE
  8
PT3-Wymiarowanie20
  6
CONTINUOUS
 62
     7
 10
125.2863
 20
207.811100000000010
 11
124.9364
 21
206.874300000000010
  0
LINE
  8
PT3-Wymiarowanie20
  6
CONTINUOUS
 62
     7
 10
115.4882
 20
181.581400000000000
 11
115.8381
 21
182.518200000000010
  0
LINE
  8
PT3-Wymiarowanie20
  6
CONTINUOUS
 62
     7
 10
125.2298
 20
206.230999999999990
 11
124.643
 21
207.517599999999990
  0
LINE
  8
PT3-Wymiarowanie20
  6
CONTINUOUS
 62
     7
 10
116.1315
 20
181.874900000000000
 11
115.5447
 21
183.161499999999990
  0
LINE
  8
PT3-Wymiarowanie20
  6
CONTINUOUS
 62
     7
 10
123.9996
 20
207.224200000000000
 11
125.8732
 21
206.524400000000010
  0
LINE
  8
PT3-Wymiarowanie20
  6
CONTINUOUS
 62
     7
 10
114.9013
 20
182.868100000000000
 11
116.7749
 21
182.168299999999990
  0
TEXT
  8
PT3-Wymiarowanie20
  6
CONTINUOUS
 62
     7
 10
117.018600000000010
 20
190.774900000000000
 40
2.000000000000000
 50
429.500000000000000
  1
2,60
  0
LINE
  8
PT3-Wymiarowanie20
  6
CONTINUOUS
 62
     7
 10
126.3361
 20
210.621399999999990
 11
124.9364
 21
206.874300000000010
  0
LINE
  8
PT3-Wymiarowanie20
  6
CONTINUOUS
 62
     7
 10
126.686
 20
211.558200000000000
 11
126.3361
 21
210.621399999999990
  0
LINE
  8
PT3-Wymiarowanie20
  6
CONTINUOUS
 62
     7
 10
124.5865
 20
205.937500000000000
 11
124.9364
 21
206.874300000000010
  0
LINE
  8
PT3-Wymiarowanie20
  6
CONTINUOUS
 62
     7
 10
126.6295
 20
209.978100000000010
 11
126.0427
 21
211.264600000000000
  0
LINE
  8
PT3-Wymiarowanie20
  6
CONTINUOUS
 62
     7
 10
125.2298
 20
206.230999999999990
 11
124.643
 21
207.517500000000010
  0
LINE
  8
PT3-Wymiarowanie20
  6
CONTINUOUS
 62
     7
 10
125.3993
 20
210.971300000000010
 11
127.2729
 21
210.271500000000000
  0
LINE
  8
PT3-Wymiarowanie20
  6
CONTINUOUS
 62
     7
 10
123.9996
 20
207.224200000000000
 11
125.8732
 21
206.524400000000010
  0
TEXT
  8
PT3-Wymiarowanie20
  6
CONTINUOUS
 62
     7
 10
122.761399999999990
 20
206.148400000000010
 40
2.000000000000000
 50
429.500000000000000
  1
40
  0
LINE
  8
PT3-Wymiarowanie20
  6
CONTINUOUS
 62
     7
 10
135.4344
 20
234.977499999999990
 11
126.3361
 21
210.621399999999990
  0
LINE
  8
PT3-Wymiarowanie20
  6
CONTINUOUS
 62
     7
 10
135.7843
 20
235.914300000000000
 11
135.4344
 21
234.977499999999990
  0
LINE
  8
PT3-Wymiarowanie20
  6
CONTINUOUS
 62
     7
 10
125.9862
 20
209.684599999999990
 11
126.3361
 21
210.621399999999990
  0
LINE
  8
PT3-Wymiarowanie20
  6
CONTINUOUS
 62
     7
 10
135.7278
 20
234.334200000000010
 11
135.141
 21
235.620800000000000
  0
LINE
  8
PT3-Wymiarowanie20
  6
CONTINUOUS
 62
     7
 10
126.6295
 20
209.978100000000010
 11
126.0427
 21
211.264700000000000
  0
LINE
  8
PT3-Wymiarowanie20
  6
CONTINUOUS
 62
     7
 10
134.4976
 20
235.327400000000010
 11
136.3712
 21
234.627600000000000
  0
LINE
  8
PT3-Wymiarowanie20
  6
CONTINUOUS
 62
     7
 10
125.3993
 20
210.971300000000010
 11
127.2729
 21
210.271500000000000
  0
TEXT
  8
PT3-Wymiarowanie20
  6
CONTINUOUS
 62
     7
 10
127.516600000000000
 20
218.878099999999990
 40
2.000000000000000
 50
429.500000000000000
  1
2,60
  0
LINE
  8
PT3-Wymiarowanie20
  6
CONTINUOUS
 62
     7
 10
136.8341
 20
238.724600000000010
 11
135.4344
 21
234.977600000000000
  0
LINE
  8
PT3-Wymiarowanie20
  6
CONTINUOUS
 62
     7
 10
137.184
 20
239.661399999999990
 11
136.8341
 21
238.724600000000010
  0
LINE
  8
PT3-Wymiarowanie20
  6
CONTINUOUS
 62
     7
 10
135.0845
 20
234.040799999999990
 11
135.4344
 21
234.977600000000000
  0
LINE
  8
PT3-Wymiarowanie20
  6
CONTINUOUS
 62
     7
 10
137.1275
 20
238.081300000000000
 11
136.5407
 21
239.367899999999990
  0
LINE
  8
PT3-Wymiarowanie20
  6
CONTINUOUS
 62
     7
 10
135.7278
 20
234.334300000000010
 11
135.141
 21
235.620900000000010
  0
LINE
  8
PT3-Wymiarowanie20
  6
CONTINUOUS
 62
     7
 10
135.8973
 20
239.074500000000000
 11
137.7709
 21
238.374699999999990
  0
LINE
  8
PT3-Wymiarowanie20
  6
CONTINUOUS
 62
     7
 10
134.4976
 20
235.327499999999990
 11
136.3712
 21
234.627700000000000
  0
TEXT
  8
PT3-Wymiarowanie20
  6
CONTINUOUS
 62
     7
 10
133.259400000000000
 20
234.251700000000000
 40
2.000000000000000
 50
429.500000000000000
  1
40
  0
LINE
  8
PT3-Wymiarowanie20
  6
CONTINUOUS
 62
     7
 10
145.9324
 20
263.080699999999980
 11
136.8341
 21
238.724600000000010
  0
LINE
  8
PT3-Wymiarowanie20
  6
CONTINUOUS
 62
     7
 10
146.2823
 20
264.017500000000040
 11
145.9324
 21
263.080699999999980
  0
LINE
  8
PT3-Wymiarowanie20
  6
CONTINUOUS
 62
     7
 10
136.4842
 20
237.787800000000000
 11
136.8341
 21
238.724600000000010
  0
LINE
  8
PT3-Wymiarowanie20
  6
CONTINUOUS
 62
     7
 10
146.2258
 20
262.437400000000030
 11
145.639
 21
263.723999999999990
  0
LINE
  8
PT3-Wymiarowanie20
  6
CONTINUOUS
 62
     7
 10
137.1275
 20
238.081300000000000
 11
136.5407
 21
239.367899999999990
  0
LINE
  8
PT3-Wymiarowanie20
  6
CONTINUOUS
 62
     7
 10
144.9956
 20
263.430600000000030
 11
146.8692
 21
262.730799999999990
  0
LINE
  8
PT3-Wymiarowanie20
  6
CONTINUOUS
 62
     7
 10
135.8973
 20
239.074500000000000
 11
137.7709
 21
238.374699999999990
  0
TEXT
  8
PT3-Wymiarowanie20
  6
CONTINUOUS
 62
     7
 10
138.014600000000000
 20
246.981300000000000
 40
2.000000000000000
 50
429.500000000000000
  1
2,60
  0
LINE
  8
PT3-Wymiarowanie20
  6
CONTINUOUS
 62
     7
 10
147.3321
 20
266.827900000000000
 11
145.9324
 21
263.080699999999980
  0
LINE
  8
PT3-Wymiarowanie20
  6
CONTINUOUS
 62
     7
 10
147.682
 20
267.764700000000000
 11
147.3321
 21
266.827900000000000
  0
LINE
  8
PT3-Wymiarowanie20
  6
CONTINUOUS
 62
     7
 10
145.5825
 20
262.143900000000030
 11
145.9324
 21
263.080699999999980
  0
LINE
  8
PT3-Wymiarowanie20
  6
CONTINUOUS
 62
     7
 10
147.6255
 20
266.184599999999990
 11
147.0387
 21
267.471099999999980
  0
LINE
  8
PT3-Wymiarowanie20
  6
CONTINUOUS
 62
     7
 10
146.2258
 20
262.437400000000030
 11
145.639
 21
263.723899999999960
  0
LINE
  8
PT3-Wymiarowanie20
  6
CONTINUOUS
 62
     7
 10
146.3953
 20
267.177799999999990
 11
148.2689
 21
266.478000000000010
  0
LINE
  8
PT3-Wymiarowanie20
  6
CONTINUOUS
 62
     7
 10
144.9956
 20
263.430600000000030
 11
146.8692
 21
262.730799999999990
  0
TEXT
  8
PT3-Wymiarowanie20
  6
CONTINUOUS
 62
     7
 10
143.757399999999990
 20
262.354800000000010
 40
2.000000000000000
 50
429.500000000000000
  1
40
  0
LINE
  8
PT3-Wymiarowanie20
  6
CONTINUOUS
 62
     7
 10
156.4304
 20
291.183999999999970
 11
147.3321
 21
266.827900000000000
  0
LINE
  8
PT3-Wymiarowanie20
  6
CONTINUOUS
 62
     7
 10
156.7803
 20
292.120800000000030
 11
156.4304
 21
291.183999999999970
  0
LINE
  8
PT3-Wymiarowanie20
  6
CONTINUOUS
 62
     7
 10
146.9822
 20
265.891099999999990
 11
147.3321
 21
266.827900000000000
  0
LINE
  8
PT3-Wymiarowanie20
  6
CONTINUOUS
 62
     7
 10
156.7238
 20
290.540700000000020
 11
156.137
 21
291.827299999999980
  0
LINE
  8
PT3-Wymiarowanie20
  6
CONTINUOUS
 62
     7
 10
147.6255
 20
266.184599999999990
 11
147.0387
 21
267.471200000000010
  0
LINE
  8
PT3-Wymiarowanie20
  6
CONTINUOUS
 62
     7
 10
155.4936
 20
291.533900000000020
 11
157.3672
 21
290.834100000000030
  0
LINE
  8
PT3-Wymiarowanie20
  6
CONTINUOUS
 62
     7
 10
146.3953
 20
267.177799999999990
 11
148.2689
 21
266.478000000000010
  0
TEXT
  8
PT3-Wymiarowanie20
  6
CONTINUOUS
 62
     7
 10
148.512599999999990
 20
275.084600000000020
 40
2.000000000000000
 50
429.500000000000000
  1
2,60
  0
LINE
  8
PT3-Wymiarowanie20
  6
CONTINUOUS
 62
     7
 10
157.8301
 20
294.930999999999980
 11
156.4304
 21
291.183999999999970
  0
LINE
  8
PT3-Wymiarowanie20
  6
CONTINUOUS
 62
     7
 10
158.18
 20
295.867799999999990
 11
157.8301
 21
294.930999999999980
  0
LINE
  8
PT3-Wymiarowanie20
  6
CONTINUOUS
 62
     7
 10
156.0805
 20
290.247200000000020
 11
156.4304
 21
291.183999999999970
  0
LINE
  8
PT3-Wymiarowanie20
  6
CONTINUOUS
 62
     7
 10
158.1235
 20
294.287699999999970
 11
157.5367
 21
295.574299999999990
  0
LINE
  8
PT3-Wymiarowanie20
  6
CONTINUOUS
 62
     7
 10
156.7238
 20
290.540700000000020
 11
156.137
 21
291.827299999999980
  0
LINE
  8
PT3-Wymiarowanie20
  6
CONTINUOUS
 62
     7
 10
156.8933
 20
295.280899999999970
 11
158.7669
 21
294.581099999999990
  0
LINE
  8
PT3-Wymiarowanie20
  6
CONTINUOUS
 62
     7
 10
155.4936
 20
291.533900000000020
 11
157.3672
 21
290.834100000000030
  0
TEXT
  8
PT3-Wymiarowanie20
  6
CONTINUOUS
 62
     7
 10
154.255400000000010
 20
290.458100000000000
 40
2.000000000000000
 50
429.500000000000000
  1
40
  0
LINE
  8
PT3-Wymiarowanie20
  6
CONTINUOUS
 62
     7
 10
166.9284
 20
319.287199999999980
 11
157.8301
 21
294.931100000000010
  0
LINE
  8
PT3-Wymiarowanie20
  6
CONTINUOUS
 62
     7
 10
167.2783
 20
320.223999999999990
 11
166.9284
 21
319.287199999999980
  0
LINE
  8
PT3-Wymiarowanie20
  6
CONTINUOUS
 62
     7
 10
157.4802
 20
293.994300000000010
 11
157.8301
 21
294.931100000000010
  0
LINE
  8
PT3-Wymiarowanie20
  6
CONTINUOUS
 62
     7
 10
167.2218
 20
318.643900000000030
 11
166.635
 21
319.930499999999990
  0
LINE
  8
PT3-Wymiarowanie20
  6
CONTINUOUS
 62
     7
 10
158.1235
 20
294.287800000000000
 11
157.5367
 21
295.574399999999970
  0
LINE
  8
PT3-Wymiarowanie20
  6
CONTINUOUS
 62
     7
 10
165.9916
 20
319.637100000000030
 11
167.8652
 21
318.937299999999990
  0
LINE
  8
PT3-Wymiarowanie20
  6
CONTINUOUS
 62
     7
 10
156.8933
 20
295.281000000000010
 11
158.7669
 21
294.581199999999970
  0
TEXT
  8
PT3-Wymiarowanie20
  6
CONTINUOUS
 62
     7
 10
159.010600000000010
 20
303.187799999999980
 40
2.000000000000000
 50
429.500000000000000
  1
2,60
  0
LINE
  8
PT3-Wymiarowanie20
  6
CONTINUOUS
 62
     7
 10
168.8031
 20
324.305700000000000
 11
166.9284
 21
319.287100000000010
  0
LINE
  8
PT3-Wymiarowanie20
  6
CONTINUOUS
 62
     7
 10
169.153
 20
325.242500000000010
 11
168.8031
 21
324.305700000000000
  0
LINE
  8
PT3-Wymiarowanie20
  6
CONTINUOUS
 62
     7
 10
166.5785
 20
318.350300000000000
 11
166.9284
 21
319.287100000000010
  0
LINE
  8
PT3-Wymiarowanie20
  6
CONTINUOUS
 62
     7
 10
169.0965
 20
323.662399999999990
 11
168.5097
 21
324.949000000000010
  0
LINE
  8
PT3-Wymiarowanie20
  6
CONTINUOUS
 62
     7
 10
167.2218
 20
318.643800000000000
 11
166.635
 21
319.930400000000020
  0
LINE
  8
PT3-Wymiarowanie20
  6
CONTINUOUS
 62
     7
 10
167.8663
 20
324.655599999999990
 11
169.7399
 21
323.955800000000010
  0
LINE
  8
PT3-Wymiarowanie20
  6
CONTINUOUS
 62
     7
 10
165.9916
 20
319.637000000000000
 11
167.8652
 21
318.937200000000020
  0
TEXT
  8
PT3-Wymiarowanie20
  6
CONTINUOUS
 62
     7
 10
164.990900000000010
 20
319.197000000000000
 40
2.000000000000000
 50
429.500000000000000
  1
53
  0
TEXT
  8
PT3-Wymiarowanie20
  6
CONTINUOUS
 62
     7
 10
165.210700000000000
 20
323.404900000000000
 40
1.500000000000000
 50
429.500000000000000
  1
5
  0
LINE
  8
PT3-Wymiarowanie20
  6
CONTINUOUS
 62
     7
 10
181.8384
 20
359.271500000000000
 11
168.8673
 21
324.299399999999990
  0
LINE
  8
PT3-Wymiarowanie20
  6
CONTINUOUS
 62
     7
 10
182.1861
 20
360.209099999999980
 11
181.8384
 21
359.271500000000000
  0
LINE
  8
PT3-Wymiarowanie20
  6
CONTINUOUS
 62
     7
 10
168.5195
 20
323.361800000000020
 11
168.8673
 21
324.299399999999990
  0
LINE
  8
PT3-Wymiarowanie20
  6
CONTINUOUS
 62
     7
 10
182.1333
 20
358.628899999999990
 11
181.5435
 21
359.914100000000020
  0
LINE
  8
PT3-Wymiarowanie20
  6
CONTINUOUS
 62
     7
 10
169.1622
 20
323.656799999999980
 11
168.5724
 21
324.942000000000010
  0
LINE
  8
PT3-Wymiarowanie20
  6
CONTINUOUS
 62
     7
 10
180.9008
 20
359.619199999999980
 11
182.776
 21
358.923700000000000
  0
LINE
  8
PT3-Wymiarowanie20
  6
CONTINUOUS
 62
     7
 10
167.9297
 20
324.647100000000020
 11
169.8049
 21
323.951599999999980
  0
TEXT
  8
PT3-Wymiarowanie20
  6
CONTINUOUS
 62
     7
 10
171.990000000000010
 20
337.852300000000010
 40
2.000000000000000
 50
429.699999999999990
  1
3,73
  0
LINE
  8
PT3-Wymiarowanie20
  6
CONTINUOUS
 62
     7
 10
163.2158
 20
326.494800000000000
 11
161.816
 21
322.747399999999970
  0
LINE
  8
PT3-Wymiarowanie20
  6
CONTINUOUS
 62
     7
 10
163.5657
 20
327.431600000000000
 11
163.2158
 21
326.494800000000000
  0
LINE
  8
PT3-Wymiarowanie20
  6
CONTINUOUS
 62
     7
 10
161.4661
 20
321.810600000000020
 11
161.816
 21
322.747399999999970
  0
LINE
  8
PT3-Wymiarowanie20
  6
CONTINUOUS
 62
     7
 10
163.5092
 20
325.851499999999990
 11
162.9224
 21
327.138000000000030
  0
LINE
  8
PT3-Wymiarowanie20
  6
CONTINUOUS
 62
     7
 10
162.1094
 20
322.104100000000020
 11
161.5226
 21
323.390600000000010
  0
LINE
  8
PT3-Wymiarowanie20
  6
CONTINUOUS
 62
     7
 10
162.279
 20
326.844699999999990
 11
164.1526
 21
326.144900000000010
  0
LINE
  8
PT3-Wymiarowanie20
  6
CONTINUOUS
 62
     7
 10
160.8792
 20
323.097300000000020
 11
162.7528
 21
322.397499999999980
  0
TEXT
  8
PT3-Wymiarowanie20
  6
CONTINUOUS
 62
     7
 10
159.640999999999990
 20
322.021700000000010
 40
2.000000000000000
 50
429.500000000000000
  1
40
  0
LINE
  8
PT3-Wymiarowanie20
  6
CONTINUOUS
 62
     7
 10
89.099
 20
128.083500000000020
 11
161.8162
 21
322.747399999999970
  0
LINE
  8
PT3-Wymiarowanie20
  6
CONTINUOUS
 62
     7
 10
88.7491
 20
127.146700000000010
 11
89.099
 21
128.083500000000020
  0
LINE
  8
PT3-Wymiarowanie20
  6
CONTINUOUS
 62
     7
 10
162.1661
 20
323.684200000000030
 11
161.8162
 21
322.747399999999970
  0
LINE
  8
PT3-Wymiarowanie20
  6
CONTINUOUS
 62
     7
 10
88.8056
 20
128.726800000000030
 11
89.3924
 21
127.440200000000000
  0
LINE
  8
PT3-Wymiarowanie20
  6
CONTINUOUS
 62
     7
 10
161.5228
 20
323.390699999999980
 11
162.1096
 21
322.104100000000020
  0
LINE
  8
PT3-Wymiarowanie20
  6
CONTINUOUS
 62
     7
 10
88.1622
 20
128.433400000000010
 11
90.0358
 21
127.733600000000020
  0
LINE
  8
PT3-Wymiarowanie20
  6
CONTINUOUS
 62
     7
 10
160.8794
 20
323.097300000000020
 11
162.753
 21
322.397499999999980
  0
TEXT
  8
PT3-Wymiarowanie20
  6
CONTINUOUS
 62
     7
 10
121.780300000000000
 20
222.947900000000000
 40
2.000000000000000
 50
69.500000000000000
  1
20,78
  0
LINE
  8
PT3-Wymiarowanie20
  6
CONTINUOUS
 62
     7
 10
87.6993
 20
124.336400000000030
 11
89.099
 21
128.083500000000020
  0
LINE
  8
PT3-Wymiarowanie20
  6
CONTINUOUS
 62
     7
 10
87.3494
 20
123.399600000000020
 11
87.6993
 21
124.336400000000030
  0
LINE
  8
PT3-Wymiarowanie20
  6
CONTINUOUS
 62
     7
 10
89.4489
 20
129.020300000000020
 11
89.099
 21
128.083500000000020
  0
LINE
  8
PT3-Wymiarowanie20
  6
CONTINUOUS
 62
     7
 10
87.4059
 20
124.979600000000000
 11
87.9927
 21
123.693100000000020
  0
LINE
  8
PT3-Wymiarowanie20
  6
CONTINUOUS
 62
     7
 10
88.8056
 20
128.726699999999990
 11
89.3924
 21
127.440200000000000
  0
LINE
  8
PT3-Wymiarowanie20
  6
CONTINUOUS
 62
     7
 10
86.7625
 20
124.686300000000020
 11
88.6361
 21
123.986499999999980
  0
LINE
  8
PT3-Wymiarowanie20
  6
CONTINUOUS
 62
     7
 10
88.1622
 20
128.433400000000010
 11
90.0358
 21
127.733600000000020
  0
TEXT
  8
PT3-Wymiarowanie20
  6
CONTINUOUS
 62
     7
 10
85.524299999999997
 20
125.890600000000010
 40
2.000000000000000
 50
69.500000000000000
  1
40
  0
LINE
  8
PT3-Wymiarowanie20
  6
CONTINUOUS
 62
     7
 10
157.6038
 20
328.610999999999990
 11
82.0055
 21
126.483000000000000
  0
LINE
  8
PT3-Wymiarowanie20
  6
CONTINUOUS
 62
     7
 10
157.9541
 20
329.547599999999990
 11
157.6038
 21
328.610999999999990
  0
LINE
  8
PT3-Wymiarowanie20
  6
CONTINUOUS
 62
     7
 10
81.6552
 20
125.546400000000010
 11
82.0055
 21
126.483000000000000
  0
LINE
  8
PT3-Wymiarowanie20
  6
CONTINUOUS
 62
     7
 10
157.8969
 20
327.967600000000000
 11
157.3107
 21
329.254400000000030
  0
LINE
  8
PT3-Wymiarowanie20
  6
CONTINUOUS
 62
     7
 10
82.2986
 20
125.839600000000020
 11
81.7124
 21
127.126399999999990
  0
LINE
  8
PT3-Wymiarowanie20
  6
CONTINUOUS
 62
     7
 10
156.6672
 20
328.961299999999990
 11
158.5404
 21
328.260699999999990
  0
LINE
  8
PT3-Wymiarowanie20
  6
CONTINUOUS
 62
     7
 10
81.0689
 20
126.833300000000010
 11
82.9421
 21
126.132700000000000
  0
TEXT
  8
PT3-Wymiarowanie20
  6
CONTINUOUS
 62
     7
 10
116.126499999999990
 20
222.801700000000010
 40
2.000000000000000
 50
429.500000000000000
  1
21,58
  0
LINE
  8
PT3-Wymiarowanie20
  6
CONTINUOUS
 62
     7
 10
170.5749
 20
363.449200000000020
 11
157.6038
 21
328.476999999999980
  0
LINE
  8
PT3-Wymiarowanie20
  6
CONTINUOUS
 62
     7
 10
170.9226
 20
364.386799999999990
 11
170.5749
 21
363.449200000000020
  0
LINE
  8
PT3-Wymiarowanie20
  6
CONTINUOUS
 62
     7
 10
157.256
 20
327.539400000000000
 11
157.6038
 21
328.476999999999980
  0
LINE
  8
PT3-Wymiarowanie20
  6
CONTINUOUS
 62
     7
 10
170.8698
 20
362.806600000000000
 11
170.28
 21
364.091799999999980
  0
LINE
  8
PT3-Wymiarowanie20
  6
CONTINUOUS
 62
     7
 10
157.8987
 20
327.834400000000020
 11
157.3089
 21
329.119599999999990
  0
LINE
  8
PT3-Wymiarowanie20
  6
CONTINUOUS
 62
     7
 10
169.6373
 20
363.796899999999990
 11
171.5125
 21
363.101400000000010
  0
LINE
  8
PT3-Wymiarowanie20
  6
CONTINUOUS
 62
     7
 10
156.6662
 20
328.824700000000010
 11
158.5414
 21
328.129199999999970
  0
TEXT
  8
PT3-Wymiarowanie20
  6
CONTINUOUS
 62
     7
 10
160.726499999999990
 20
342.029900000000000
 40
2.000000000000000
 50
429.699999999999990
  1
3,73
  0
LINE
  8
PT3-Wymiarowanie20
  6
CONTINUOUS
 62
     7
 10
76.458
 20
128.535500000000010
 11
165.0274
 21
365.635699999999990
  0
LINE
  8
PT3-Wymiarowanie20
  6
CONTINUOUS
 62
     7
 10
76.1081
 20
127.598700000000010
 11
76.458
 21
128.535500000000010
  0
LINE
  8
PT3-Wymiarowanie20
  6
CONTINUOUS
 62
     7
 10
165.3773
 20
366.572499999999990
 11
165.0274
 21
365.635699999999990
  0
LINE
  8
PT3-Wymiarowanie20
  6
CONTINUOUS
 62
     7
 10
76.1646
 20
129.178800000000020
 11
76.7514
 21
127.892200000000000
  0
LINE
  8
PT3-Wymiarowanie20
  6
CONTINUOUS
 62
     7
 10
164.734
 20
366.279000000000000
 11
165.3208
 21
364.992399999999980
  0
LINE
  8
PT3-Wymiarowanie20
  6
CONTINUOUS
 62
     7
 10
75.5212
 20
128.885400000000000
 11
77.3948
 21
128.185600000000020
  0
LINE
  8
PT3-Wymiarowanie20
  6
CONTINUOUS
 62
     7
 10
164.0906
 20
365.985599999999980
 11
165.9642
 21
365.285799999999990
  0
TEXT
  8
PT3-Wymiarowanie20
  6
CONTINUOUS
 62
     7
 10
117.065400000000000
 20
244.618100000000000
 40
2.000000000000000
 50
69.500000000000000
  1
25,31
  0
LINE
  8
PT3-Wymiarowanie20
  6
CONTINUOUS
 62
     7
 10
175.953
 20
235.248799999999990
 11
172.206
 21
236.648799999999990
  0
LINE
  8
PT3-Wymiarowanie20
  6
CONTINUOUS
 62
     7
 10
176.8897
 20
234.898799999999990
 11
175.953
 21
235.248799999999990
  0
LINE
  8
PT3-Wymiarowanie20
  6
CONTINUOUS
 62
     7
 10
171.2692
 20
236.998799999999990
 11
172.206
 21
236.648799999999990
  0
LINE
  8
PT3-Wymiarowanie20
  6
CONTINUOUS
 62
     7
 10
175.3097
 20
234.955500000000000
 11
176.5963
 21
235.542100000000000
  0
LINE
  8
PT3-Wymiarowanie20
  6
CONTINUOUS
 62
     7
 10
171.5627
 20
236.355500000000010
 11
172.8493
 21
236.942100000000010
  0
LINE
  8
PT3-Wymiarowanie20
  6
CONTINUOUS
 62
     7
 10
176.303
 20
236.185499999999990
 11
175.603
 21
234.312000000000010
  0
LINE
  8
PT3-Wymiarowanie20
  6
CONTINUOUS
 62
     7
 10
172.556
 20
237.585500000000000
 11
171.856
 21
235.711999999999990
  0
TEXT
  8
PT3-Wymiarowanie20
  6
CONTINUOUS
 62
     7
 10
173.270199999999990
 20
239.116199999999990
 40
2.000000000000000
 50
339.500000000000000
  1
40
  0
LINE
  8
PT3-Wymiarowanie20
  6
CONTINUOUS
 62
     7
 10
281.9864
 20
195.630699999999990
 11
175.953
 21
235.248799999999990
  0
LINE
  8
PT3-Wymiarowanie20
  6
CONTINUOUS
 62
     7
 10
282.9231
 20
195.280700000000000
 11
281.9864
 21
195.630699999999990
  0
LINE
  8
PT3-Wymiarowanie20
  6
CONTINUOUS
 62
     7
 10
175.0162
 20
235.598800000000010
 11
175.953
 21
235.248799999999990
  0
LINE
  8
PT3-Wymiarowanie20
  6
CONTINUOUS
 62
     7
 10
281.3431
 20
195.337400000000000
 11
282.6297
 21
195.924000000000010
  0
LINE
  8
PT3-Wymiarowanie20
  6
CONTINUOUS
 62
     7
 10
175.3097
 20
234.955500000000000
 11
176.5963
 21
235.542100000000000
  0
LINE
  8
PT3-Wymiarowanie20
  6
CONTINUOUS
 62
     7
 10
282.3364
 20
196.567399999999990
 11
281.6364
 21
194.693900000000010
  0
LINE
  8
PT3-Wymiarowanie20
  6
CONTINUOUS
 62
     7
 10
176.303
 20
236.185499999999990
 11
175.603
 21
234.312000000000010
  0
TEXT
  8
PT3-Wymiarowanie20
  6
CONTINUOUS
 62
     7
 10
226.012400000000010
 20
219.409699999999990
 40
2.000000000000000
 50
339.500000000000000
  1
11,32
  0
LINE
  8
PT3-Wymiarowanie20
  6
CONTINUOUS
 62
     7
 10
285.7334
 20
194.230700000000010
 11
281.9864
 21
195.630699999999990
  0
LINE
  8
PT3-Wymiarowanie20
  6
CONTINUOUS
 62
     7
 10
286.6701
 20
193.880699999999990
 11
285.7334
 21
194.230700000000010
  0
LINE
  8
PT3-Wymiarowanie20
  6
CONTINUOUS
 62
     7
 10
281.0496
 20
195.980700000000010
 11
281.9864
 21
195.630699999999990
  0
LINE
  8
PT3-Wymiarowanie20
  6
CONTINUOUS
 62
     7
 10
285.0901
 20
193.937400000000000
 11
286.3767
 21
194.524000000000000
  0
LINE
  8
PT3-Wymiarowanie20
  6
CONTINUOUS
 62
     7
 10
281.3431
 20
195.337400000000000
 11
282.6297
 21
195.924000000000010
  0
LINE
  8
PT3-Wymiarowanie20
  6
CONTINUOUS
 62
     7
 10
286.0834
 20
195.167399999999990
 11
285.3834
 21
193.293900000000010
  0
LINE
  8
PT3-Wymiarowanie20
  6
CONTINUOUS
 62
     7
 10
282.3364
 20
196.567399999999990
 11
281.6364
 21
194.693900000000010
  0
TEXT
  8
PT3-Wymiarowanie20
  6
CONTINUOUS
 62
     7
 10
283.050500000000000
 20
198.098099999999990
 40
2.000000000000000
 50
339.500000000000000
  1
40
  0
LINE
  8
PT3-Wymiarowanie20
  6
CONTINUOUS
 62
     7
 10
315.0556
 20
183.274800000000000
 11
285.7334
 21
194.230700000000010
  0
LINE
  8
PT3-Wymiarowanie20
  6
CONTINUOUS
 62
     7
 10
315.9923
 20
182.924800000000000
 11
315.0556
 21
183.274800000000000
  0
LINE
  8
PT3-Wymiarowanie20
  6
CONTINUOUS
 62
     7
 10
284.7966
 20
194.580700000000010
 11
285.7334
 21
194.230700000000010
  0
LINE
  8
PT3-Wymiarowanie20
  6
CONTINUOUS
 62
     7
 10
314.4123
 20
182.981500000000010
 11
315.6989
 21
183.568099999999990
  0
LINE
  8
PT3-Wymiarowanie20
  6
CONTINUOUS
 62
     7
 10
285.0901
 20
193.937400000000000
 11
286.3767
 21
194.524000000000000
  0
LINE
  8
PT3-Wymiarowanie20
  6
CONTINUOUS
 62
     7
 10
315.4056
 20
184.211500000000000
 11
314.7056
 21
182.337999999999990
  0
LINE
  8
PT3-Wymiarowanie20
  6
CONTINUOUS
 62
     7
 10
286.0834
 20
195.167399999999990
 11
285.3834
 21
193.293900000000010
  0
TEXT
  8
PT3-Wymiarowanie20
  6
CONTINUOUS
 62
     7
 10
298.263300000000020
 20
192.413999999999990
 40
2.000000000000000
 50
339.500000000000000
  1
3,13
  0
LINE
  8
PT3-Wymiarowanie20
  6
CONTINUOUS
 62
     7
 10
318.8026
 20
181.874799999999990
 11
315.0556
 21
183.274800000000000
  0
LINE
  8
PT3-Wymiarowanie20
  6
CONTINUOUS
 62
     7
 10
319.7393
 20
181.524800000000000
 11
318.8026
 21
181.874799999999990
  0
LINE
  8
PT3-Wymiarowanie20
  6
CONTINUOUS
 62
     7
 10
314.1188
 20
183.624799999999990
 11
315.0556
 21
183.274800000000000
  0
LINE
  8
PT3-Wymiarowanie20
  6
CONTINUOUS
 62
     7
 10
318.1593
 20
181.581500000000010
 11
319.4459
 21
182.168100000000010
  0
LINE
  8
PT3-Wymiarowanie20
  6
CONTINUOUS
 62
     7
 10
314.4123
 20
182.981500000000010
 11
315.6989
 21
183.568099999999990
  0
LINE
  8
PT3-Wymiarowanie20
  6
CONTINUOUS
 62
     7
 10
319.1526
 20
182.811500000000000
 11
318.4526
 21
180.937999999999990
  0
LINE
  8
PT3-Wymiarowanie20
  6
CONTINUOUS
 62
     7
 10
315.4056
 20
184.211500000000000
 11
314.7056
 21
182.337999999999990
  0
TEXT
  8
PT3-Wymiarowanie20
  6
CONTINUOUS
 62
     7
 10
316.119800000000000
 20
185.742200000000000
 40
2.000000000000000
 50
339.500000000000000
  1
40
  0
LINE
  8
PT3-Symbole_prze22
  6
ENG_PUNKTIERT
 62
     7
 10
102.063
 20
235.647400000000000
 11
352.3521
 21
142.130000000000000
  0
POLYLINE
  8
PT3-Symbole_prze22
  6
ENG_PUNKTIERT
 62
     7
 66
     1
 70
     1
  0
VERTEX
  8
PT3-Symbole_prze22
 10
102.7631
 20
237.520900000000010
  0
VERTEX
  8
PT3-Symbole_prze22
 10
107.3259
 20
239.018599999999990
  0
VERTEX
  8
PT3-Symbole_prze22
 10
109.7887
 20
234.895900000000010
  0
SEQEND
  8
PT3-Symbole_prze22
  0
POLYLINE
  8
PT3-Symbole_prze22
  6
ENG_PUNKTIERT
 62
     7
 66
     1
 70
     1
  0
VERTEX
  8
PT3-Symbole_prze22
 10
353.0521
 20
144.003500000000000
  0
VERTEX
  8
PT3-Symbole_prze22
 10
350.5893
 20
148.126299999999990
  0
VERTEX
  8
PT3-Symbole_prze22
 10
346.0265
 20
146.628600000000010
  0
SEQEND
  8
PT3-Symbole_prze22
  0
TEXT
  8
PT3-Symbole_prze22
  6
CONTINUOUS
 62
     7
 10
347.631899999999970
 20
138.728799999999980
 40
4.044600000000000
  1
B
  0
TEXT
  8
PT3-Symbole_prze22
  6
CONTINUOUS
 62
     7
 10
100.647400000000000
 20
231.011400000000010
 40
4.044600000000000
  1
B
  0
LINE
  8
PT4-Schody26
  6
CONTINUOUS
 62
     7
 10
349.4302
 20
256.548499999999990
 11
359.9308
 21
284.647600000000010
  0
LINE
  8
PT4-Schody26
  6
CONTINUOUS
 62
     7
 10
362.966
 20
251.490199999999990
 11
373.4666
 21
279.589299999999980
  0
LINE
  8
PT4-Schody26
  6
CONTINUOUS
 62
     7
 10
356.1981
 20
254.019399999999990
 11
366.6987
 21
282.118499999999980
  0
LINE
  8
PT4-Schody26
  6
CONTINUOUS
 62
     7
 10
357.5096
 20
253.529300000000010
 11
357.5973
 21
254.068500000000000
  0
LINE
  8
PT4-Schody26
  6
CONTINUOUS
 62
     7
 10
357.5973
 20
254.068500000000000
 11
357.472
 21
254.600100000000000
  0
LINE
  8
PT4-Schody26
  6
CONTINUOUS
 62
     7
 10
357.472
 20
254.600100000000000
 11
357.1527
 21
255.043399999999990
  0
LINE
  8
PT4-Schody26
  6
CONTINUOUS
 62
     7
 10
357.1527
 20
255.043399999999990
 11
356.6882
 21
255.330800000000010
  0
LINE
  8
PT4-Schody26
  6
CONTINUOUS
 62
     7
 10
356.6882
 20
255.330800000000010
 11
356.149
 21
255.418499999999990
  0
LINE
  8
PT4-Schody26
  6
CONTINUOUS
 62
     7
 10
356.149
 20
255.418499999999990
 11
355.6173
 21
255.293200000000010
  0
LINE
  8
PT4-Schody26
  6
CONTINUOUS
 62
     7
 10
355.6173
 20
255.293200000000010
 11
355.1741
 21
254.973999999999990
  0
LINE
  8
PT4-Schody26
  6
CONTINUOUS
 62
     7
 10
355.1741
 20
254.973999999999990
 11
354.8867
 21
254.509500000000000
  0
LINE
  8
PT4-Schody26
  6
CONTINUOUS
 62
     7
 10
354.8867
 20
254.509500000000000
 11
354.799
 21
253.970300000000010
  0
LINE
  8
PT4-Schody26
  6
CONTINUOUS
 62
     7
 10
354.799
 20
253.970300000000010
 11
354.9243
 21
253.438600000000010
  0
LINE
  8
PT4-Schody26
  6
CONTINUOUS
 62
     7
 10
354.9243
 20
253.438600000000010
 11
355.2435
 21
252.995299999999990
  0
LINE
  8
PT4-Schody26
  6
CONTINUOUS
 62
     7
 10
355.2435
 20
252.995299999999990
 11
355.708
 21
252.708000000000000
  0
LINE
  8
PT4-Schody26
  6
CONTINUOUS
 62
     7
 10
355.708
 20
252.708000000000000
 11
356.2472
 21
252.620200000000010
  0
LINE
  8
PT4-Schody26
  6
CONTINUOUS
 62
     7
 10
356.2472
 20
252.620200000000010
 11
356.7789
 21
252.745499999999990
  0
LINE
  8
PT4-Schody26
  6
CONTINUOUS
 62
     7
 10
356.7789
 20
252.745499999999990
 11
357.2222
 21
253.064699999999990
  0
LINE
  8
PT4-Schody26
  6
CONTINUOUS
 62
     7
 10
357.2222
 20
253.064699999999990
 11
357.5096
 21
253.529300000000010
  0
LINE
  8
PT4-Schody26
  6
CONTINUOUS
 62
     7
 10
366.6987
 20
282.118499999999980
 11
363.2604
 21
280.058699999999990
  0
LINE
  8
PT4-Schody26
  6
CONTINUOUS
 62
     7
 10
363.2604
 20
280.058699999999990
 11
367.9435
 21
278.308600000000010
  0
LINE
  8
PT4-Schody26
  6
CONTINUOUS
 62
     7
 10
367.9435
 20
278.308600000000010
 11
366.6987
 21
282.118499999999980
  0
LINE
  8
PT4-Schody26
  6
CONTINUOUS
 62
     7
 10
349.4302
 20
256.548499999999990
 11
362.966
 21
251.490199999999990
  0
LINE
  8
PT4-Schody26
  6
CONTINUOUS
 62
     7
 10
350.597
 20
259.670600000000040
 11
364.1327
 21
254.612400000000010
  0
LINE
  8
PT4-Schody26
  6
CONTINUOUS
 62
     7
 10
351.7637
 20
262.792800000000000
 11
365.2994
 21
257.734500000000030
  0
LINE
  8
PT4-Schody26
  6
CONTINUOUS
 62
     7
 10
352.9305
 20
265.914899999999990
 11
366.4662
 21
260.856599999999960
  0
LINE
  8
PT4-Schody26
  6
CONTINUOUS
 62
     7
 10
354.0972
 20
269.037000000000030
 11
367.6329
 21
263.978700000000000
  0
LINE
  8
PT4-Schody26
  6
CONTINUOUS
 62
     7
 10
355.2639
 20
272.159099999999970
 11
368.7996
 21
267.100799999999990
  0
LINE
  8
PT4-Schody26
  6
CONTINUOUS
 62
     7
 10
356.4306
 20
275.281200000000010
 11
369.9664
 21
270.223000000000010
  0
LINE
  8
PT4-Schody26
  6
CONTINUOUS
 62
     7
 10
357.5974
 20
278.403300000000000
 11
371.1331
 21
273.345100000000000
  0
LINE
  8
PT4-Schody26
  6
CONTINUOUS
 62
     7
 10
358.7641
 20
281.525499999999970
 11
372.2998
 21
276.467199999999990
  0
LINE
  8
PT4-Schody26
  6
CONTINUOUS
 62
     7
 10
349.4302
 20
256.548499999999990
 11
363.9027
 21
251.140199999999990
  0
LINE
  8
PT4-Schody26
  6
CONTINUOUS
 62
     7
 10
359.9308
 20
284.647600000000010
 11
374.4033
 21
279.239300000000010
  0
TEXT
  8
PT4-Schody26
  6
CONTINUOUS
 62
     7
 10
356.593200000000020
 20
259.382799999999970
 40
2.000000000000000
 50
69.500000000000000
  1
10 
  0
TEXT
  8
PT4-Schody26
  6
CONTINUOUS
 62
     7
 10
356.593200000000020
 20
256.382799999999970
 40
2.000000000000000
 50
69.500000000000000
  1
Stp.15.8/33.3
  0
LINE
  8
PT4-Schody26
  6
CONTINUOUS
 62
     7
 10
387.9401
 20
274.183899999999990
 11
377.4395
 21
246.084900000000000
  0
LINE
  8
PT4-Schody26
  6
CONTINUOUS
 62
     7
 10
374.4033
 20
279.239300000000010
 11
363.9027
 21
251.140199999999990
  0
LINE
  8
PT4-Schody26
  6
CONTINUOUS
 62
     7
 10
381.1722
 20
276.713100000000000
 11
370.6717
 21
248.614000000000000
  0
LINE
  8
PT4-Schody26
  6
CONTINUOUS
 62
     7
 10
379.8608
 20
277.203100000000010
 11
379.7731
 21
276.663999999999990
  0
LINE
  8
PT4-Schody26
  6
CONTINUOUS
 62
     7
 10
379.7731
 20
276.663999999999990
 11
379.8984
 21
276.132299999999990
  0
LINE
  8
PT4-Schody26
  6
CONTINUOUS
 62
     7
 10
379.8984
 20
276.132299999999990
 11
380.2176
 21
275.688999999999960
  0
LINE
  8
PT4-Schody26
  6
CONTINUOUS
 62
     7
 10
380.2176
 20
275.688999999999960
 11
380.6822
 21
275.401700000000010
  0
LINE
  8
PT4-Schody26
  6
CONTINUOUS
 62
     7
 10
380.6822
 20
275.401700000000010
 11
381.2213
 21
275.313899999999990
  0
LINE
  8
PT4-Schody26
  6
CONTINUOUS
 62
     7
 10
381.2213
 20
275.313899999999990
 11
381.753
 21
275.439200000000030
  0
LINE
  8
PT4-Schody26
  6
CONTINUOUS
 62
     7
 10
381.753
 20
275.439200000000030
 11
382.1963
 21
275.758399999999990
  0
LINE
  8
PT4-Schody26
  6
CONTINUOUS
 62
     7
 10
382.1963
 20
275.758399999999990
 11
382.4837
 21
276.223000000000010
  0
LINE
  8
PT4-Schody26
  6
CONTINUOUS
 62
     7
 10
382.4837
 20
276.223000000000010
 11
382.5714
 21
276.762200000000010
  0
LINE
  8
PT4-Schody26
  6
CONTINUOUS
 62
     7
 10
382.5714
 20
276.762200000000010
 11
382.4461
 21
277.293900000000010
  0
LINE
  8
PT4-Schody26
  6
CONTINUOUS
 62
     7
 10
382.4461
 20
277.293900000000010
 11
382.1269
 21
277.737100000000000
  0
LINE
  8
PT4-Schody26
  6
CONTINUOUS
 62
     7
 10
382.1269
 20
277.737100000000000
 11
381.6623
 21
278.024499999999990
  0
LINE
  8
PT4-Schody26
  6
CONTINUOUS
 62
     7
 10
381.6623
 20
278.024499999999990
 11
381.1232
 21
278.112200000000030
  0
LINE
  8
PT4-Schody26
  6
CONTINUOUS
 62
     7
 10
381.1232
 20
278.112200000000030
 11
380.5915
 21
277.986899999999990
  0
LINE
  8
PT4-Schody26
  6
CONTINUOUS
 62
     7
 10
380.5915
 20
277.986899999999990
 11
380.1482
 21
277.667699999999970
  0
LINE
  8
PT4-Schody26
  6
CONTINUOUS
 62
     7
 10
380.1482
 20
277.667699999999970
 11
379.8608
 21
277.203100000000010
  0
LINE
  8
PT4-Schody26
  6
CONTINUOUS
 62
     7
 10
370.6717
 20
248.614000000000000
 11
374.11
 21
250.673700000000000
  0
LINE
  8
PT4-Schody26
  6
CONTINUOUS
 62
     7
 10
374.11
 20
250.673700000000000
 11
369.4268
 21
252.423800000000000
  0
LINE
  8
PT4-Schody26
  6
CONTINUOUS
 62
     7
 10
369.4268
 20
252.423800000000000
 11
370.6717
 21
248.614000000000000
  0
LINE
  8
PT4-Schody26
  6
CONTINUOUS
 62
     7
 10
387.9401
 20
274.183899999999990
 11
374.4044
 21
279.242200000000030
  0
LINE
  8
PT4-Schody26
  6
CONTINUOUS
 62
     7
 10
386.7734
 20
271.061800000000010
 11
373.2376
 21
276.120099999999980
  0
LINE
  8
PT4-Schody26
  6
CONTINUOUS
 62
     7
 10
385.6067
 20
267.939700000000020
 11
372.0709
 21
272.997999999999990
  0
LINE
  8
PT4-Schody26
  6
CONTINUOUS
 62
     7
 10
384.4399
 20
264.817599999999970
 11
370.9042
 21
269.875900000000000
  0
LINE
  8
PT4-Schody26
  6
CONTINUOUS
 62
     7
 10
383.2732
 20
261.695500000000040
 11
369.7375
 21
266.753699999999980
  0
LINE
  8
PT4-Schody26
  6
CONTINUOUS
 62
     7
 10
382.1065
 20
258.573399999999990
 11
368.5707
 21
263.631599999999990
  0
LINE
  8
PT4-Schody26
  6
CONTINUOUS
 62
     7
 10
380.9398
 20
255.451200000000000
 11
367.404
 21
260.509500000000000
  0
LINE
  8
PT4-Schody26
  6
CONTINUOUS
 62
     7
 10
379.773
 20
252.329100000000010
 11
366.2373
 21
257.387400000000010
  0
LINE
  8
PT4-Schody26
  6
CONTINUOUS
 62
     7
 10
378.6063
 20
249.206999999999990
 11
365.0706
 21
254.265300000000000
  0
LINE
  8
PT4-Schody26
  6
CONTINUOUS
 62
     7
 10
387.9401
 20
274.183899999999990
 11
374.4044
 21
279.242200000000030
  0
LINE
  8
PT4-Schody26
  6
CONTINUOUS
 62
     7
 10
377.4395
 20
246.084900000000000
 11
363.9038
 21
251.143100000000000
  0
LINE
  8
PT5-Rzut27
  6
CONTINUOUS
 62
     7
 10
241.6015
 20
66.845700000000022
 11
243.0013
 21
70.592800000000011
  0
LINE
  8
PT5-Rzut27
  6
CONTINUOUS
 62
     7
 10
265.0209
 20
58.097300000000018
 11
266.4206
 21
61.844400000000007
  0
LINE
  8
PT5-Rzut27
  6
CONTINUOUS
 62
     7
 10
241.6015
 20
66.845700000000022
 11
243.0013
 21
70.592800000000011
  0
LINE
  8
PT5-Rzut27
  6
CONTINUOUS
 62
     7
 10
265.0209
 20
58.097300000000018
 11
266.4206
 21
61.844400000000007
  0
LINE
  8
PT5-Rzut27
  6
CONTINUOUS
 62
     7
 10
273.5299
 20
60.727300000000014
 11
269.783
 21
62.127499999999998
  0
LINE
  8
PT5-Rzut27
  6
CONTINUOUS
 62
     7
 10
277.3806
 20
71.031299999999987
 11
273.6336
 21
72.431500000000028
  0
LINE
  8
PT5-Rzut27
  6
CONTINUOUS
 62
     7
 10
278.7808
 20
74.778200000000027
 11
275.0338
 21
76.178499999999985
  0
LINE
  8
PT5-Rzut27
  6
CONTINUOUS
 62
     7
 10
282.6313
 20
85.082299999999975
 11
278.8844
 21
86.482500000000016
  0
LINE
  8
PT5-Rzut27
  6
CONTINUOUS
 62
     7
 10
284.0316
 20
88.829200000000014
 11
280.2847
 21
90.229399999999998
  0
LINE
  8
PT5-Rzut27
  6
CONTINUOUS
 62
     7
 10
287.8822
 20
99.133199999999988
 11
284.1353
 21
100.533399999999970
  0
LINE
  8
PT5-Rzut27
  6
CONTINUOUS
 62
     7
 10
289.2824
 20
102.880100000000030
 11
285.5355
 21
104.280399999999990
  0
LINE
  8
PT5-Rzut27
  6
CONTINUOUS
 62
     7
 10
293.133
 20
113.184199999999980
 11
289.3861
 21
114.584400000000020
  0
LINE
  8
PT5-Rzut27
  6
CONTINUOUS
 62
     7
 10
294.5332
 20
116.931100000000010
 11
290.7863
 21
118.331300000000000
  0
LINE
  8
PT5-Rzut27
  6
CONTINUOUS
 62
     7
 10
298.3838
 20
127.235099999999990
 11
294.6369
 21
128.635299999999970
  0
LINE
  8
PT5-Rzut27
  6
CONTINUOUS
 62
     7
 10
299.784
 20
130.982000000000030
 11
296.0371
 21
132.382200000000010
  0
LINE
  8
PT5-Rzut27
  6
CONTINUOUS
 62
     7
 10
303.6346
 20
141.286000000000000
 11
299.8877
 21
142.686199999999990
  0
LINE
  8
PT5-Rzut27
  6
CONTINUOUS
 62
     7
 10
305.0348
 20
145.032999999999990
 11
301.2879
 21
146.433200000000000
  0
LINE
  8
PT5-Rzut27
  6
CONTINUOUS
 62
     7
 10
308.8854
 20
155.336999999999990
 11
305.1385
 21
156.737200000000000
  0
LINE
  8
PT5-Rzut27
  6
CONTINUOUS
 62
     7
 10
310.2856
 20
159.083900000000000
 11
306.5387
 21
160.484199999999990
  0
LINE
  8
PT5-Rzut27
  6
CONTINUOUS
 62
     7
 10
314.1363
 20
169.388000000000010
 11
310.3893
 21
170.788199999999990
  0
LINE
  8
PT5-Rzut27
  6
CONTINUOUS
 62
     7
 10
315.5365
 20
173.134899999999990
 11
311.7896
 21
174.535100000000000
  0
LINE
  8
PT5-Rzut27
  6
CONTINUOUS
 62
     7
 10
319.3871
 20
183.438899999999990
 11
315.6401
 21
184.839100000000000
  0
LINE
  8
PT5-Rzut27
  6
CONTINUOUS
 62
     7
 10
320.7873
 20
187.185800000000000
 11
317.0404
 21
188.586000000000010
  0
LINE
  8
PT5-Rzut27
  6
CONTINUOUS
 62
     7
 10
324.6379
 20
197.489900000000010
 11
320.891
 21
198.890099999999990
  0
LINE
  8
PT5-Rzut27
  6
CONTINUOUS
 62
     7
 10
326.0381
 20
201.236700000000010
 11
322.2911
 21
202.636900000000000
  0
LINE
  8
PT5-Rzut27
  6
CONTINUOUS
 62
     7
 10
329.8887
 20
211.540699999999990
 11
326.1418
 21
212.940900000000000
  0
LINE
  8
PT5-Rzut27
  6
CONTINUOUS
 62
     7
 10
331.2889
 20
215.287600000000000
 11
327.542
 21
216.687900000000010
  0
LINE
  8
PT5-Rzut27
  6
CONTINUOUS
 62
     7
 10
335.1395
 20
225.591700000000000
 11
331.3925
 21
226.991899999999990
  0
LINE
  8
PT5-Rzut27
  6
CONTINUOUS
 62
     7
 10
336.5397
 20
229.338600000000010
 11
332.7928
 21
230.738800000000000
  0
LINE
  8
PT5-Rzut27
  6
CONTINUOUS
 62
     7
 10
340.3903
 20
239.642599999999990
 11
336.6434
 21
241.042800000000000
  0
LINE
  8
PT5-Rzut27
  6
CONTINUOUS
 62
     7
 10
338.1134
 20
244.976800000000000
 11
341.8604
 21
243.576400000000010
  0
LINE
  8
PT5-Rzut27
  6
CONTINUOUS
 62
     7
 10
345.711
 20
253.880500000000010
 11
341.9641
 21
255.280700000000000
  0
LINE
  8
PT5-Rzut27
  6
CONTINUOUS
 62
     7
 10
273.5299
 20
60.727300000000014
 11
269.783
 21
62.127499999999998
  0
LINE
  8
PT5-Rzut27
  6
CONTINUOUS
 62
     7
 10
277.3806
 20
71.031299999999987
 11
273.6336
 21
72.431500000000028
  0
LINE
  8
PT5-Rzut27
  6
CONTINUOUS
 62
     7
 10
278.7808
 20
74.778200000000027
 11
275.0338
 21
76.178499999999985
  0
LINE
  8
PT5-Rzut27
  6
CONTINUOUS
 62
     7
 10
282.6313
 20
85.082299999999975
 11
278.8844
 21
86.482500000000016
  0
LINE
  8
PT5-Rzut27
  6
CONTINUOUS
 62
     7
 10
284.0316
 20
88.829200000000014
 11
280.2847
 21
90.229399999999998
  0
LINE
  8
PT5-Rzut27
  6
CONTINUOUS
 62
     7
 10
287.8822
 20
99.133199999999988
 11
284.1353
 21
100.533399999999970
  0
LINE
  8
PT5-Rzut27
  6
CONTINUOUS
 62
     7
 10
289.2824
 20
102.880100000000030
 11
285.5355
 21
104.280399999999990
  0
LINE
  8
PT5-Rzut27
  6
CONTINUOUS
 62
     7
 10
293.133
 20
113.184199999999980
 11
289.3861
 21
114.584400000000020
  0
LINE
  8
PT5-Rzut27
  6
CONTINUOUS
 62
     7
 10
294.5332
 20
116.931100000000010
 11
290.7863
 21
118.331300000000000
  0
LINE
  8
PT5-Rzut27
  6
CONTINUOUS
 62
     7
 10
298.3838
 20
127.235099999999990
 11
294.6369
 21
128.635299999999970
  0
LINE
  8
PT5-Rzut27
  6
CONTINUOUS
 62
     7
 10
299.784
 20
130.982000000000030
 11
296.0371
 21
132.382200000000010
  0
LINE
  8
PT5-Rzut27
  6
CONTINUOUS
 62
     7
 10
303.6346
 20
141.286000000000000
 11
299.8877
 21
142.686199999999990
  0
LINE
  8
PT5-Rzut27
  6
CONTINUOUS
 62
     7
 10
305.0348
 20
145.032999999999990
 11
301.2879
 21
146.433200000000000
  0
LINE
  8
PT5-Rzut27
  6
CONTINUOUS
 62
     7
 10
308.8854
 20
155.336999999999990
 11
305.1385
 21
156.737200000000000
  0
LINE
  8
PT5-Rzut27
  6
CONTINUOUS
 62
     7
 10
310.2856
 20
159.083900000000000
 11
306.5387
 21
160.484199999999990
  0
LINE
  8
PT5-Rzut27
  6
CONTINUOUS
 62
     7
 10
314.1363
 20
169.388000000000010
 11
310.3893
 21
170.788199999999990
  0
LINE
  8
PT5-Rzut27
  6
CONTINUOUS
 62
     7
 10
315.5365
 20
173.134899999999990
 11
311.7896
 21
174.535100000000000
  0
LINE
  8
PT5-Rzut27
  6
CONTINUOUS
 62
     7
 10
319.3871
 20
183.438899999999990
 11
315.6401
 21
184.839100000000000
  0
LINE
  8
PT5-Rzut27
  6
CONTINUOUS
 62
     7
 10
320.7873
 20
187.185800000000000
 11
317.0404
 21
188.586000000000010
  0
LINE
  8
PT5-Rzut27
  6
CONTINUOUS
 62
     7
 10
324.6379
 20
197.489900000000010
 11
320.891
 21
198.890099999999990
  0
LINE
  8
PT5-Rzut27
  6
CONTINUOUS
 62
     7
 10
326.0381
 20
201.236700000000010
 11
322.2911
 21
202.636900000000000
  0
LINE
  8
PT5-Rzut27
  6
CONTINUOUS
 62
     7
 10
329.8887
 20
211.540699999999990
 11
326.1418
 21
212.940900000000000
  0
LINE
  8
PT5-Rzut27
  6
CONTINUOUS
 62
     7
 10
331.2889
 20
215.287600000000000
 11
327.542
 21
216.687900000000010
  0
LINE
  8
PT5-Rzut27
  6
CONTINUOUS
 62
     7
 10
335.1395
 20
225.591700000000000
 11
331.3925
 21
226.991899999999990
  0
LINE
  8
PT5-Rzut27
  6
CONTINUOUS
 62
     7
 10
336.5397
 20
229.338600000000010
 11
332.7928
 21
230.738800000000000
  0
LINE
  8
PT5-Rzut27
  6
CONTINUOUS
 62
     7
 10
340.3903
 20
239.642599999999990
 11
336.6434
 21
241.042800000000000
  0
LINE
  8
PT5-Rzut27
  6
CONTINUOUS
 62
     7
 10
338.1134
 20
244.976800000000000
 11
341.8604
 21
243.576400000000010
  0
LINE
  8
PT5-Rzut27
  6
CONTINUOUS
 62
     7
 10
345.711
 20
253.880500000000010
 11
341.9641
 21
255.280700000000000
  0
LINE
  8
PT5-Okna_i_drzwi29
  6
CONTINUOUS
 62
     7
 10
273.5299
 20
60.727300000000014
 11
277.3806
 21
71.031299999999987
  0
LINE
  8
PT5-Okna_i_drzwi29
  6
CONTINUOUS
 62
     7
 10
272.1248
 20
61.252400000000023
 11
275.9755
 21
71.556399999999996
  0
LINE
  8
PT5-Okna_i_drzwi29
  6
CONTINUOUS
 62
     7
 10
271.1881
 20
61.602399999999989
 11
275.0387
 21
71.906499999999994
  0
LINE
  8
PT5-Okna_i_drzwi29
  6
CONTINUOUS
 62
     7
 10
272.5449
 20
62.376500000000021
 11
271.6082
 21
62.726499999999987
  0
LINE
  8
PT5-Okna_i_drzwi29
  6
CONTINUOUS
 62
     7
 10
275.5554
 20
70.432299999999998
 11
274.6187
 21
70.782399999999996
  0
LINE
  8
PT5-Okna_i_drzwi29
  6
CONTINUOUS
 62
     7
 10
273.6336
 20
72.431500000000028
 11
269.783
 21
62.127499999999998
  0
LINE
  8
PT5-Okna_i_drzwi29
  6
CONTINUOUS
 62
     7
 10
278.7808
 20
74.778200000000027
 11
282.6313
 21
85.082299999999975
  0
LINE
  8
PT5-Okna_i_drzwi29
  6
CONTINUOUS
 62
     7
 10
277.3757
 20
75.303299999999979
 11
281.2263
 21
85.607399999999984
  0
LINE
  8
PT5-Okna_i_drzwi29
  6
CONTINUOUS
 62
     7
 10
276.4389
 20
75.653399999999976
 11
280.2896
 21
85.957400000000007
  0
LINE
  8
PT5-Okna_i_drzwi29
  6
CONTINUOUS
 62
     7
 10
277.7957
 20
76.427399999999977
 11
276.859
 21
76.777499999999975
  0
LINE
  8
PT5-Okna_i_drzwi29
  6
CONTINUOUS
 62
     7
 10
280.8062
 20
84.483299999999986
 11
279.8695
 21
84.833300000000008
  0
LINE
  8
PT5-Okna_i_drzwi29
  6
CONTINUOUS
 62
     7
 10
278.8844
 20
86.482500000000016
 11
275.0338
 21
76.178499999999985
  0
LINE
  8
PT5-Okna_i_drzwi29
  6
CONTINUOUS
 62
     7
 10
284.0316
 20
88.829200000000014
 11
287.8822
 21
99.133199999999988
  0
LINE
  8
PT5-Okna_i_drzwi29
  6
CONTINUOUS
 62
     7
 10
282.6265
 20
89.354300000000023
 11
286.4771
 21
99.658299999999997
  0
LINE
  8
PT5-Okna_i_drzwi29
  6
CONTINUOUS
 62
     7
 10
281.6898
 20
89.704299999999989
 11
285.5403
 21
100.008399999999990
  0
LINE
  8
PT5-Okna_i_drzwi29
  6
CONTINUOUS
 62
     7
 10
283.0465
 20
90.478400000000022
 11
282.1098
 21
90.828399999999988
  0
LINE
  8
PT5-Okna_i_drzwi29
  6
CONTINUOUS
 62
     7
 10
286.057
 20
98.534199999999998
 11
285.1203
 21
98.884299999999996
  0
LINE
  8
PT5-Okna_i_drzwi29
  6
CONTINUOUS
 62
     7
 10
284.1353
 20
100.533399999999970
 11
280.2847
 21
90.229399999999998
  0
LINE
  8
PT5-Okna_i_drzwi29
  6
CONTINUOUS
 62
     7
 10
289.2824
 20
102.880100000000030
 11
293.133
 21
113.184199999999980
  0
LINE
  8
PT5-Okna_i_drzwi29
  6
CONTINUOUS
 62
     7
 10
287.8773
 20
103.405199999999980
 11
291.7279
 21
113.709200000000010
  0
LINE
  8
PT5-Okna_i_drzwi29
  6
CONTINUOUS
 62
     7
 10
286.9406
 20
103.755299999999980
 11
290.7912
 21
114.059300000000010
  0
LINE
  8
PT5-Okna_i_drzwi29
  6
CONTINUOUS
 62
     7
 10
288.2974
 20
104.529299999999980
 11
287.3606
 21
104.879399999999980
  0
LINE
  8
PT5-Okna_i_drzwi29
  6
CONTINUOUS
 62
     7
 10
291.3078
 20
112.585199999999990
 11
290.3711
 21
112.935200000000010
  0
LINE
  8
PT5-Okna_i_drzwi29
  6
CONTINUOUS
 62
     7
 10
289.3861
 20
114.584400000000020
 11
285.5355
 21
104.280399999999990
  0
LINE
  8
PT5-Okna_i_drzwi29
  6
CONTINUOUS
 62
     7
 10
294.5332
 20
116.931100000000010
 11
298.3838
 21
127.235099999999990
  0
LINE
  8
PT5-Okna_i_drzwi29
  6
CONTINUOUS
 62
     7
 10
293.1281
 20
117.456099999999990
 11
296.9787
 21
127.760200000000000
  0
LINE
  8
PT5-Okna_i_drzwi29
  6
CONTINUOUS
 62
     7
 10
292.1914
 20
117.806199999999990
 11
296.042
 21
128.110200000000020
  0
LINE
  8
PT5-Okna_i_drzwi29
  6
CONTINUOUS
 62
     7
 10
293.5482
 20
118.580199999999990
 11
292.6115
 21
118.930299999999990
  0
LINE
  8
PT5-Okna_i_drzwi29
  6
CONTINUOUS
 62
     7
 10
296.5586
 20
126.636100000000000
 11
295.6219
 21
126.986200000000000
  0
LINE
  8
PT5-Okna_i_drzwi29
  6
CONTINUOUS
 62
     7
 10
294.6369
 20
128.635299999999970
 11
290.7863
 21
118.331300000000000
  0
LINE
  8
PT5-Okna_i_drzwi29
  6
CONTINUOUS
 62
     7
 10
299.784
 20
130.982000000000030
 11
303.6346
 21
141.286000000000000
  0
LINE
  8
PT5-Okna_i_drzwi29
  6
CONTINUOUS
 62
     7
 10
298.3789
 20
131.507099999999980
 11
302.2295
 21
141.811100000000010
  0
LINE
  8
PT5-Okna_i_drzwi29
  6
CONTINUOUS
 62
     7
 10
297.4422
 20
131.857100000000000
 11
301.2928
 21
142.161200000000010
  0
LINE
  8
PT5-Okna_i_drzwi29
  6
CONTINUOUS
 62
     7
 10
298.799
 20
132.631199999999980
 11
297.8622
 21
132.981200000000000
  0
LINE
  8
PT5-Okna_i_drzwi29
  6
CONTINUOUS
 62
     7
 10
301.8094
 20
140.687000000000010
 11
300.8727
 21
141.037100000000010
  0
LINE
  8
PT5-Okna_i_drzwi29
  6
CONTINUOUS
 62
     7
 10
299.8877
 20
142.686199999999990
 11
296.0371
 21
132.382200000000010
  0
LINE
  8
PT5-Okna_i_drzwi29
  6
CONTINUOUS
 62
     7
 10
305.0348
 20
145.032999999999990
 11
308.8854
 21
155.336999999999990
  0
LINE
  8
PT5-Okna_i_drzwi29
  6
CONTINUOUS
 62
     7
 10
303.6297
 20
145.557999999999990
 11
307.4803
 21
155.862100000000000
  0
LINE
  8
PT5-Okna_i_drzwi29
  6
CONTINUOUS
 62
     7
 10
302.693
 20
145.908099999999990
 11
306.5436
 21
156.212099999999990
  0
LINE
  8
PT5-Okna_i_drzwi29
  6
CONTINUOUS
 62
     7
 10
304.0498
 20
146.682099999999990
 11
303.1131
 21
147.032199999999990
  0
LINE
  8
PT5-Okna_i_drzwi29
  6
CONTINUOUS
 62
     7
 10
307.0603
 20
154.738000000000000
 11
306.1235
 21
155.087999999999990
  0
LINE
  8
PT5-Okna_i_drzwi29
  6
CONTINUOUS
 62
     7
 10
305.1385
 20
156.737200000000000
 11
301.2879
 21
146.433200000000000
  0
LINE
  8
PT5-Okna_i_drzwi29
  6
CONTINUOUS
 62
     7
 10
310.2856
 20
159.083900000000000
 11
314.1363
 21
169.388000000000010
  0
LINE
  8
PT5-Okna_i_drzwi29
  6
CONTINUOUS
 62
     7
 10
308.8806
 20
159.609000000000010
 11
312.7311
 21
169.913000000000010
  0
LINE
  8
PT5-Okna_i_drzwi29
  6
CONTINUOUS
 62
     7
 10
307.9438
 20
159.959100000000010
 11
311.7944
 21
170.263100000000010
  0
LINE
  8
PT5-Okna_i_drzwi29
  6
CONTINUOUS
 62
     7
 10
309.3006
 20
160.733100000000010
 11
308.3639
 21
161.083100000000000
  0
LINE
  8
PT5-Okna_i_drzwi29
  6
CONTINUOUS
 62
     7
 10
312.3111
 20
168.788999999999990
 11
311.3744
 21
169.139000000000010
  0
LINE
  8
PT5-Okna_i_drzwi29
  6
CONTINUOUS
 62
     7
 10
310.3893
 20
170.788199999999990
 11
306.5387
 21
160.484199999999990
  0
LINE
  8
PT5-Okna_i_drzwi29
  6
CONTINUOUS
 62
     7
 10
315.5365
 20
173.134899999999990
 11
319.3871
 21
183.438899999999990
  0
LINE
  8
PT5-Okna_i_drzwi29
  6
CONTINUOUS
 62
     7
 10
314.1314
 20
173.660000000000000
 11
317.982
 21
183.964000000000000
  0
LINE
  8
PT5-Okna_i_drzwi29
  6
CONTINUOUS
 62
     7
 10
313.1946
 20
174.009999999999990
 11
317.0452
 21
184.313999999999990
  0
LINE
  8
PT5-Okna_i_drzwi29
  6
CONTINUOUS
 62
     7
 10
314.5514
 20
174.783999999999990
 11
313.6147
 21
175.134099999999990
  0
LINE
  8
PT5-Okna_i_drzwi29
  6
CONTINUOUS
 62
     7
 10
317.5619
 20
182.839900000000000
 11
316.6252
 21
183.190000000000000
  0
LINE
  8
PT5-Okna_i_drzwi29
  6
CONTINUOUS
 62
     7
 10
315.6401
 20
184.839100000000000
 11
311.7896
 21
174.535100000000000
  0
LINE
  8
PT5-Okna_i_drzwi29
  6
CONTINUOUS
 62
     7
 10
320.7873
 20
187.185800000000000
 11
324.6379
 21
197.489900000000010
  0
LINE
  8
PT5-Okna_i_drzwi29
  6
CONTINUOUS
 62
     7
 10
319.3822
 20
187.710900000000010
 11
323.2328
 21
198.014900000000010
  0
LINE
  8
PT5-Okna_i_drzwi29
  6
CONTINUOUS
 62
     7
 10
318.4455
 20
188.061000000000010
 11
322.2961
 21
198.365000000000010
  0
LINE
  8
PT5-Okna_i_drzwi29
  6
CONTINUOUS
 62
     7
 10
319.8022
 20
188.835000000000010
 11
318.8655
 21
189.185000000000000
  0
LINE
  8
PT5-Okna_i_drzwi29
  6
CONTINUOUS
 62
     7
 10
322.8127
 20
196.890899999999990
 11
321.876
 21
197.240900000000010
  0
LINE
  8
PT5-Okna_i_drzwi29
  6
CONTINUOUS
 62
     7
 10
320.891
 20
198.890099999999990
 11
317.0404
 21
188.586000000000010
  0
LINE
  8
PT5-Okna_i_drzwi29
  6
CONTINUOUS
 62
     7
 10
326.0381
 20
201.236700000000010
 11
329.8887
 21
211.540699999999990
  0
LINE
  8
PT5-Okna_i_drzwi29
  6
CONTINUOUS
 62
     7
 10
324.633
 20
201.761799999999990
 11
328.4836
 21
212.065800000000000
  0
LINE
  8
PT5-Okna_i_drzwi29
  6
CONTINUOUS
 62
     7
 10
323.6962
 20
202.111799999999990
 11
327.5468
 21
212.415799999999990
  0
LINE
  8
PT5-Okna_i_drzwi29
  6
CONTINUOUS
 62
     7
 10
325.053
 20
202.885899999999990
 11
324.1163
 21
203.235899999999990
  0
LINE
  8
PT5-Okna_i_drzwi29
  6
CONTINUOUS
 62
     7
 10
328.0635
 20
210.941700000000000
 11
327.1268
 21
211.291799999999990
  0
LINE
  8
PT5-Okna_i_drzwi29
  6
CONTINUOUS
 62
     7
 10
326.1418
 20
212.940900000000000
 11
322.2911
 21
202.636900000000000
  0
LINE
  8
PT5-Okna_i_drzwi29
  6
CONTINUOUS
 62
     7
 10
331.2889
 20
215.287600000000000
 11
335.1395
 21
225.591700000000000
  0
LINE
  8
PT5-Okna_i_drzwi29
  6
CONTINUOUS
 62
     7
 10
329.8838
 20
215.812700000000010
 11
333.7344
 21
226.116700000000010
  0
LINE
  8
PT5-Okna_i_drzwi29
  6
CONTINUOUS
 62
     7
 10
328.9471
 20
216.162800000000000
 11
332.7976
 21
226.466800000000010
  0
LINE
  8
PT5-Okna_i_drzwi29
  6
CONTINUOUS
 62
     7
 10
330.3038
 20
216.936800000000010
 11
329.3671
 21
217.286800000000000
  0
LINE
  8
PT5-Okna_i_drzwi29
  6
CONTINUOUS
 62
     7
 10
333.3143
 20
224.992700000000010
 11
332.3776
 21
225.342700000000010
  0
LINE
  8
PT5-Okna_i_drzwi29
  6
CONTINUOUS
 62
     7
 10
331.3925
 20
226.991899999999990
 11
327.542
 21
216.687900000000010
  0
LINE
  8
PT5-Okna_i_drzwi29
  6
CONTINUOUS
 62
     7
 10
336.5397
 20
229.338600000000010
 11
340.3903
 21
239.642599999999990
  0
LINE
  8
PT5-Okna_i_drzwi29
  6
CONTINUOUS
 62
     7
 10
335.1346
 20
229.863699999999990
 11
338.9852
 21
240.167700000000000
  0
LINE
  8
PT5-Okna_i_drzwi29
  6
CONTINUOUS
 62
     7
 10
334.1979
 20
230.213699999999990
 11
338.0485
 21
240.517699999999990
  0
LINE
  8
PT5-Okna_i_drzwi29
  6
CONTINUOUS
 62
     7
 10
335.5547
 20
230.987699999999990
 11
334.6179
 21
231.337799999999990
  0
LINE
  8
PT5-Okna_i_drzwi29
  6
CONTINUOUS
 62
     7
 10
338.5651
 20
239.043600000000000
 11
337.6284
 21
239.393700000000000
  0
LINE
  8
PT5-Okna_i_drzwi29
  6
CONTINUOUS
 62
     7
 10
336.6434
 20
241.042800000000000
 11
332.7928
 21
230.738800000000000
  0
ARC
  8
PT5-Okna_i_drzwi29
  6
CONTINUOUS
 62
     7
 10
341.860300000000000
 20
243.576500000000010
 40
11.000000000000000
 50
339.508699999999980
 51
69.508699999999976
  0
LINE
  8
PT5-Okna_i_drzwi29
  6
CONTINUOUS
 62
     7
 10
352.1643
 20
239.725799999999990
 11
341.8603
 21
243.576500000000010
  0
LINE
  8
PT5-Wymiarowanie33
  6
CONTINUOUS
 62
     7
 10
273.5818
 20
66.579400000000021
 11
287.6327
 21
61.328599999999994
  0
LINE
  8
PT5-Wymiarowanie33
  6
CONTINUOUS
 62
     7
 10
278.8326
 20
80.630400000000009
 11
292.8835
 21
75.379599999999982
  0
LINE
  8
PT5-Wymiarowanie33
  6
CONTINUOUS
 62
     7
 10
284.0834
 20
94.681300000000022
 11
298.1344
 21
89.430499999999995
  0
LINE
  8
PT5-Wymiarowanie33
  6
CONTINUOUS
 62
     7
 10
289.3342
 20
108.732300000000010
 11
303.3852
 21
103.481400000000010
  0
LINE
  8
PT5-Wymiarowanie33
  6
CONTINUOUS
 62
     7
 10
294.5851
 20
122.783200000000020
 11
308.636
 21
117.532400000000000
  0
LINE
  8
PT5-Wymiarowanie33
  6
CONTINUOUS
 62
     7
 10
299.8358
 20
136.834099999999980
 11
313.8868
 21
131.583300000000010
  0
LINE
  8
PT5-Wymiarowanie33
  6
CONTINUOUS
 62
     7
 10
305.0867
 20
150.885099999999990
 11
319.1376
 21
145.634300000000000
  0
LINE
  8
PT5-Wymiarowanie33
  6
CONTINUOUS
 62
     7
 10
310.3375
 20
164.936100000000010
 11
324.3884
 21
159.685200000000010
  0
LINE
  8
PT5-Wymiarowanie33
  6
CONTINUOUS
 62
     7
 10
315.5883
 20
178.986999999999990
 11
329.6393
 21
173.736200000000000
  0
LINE
  8
PT5-Wymiarowanie33
  6
CONTINUOUS
 62
     7
 10
320.8391
 20
193.038000000000010
 11
334.8901
 21
187.787100000000010
  0
LINE
  8
PT5-Wymiarowanie33
  6
CONTINUOUS
 62
     7
 10
326.0899
 20
207.088799999999990
 11
340.1408
 21
201.837999999999990
  0
TEXT
  8
PT5-Wymiarowanie33
  6
CONTINUOUS
 62
     7
 10
339.039600000000010
 20
236.926700000000010
 40
2.000000000000000
 50
339.500000000000000
  1
110
  0
TEXT
  8
PT5-Wymiarowanie33
  6
CONTINUOUS
 62
     7
 10
337.950699999999980
 20
233.506700000000000
 40
2.000000000000000
 50
339.500000000000000
  1
250
  0
LINE
  8
PT5-Wymiarowanie33
  6
CONTINUOUS
 62
     7
 10
331.3407
 20
221.139700000000000
 11
345.3917
 21
215.888900000000010
  0
TEXT
  8
PT5-Wymiarowanie33
  6
CONTINUOUS
 62
     7
 10
342.368699999999990
 20
251.036300000000010
 40
2.000000000000000
 50
339.100000000000020
  1
110
  0
TEXT
  8
PT5-Wymiarowanie33
  6
CONTINUOUS
 62
     7
 10
341.596799999999970
 20
248.219200000000000
 40
2.000000000000000
 50
339.100000000000020
  1
230
  0
LINE
  8
PT5-Wymiarowanie33
  6
CONTINUOUS
 62
     7
 10
336.5915
 20
235.190699999999990
 11
350.6425
 21
229.939899999999990
  0
LINE
  8
PT5-Wymiarowanie33
  6
CONTINUOUS
 62
     7
 10
341.9122
 20
249.428599999999990
 11
355.9631
 21
244.177600000000010
  0
POLYLINE
  8
PT5-Kreskowanie28
  6
CONTINUOUS
 62
     7
 66
     1
 70
     1
  0
VERTEX
  8
PT5-Kreskowanie28
 10
291.4811
 20
209.611400000000000
  0
VERTEX
  8
PT5-Kreskowanie28
 10
293.0253
 20
210.315400000000010
  0
VERTEX
  8
PT5-Kreskowanie28
 10
294.1104
 20
213.219300000000000
  0
VERTEX
  8
PT5-Kreskowanie28
 10
293.4064
 20
214.763399999999990
  0
SEQEND
  8
PT5-Kreskowanie28
  0
POLYLINE
  8
PT5-Kreskowanie28
  6
CONTINUOUS
 62
     7
 66
     1
 70
     1
  0
VERTEX
  8
PT5-Kreskowanie28
 10
293.4064
 20
214.763399999999990
  0
VERTEX
  8
PT5-Kreskowanie28
 10
294.1104
 20
213.219300000000000
  0
VERTEX
  8
PT5-Kreskowanie28
 10
299.9183
 20
211.049299999999990
  0
VERTEX
  8
PT5-Kreskowanie28
 10
301.4624
 20
211.753300000000000
  0
SEQEND
  8
PT5-Kreskowanie28
  0
POLYLINE
  8
PT5-Kreskowanie28
  6
CONTINUOUS
 62
     7
 66
     1
 70
     1
  0
VERTEX
  8
PT5-Kreskowanie28
 10
301.4624
 20
211.753300000000000
  0
VERTEX
  8
PT5-Kreskowanie28
 10
299.9183
 20
211.049299999999990
  0
VERTEX
  8
PT5-Kreskowanie28
 10
298.8331
 20
208.145400000000000
  0
VERTEX
  8
PT5-Kreskowanie28
 10
299.5371
 20
206.601300000000010
  0
SEQEND
  8
PT5-Kreskowanie28
  0
POLYLINE
  8
PT5-Kreskowanie28
  6
CONTINUOUS
 62
     7
 66
     1
 70
     1
  0
VERTEX
  8
PT5-Kreskowanie28
 10
299.5371
 20
206.601300000000010
  0
VERTEX
  8
PT5-Kreskowanie28
 10
298.8331
 20
208.145400000000000
  0
VERTEX
  8
PT5-Kreskowanie28
 10
293.0253
 20
210.315400000000010
  0
VERTEX
  8
PT5-Kreskowanie28
 10
291.4811
 20
209.611400000000000
  0
SEQEND
  8
PT5-Kreskowanie28
  0
POLYLINE
  8
PT5-Kreskowanie28
  6
CONTINUOUS
 62
     7
 66
     1
 70
     1
  0
VERTEX
  8
PT5-Kreskowanie28
 10
296.3976
 20
209.055399999999990
  0
VERTEX
  8
PT5-Kreskowanie28
 10
297.5216
 20
208.635400000000000
  0
VERTEX
  8
PT5-Kreskowanie28
 10
298.6068
 20
211.539300000000000
  0
VERTEX
  8
PT5-Kreskowanie28
 10
297.4827
 20
211.959300000000010
  0
SEQEND
  8
PT5-Kreskowanie28
  0
LINE
  8
PT5-Rzut27
  6
CONTINUOUS
 62
     7
 10
344.6058
 20
238.067299999999990
 11
346.0058
 21
241.814200000000000
  0
LINE
  8
PT5-Rzut27
  6
CONTINUOUS
 62
     7
 10
354.9101
 20
234.217299999999990
 11
356.31
 21
237.964300000000010
  0
LINE
  8
PT5-Rzut27
  6
CONTINUOUS
 62
     7
 10
344.6058
 20
238.067299999999990
 11
346.0058
 21
241.814200000000000
  0
LINE
  8
PT5-Rzut27
  6
CONTINUOUS
 62
     7
 10
354.9101
 20
234.217299999999990
 11
356.31
 21
237.964300000000010
  0
LINE
  8
PT5-Okna_i_drzwi29
  6
CONTINUOUS
 62
     7
 10
344.6058
 20
238.067299999999990
 11
354.9101
 21
234.217299999999990
  0
LINE
  8
PT5-Okna_i_drzwi29
  6
CONTINUOUS
 62
     7
 10
345.1308
 20
239.472399999999990
 11
355.4351
 21
235.622400000000000
  0
LINE
  8
PT5-Okna_i_drzwi29
  6
CONTINUOUS
 62
     7
 10
345.4808
 20
240.409100000000000
 11
355.785
 21
236.559200000000000
  0
LINE
  8
PT5-Okna_i_drzwi29
  6
CONTINUOUS
 62
     7
 10
346.2549
 20
239.052400000000010
 11
346.6049
 21
239.989100000000010
  0
LINE
  8
PT5-Okna_i_drzwi29
  6
CONTINUOUS
 62
     7
 10
354.3109
 20
236.042399999999990
 11
354.6609
 21
236.979199999999990
  0
LINE
  8
PT5-Okna_i_drzwi29
  6
CONTINUOUS
 62
     7
 10
356.31
 20
237.964300000000010
 11
346.0058
 21
241.814200000000000
  0
TEXT
  8
PT5-Wymiarowanie33
  6
CONTINUOUS
 62
     7
 10
346.256700000000020
 20
231.067200000000010
 40
2.000000000000000
 50
69.500000000000000
  1
110
  0
TEXT
  8
PT5-Wymiarowanie33
  6
CONTINUOUS
 62
     7
 10
348.902400000000000
 20
229.976000000000000
 40
2.000000000000000
 50
69.500000000000000
  1
150
  0
LINE
  8
PT5-Wymiarowanie33
  6
CONTINUOUS
 62
     7
 10
350.4579
 20
238.015800000000010
 11
345.208
 21
223.964499999999990
  0
LINE
  8
PT5-Rzut27
  6
CONTINUOUS
 62
     7
 10
345.8047
 20
253.845800000000000
 11
348.5212
 21
252.830600000000000
  0
LINE
  8
PT5-Rzut27
  6
CONTINUOUS
 62
     7
 10
341.9541
 20
243.541799999999990
 11
344.6706
 21
242.526600000000000
  0
LINE
  8
PT5-Rzut27
  6
CONTINUOUS
 62
     7
 10
345.8047
 20
253.845800000000000
 11
348.5212
 21
252.830600000000000
  0
LINE
  8
PT5-Rzut27
  6
CONTINUOUS
 62
     7
 10
341.9541
 20
243.541799999999990
 11
344.6706
 21
242.526600000000000
  0
LINE
  8
PT5-Rzut27
  6
CONTINUOUS
 62
     7
 10
238.5533
 20
67.984399999999994
 11
241.6015
 21
66.845700000000022
  0
LINE
  8
PT5-Rzut27
  6
CONTINUOUS
 62
     7
 10
265.0209
 20
58.097300000000018
 11
271.6252
 21
55.630200000000002
  0
LINE
  8
PT5-Rzut27
  6
CONTINUOUS
 62
     7
 10
271.6243
 20
55.627900000000011
 11
273.5299
 21
60.727300000000014
  0
LINE
  8
PT5-Rzut27
  6
CONTINUOUS
 62
     7
 10
277.3806
 20
71.031299999999987
 11
278.7808
 21
74.778200000000027
  0
LINE
  8
PT5-Rzut27
  6
CONTINUOUS
 62
     7
 10
282.6313
 20
85.082299999999975
 11
284.0316
 21
88.829200000000014
  0
LINE
  8
PT5-Rzut27
  6
CONTINUOUS
 62
     7
 10
287.8822
 20
99.133199999999988
 11
289.2824
 21
102.880100000000030
  0
LINE
  8
PT5-Rzut27
  6
CONTINUOUS
 62
     7
 10
293.133
 20
113.184199999999980
 11
294.5332
 21
116.931100000000010
  0
LINE
  8
PT5-Rzut27
  6
CONTINUOUS
 62
     7
 10
298.3838
 20
127.235099999999990
 11
299.784
 21
130.982000000000030
  0
LINE
  8
PT5-Rzut27
  6
CONTINUOUS
 62
     7
 10
303.6346
 20
141.286000000000000
 11
305.0348
 21
145.032900000000010
  0
LINE
  8
PT5-Rzut27
  6
CONTINUOUS
 62
     7
 10
308.8854
 20
155.336999999999990
 11
310.2856
 21
159.083900000000000
  0
LINE
  8
PT5-Rzut27
  6
CONTINUOUS
 62
     7
 10
314.1362
 20
169.387900000000000
 11
315.5365
 21
173.134899999999990
  0
LINE
  8
PT5-Rzut27
  6
CONTINUOUS
 62
     7
 10
319.3871
 20
183.438899999999990
 11
320.7873
 21
187.185800000000000
  0
LINE
  8
PT5-Rzut27
  6
CONTINUOUS
 62
     7
 10
324.6379
 20
197.489800000000000
 11
326.0381
 21
201.236700000000010
  0
LINE
  8
PT5-Rzut27
  6
CONTINUOUS
 62
     7
 10
329.8887
 20
211.540699999999990
 11
331.2889
 21
215.287600000000000
  0
LINE
  8
PT5-Rzut27
  6
CONTINUOUS
 62
     7
 10
335.1395
 20
225.591700000000000
 11
336.5397
 21
229.338500000000010
  0
LINE
  8
PT5-Rzut27
  6
CONTINUOUS
 62
     7
 10
340.3903
 20
239.642599999999990
 11
341.8604
 21
243.576500000000010
  0
LINE
  8
PT5-Rzut27
  6
CONTINUOUS
 62
     7
 10
345.711
 20
253.880500000000010
 11
347.1638
 21
257.768199999999980
  0
LINE
  8
PT5-Rzut27
  6
CONTINUOUS
 62
     7
 10
347.1661
 20
257.767299999999980
 11
314.0944
 21
270.124199999999970
  0
LINE
  8
PT5-Rzut27
  6
CONTINUOUS
 62
     7
 10
314.0952
 20
270.126499999999960
 11
312.6943
 21
266.377200000000020
  0
LINE
  8
PT5-Rzut27
  6
CONTINUOUS
 62
     7
 10
312.692
 20
266.378100000000020
 11
312.8817
 21
266.307199999999970
  0
LINE
  8
PT5-Rzut27
  6
CONTINUOUS
 62
     7
 10
293.5961
 20
214.692500000000000
 11
293.4064
 21
214.763399999999990
  0
LINE
  8
PT5-Rzut27
  6
CONTINUOUS
 62
     7
 10
293.4073
 20
214.765700000000010
 11
291.4811
 21
209.611400000000000
  0
LINE
  8
PT5-Rzut27
  6
CONTINUOUS
 62
     7
 10
291.4787
 20
209.612200000000000
 11
291.6684
 21
209.541400000000010
  0
LINE
  8
PT5-Rzut27
  6
CONTINUOUS
 62
     7
 10
240.145
 20
71.659699999999987
 11
239.9554
 21
71.730599999999981
  0
LINE
  8
PT5-Rzut27
  6
CONTINUOUS
 62
     7
 10
239.9562
 20
71.732899999999972
 11
238.5556
 21
67.983499999999992
  0
LINE
  8
PT5-Rzut27
  6
CONTINUOUS
 62
     7
 10
269.2806
 20
60.776099999999985
 11
266.4206
 21
61.844400000000007
  0
LINE
  8
PT5-Rzut27
  6
CONTINUOUS
 62
     7
 10
243.0013
 20
70.592800000000011
 11
240.1427
 21
71.660599999999988
  0
LINE
  8
PT5-Rzut27
  6
CONTINUOUS
 62
     7
 10
291.6661
 20
209.542200000000010
 11
299.5371
 21
206.601300000000010
  0
LINE
  8
PT5-Rzut27
  6
CONTINUOUS
 62
     7
 10
299.5363
 20
206.598999999999990
 11
301.4624
 21
211.753300000000000
  0
LINE
  8
PT5-Rzut27
  6
CONTINUOUS
 62
     7
 10
301.4648
 20
211.752500000000000
 11
293.5937
 21
214.693400000000000
  0
LINE
  8
PT5-Rzut27
  6
CONTINUOUS
 62
     7
 10
312.8794
 20
266.307999999999990
 11
342.0166
 21
255.421300000000000
  0
LINE
  8
PT5-Rzut27
  6
CONTINUOUS
 62
     7
 10
341.8069
 20
243.433600000000010
 11
341.8603
 21
243.576500000000010
  0
LINE
  8
PT5-Rzut27
  6
CONTINUOUS
 62
     7
 10
338.1135
 20
244.976699999999990
 11
336.6434
 21
241.042800000000000
  0
LINE
  8
PT5-Rzut27
  6
CONTINUOUS
 62
     7
 10
332.7928
 20
230.738800000000000
 11
331.3925
 21
226.991899999999990
  0
LINE
  8
PT5-Rzut27
  6
CONTINUOUS
 62
     7
 10
327.542
 20
216.687900000000010
 11
326.1418
 21
212.940900000000000
  0
LINE
  8
PT5-Rzut27
  6
CONTINUOUS
 62
     7
 10
322.2911
 20
202.636900000000000
 11
320.891
 21
198.890099999999990
  0
LINE
  8
PT5-Rzut27
  6
CONTINUOUS
 62
     7
 10
317.0404
 20
188.586000000000010
 11
315.6401
 21
184.839100000000000
  0
LINE
  8
PT5-Rzut27
  6
CONTINUOUS
 62
     7
 10
311.7896
 20
174.535100000000000
 11
310.3893
 21
170.788199999999990
  0
LINE
  8
PT5-Rzut27
  6
CONTINUOUS
 62
     7
 10
306.5387
 20
160.484199999999990
 11
305.1385
 21
156.737200000000000
  0
LINE
  8
PT5-Rzut27
  6
CONTINUOUS
 62
     7
 10
301.2879
 20
146.433200000000000
 11
299.8877
 21
142.686199999999990
  0
LINE
  8
PT5-Rzut27
  6
CONTINUOUS
 62
     7
 10
296.0371
 20
132.382200000000010
 11
294.6369
 21
128.635299999999970
  0
LINE
  8
PT5-Rzut27
  6
CONTINUOUS
 62
     7
 10
290.7863
 20
118.331300000000000
 11
289.386
 21
114.584400000000020
  0
LINE
  8
PT5-Rzut27
  6
CONTINUOUS
 62
     7
 10
285.5355
 20
104.280300000000010
 11
284.1353
 21
100.533399999999970
  0
LINE
  8
PT5-Rzut27
  6
CONTINUOUS
 62
     7
 10
280.2847
 20
90.229399999999998
 11
278.8844
 21
86.482500000000016
  0
LINE
  8
PT5-Rzut27
  6
CONTINUOUS
 62
     7
 10
275.0338
 20
76.178499999999985
 11
273.6336
 21
72.431500000000028
  0
LINE
  8
PT5-Rzut27
  6
CONTINUOUS
 62
     7
 10
269.783
 20
62.127499999999998
 11
269.2783
 21
60.776900000000012
  0
LINE
  8
PT5-Rzut27
  6
CONTINUOUS
 62
     7
 10
293.0244
 20
210.313099999999990
 11
294.1104
 21
213.219300000000000
  0
LINE
  8
PT5-Rzut27
  6
CONTINUOUS
 62
     7
 10
294.1081
 20
213.220200000000010
 11
297.4827
 21
211.959300000000010
  0
LINE
  8
PT5-Rzut27
  6
CONTINUOUS
 62
     7
 10
297.4836
 20
211.961600000000000
 11
296.3976
 21
209.055399999999990
  0
LINE
  8
PT5-Rzut27
  6
CONTINUOUS
 62
     7
 10
296.3999
 20
209.054599999999990
 11
293.0253
 21
210.315400000000010
  0
LINE
  8
PT5-Rzut27
  6
CONTINUOUS
 62
     7
 10
298.6045
 20
211.540100000000000
 11
299.9183
 21
211.049299999999990
  0
LINE
  8
PT5-Rzut27
  6
CONTINUOUS
 62
     7
 10
299.9191
 20
211.051600000000010
 11
298.8331
 21
208.145400000000000
  0
LINE
  8
PT5-Rzut27
  6
CONTINUOUS
 62
     7
 10
298.8354
 20
208.144499999999990
 11
297.5216
 21
208.635400000000000
  0
LINE
  8
PT5-Rzut27
  6
CONTINUOUS
 62
     7
 10
297.5208
 20
208.633100000000010
 11
298.6068
 21
211.539300000000000
  0
LINE
  8
PT5-Rzut27
  6
CONTINUOUS
 62
     7
 10
340.4815
 20
239.608200000000010
 11
344.6058
 21
238.067299999999990
  0
LINE
  8
PT5-Rzut27
  6
CONTINUOUS
 62
     7
 10
354.9101
 20
234.217299999999990
 11
374.1133
 21
227.042499999999990
  0
LINE
  8
PT5-Rzut27
  6
CONTINUOUS
 62
     7
 10
374.1124
 20
227.040100000000000
 11
397.9169
 21
290.740000000000010
  0
LINE
  8
PT5-Rzut27
  6
CONTINUOUS
 62
     7
 10
397.9192
 20
290.739199999999980
 11
363.2572
 21
303.690100000000030
  0
LINE
  8
PT5-Rzut27
  6
CONTINUOUS
 62
     7
 10
363.2581
 20
303.692400000000020
 11
359.2839
 21
293.057599999999980
  0
LINE
  8
PT5-Rzut27
  6
CONTINUOUS
 62
     7
 10
346.2599
 20
258.213300000000000
 11
347.2926
 21
257.827400000000010
  0
LINE
  8
PT5-Rzut27
  6
CONTINUOUS
 62
     7
 10
347.2935
 20
257.829700000000000
 11
345.8047
 21
253.845800000000000
  0
LINE
  8
PT5-Rzut27
  6
CONTINUOUS
 62
     7
 10
341.9541
 20
243.541799999999990
 11
340.4839
 21
239.607300000000010
  0
LINE
  8
PT5-Rzut27
  6
CONTINUOUS
 62
     7
 10
371.7688
 20
232.188500000000000
 11
356.31
 21
237.964300000000010
  0
LINE
  8
PT5-Rzut27
  6
CONTINUOUS
 62
     7
 10
344.7469
 20
242.301700000000010
 11
346.1484
 21
241.766899999999990
  0
LINE
  8
PT5-Rzut27
  6
CONTINUOUS
 62
     7
 10
346.1475
 20
241.764500000000000
 11
346.2197
 21
241.953800000000000
  0
LINE
  8
PT5-Rzut27
  6
CONTINUOUS
 62
     7
 10
348.5212
 20
252.830600000000000
 11
365.604
 21
298.543200000000010
  0
LINE
  8
PT5-Rzut27
  6
CONTINUOUS
 62
     7
 10
365.6016
 20
298.544100000000010
 11
392.7697
 21
288.393100000000000
  0
LINE
  8
PT5-Rzut27
  6
CONTINUOUS
 62
     7
 10
392.7706
 20
288.395499999999970
 11
371.7664
 21
232.189400000000010
  0
TEXT
  8
PT5-Opis32
  6
CONTINUOUS
 62
     7
 10
269.783700000000010
 20
152.993799999999990
 40
2.500000000000000
  1
122. Widownia
  0
TEXT
  8
PT5-Opis32
  6
CONTINUOUS
 62
     7
 10
269.783700000000010
 20
149.243799999999990
 40
2.500000000000000
  1
64.16 m2
  0
TEXT
  8
PT5-Opis32
  6
CONTINUOUS
 62
     7
 10
365.966299999999990
 20
284.251600000000000
 40
1.800000000000000
  1
123. Klatka schod. III
  0
TEXT
  8
PT5-Opis32
  6
CONTINUOUS
 62
     7
 10
365.966299999999990
 20
281.551600000000010
 40
1.800000000000000
  1
17.4 m2
  0
LINE
  8
PT6-Rzut39
  6
GESTRICHELT
 62
     7
 10
204.3037
 20
311.143699999999970
 11
204.3085
 21
311.156600000000030
  0
LINE
  8
PT6-Rzut39
  6
GESTRICHELT
 62
     7
 10
360.2206
 20
292.707600000000010
 11
213.6101
 21
347.487500000000010
  0
LINE
  8
PT6-Rzut39
  6
GESTRICHELT
 62
     7
 10
213.611
 20
347.489800000000000
 11
200.5575
 21
312.545799999999990
  0
LINE
  8
PT6-Rzut39
  6
GESTRICHELT
 62
     7
 10
204.3077
 20
311.154300000000030
 11
215.9573
 21
342.340300000000010
  0
LINE
  8
PT6-Rzut39
  6
GESTRICHELT
 62
     7
 10
215.955
 20
342.341200000000010
 11
355.0736
 21
290.361400000000000
  0
LINE
  8
PT6-Rzut39
  6
CONTINUOUS
 62
     7
 10
240.395
 20
317.303400000000010
 11
236.8353
 21
318.633500000000030
  0
LINE
  8
PT6-Rzut39
  6
CONTINUOUS
 62
     7
 10
236.8353
 20
318.633500000000030
 11
234.5953
 21
312.638199999999980
  0
LINE
  8
PT6-Rzut39
  6
CONTINUOUS
 62
     7
 10
234.593
 20
312.639099999999980
 11
238.155
 21
311.308300000000030
  0
LINE
  8
PT6-Rzut39
  6
CONTINUOUS
 62
     7
 10
238.155
 20
311.308300000000030
 11
240.395
 21
317.303400000000010
  0
LINE
  8
PT6-Rzut39
  6
CONTINUOUS
 62
     7
 10
283.7357
 20
317.015899999999990
 11
280.5857
 21
308.585199999999990
  0
LINE
  8
PT6-Rzut39
  6
CONTINUOUS
 62
     7
 10
280.5833
 20
308.586000000000010
 11
284.1453
 21
307.255300000000030
  0
LINE
  8
PT6-Rzut39
  6
CONTINUOUS
 62
     7
 10
283.7357
 20
317.015899999999990
 11
287.2953
 21
315.685900000000000
  0
LINE
  8
PT6-Rzut39
  6
CONTINUOUS
 62
     7
 10
284.1453
 20
307.255300000000030
 11
287.2953
 21
315.685900000000000
  0
LINE
  8
PT6-Rzut39
  6
CONTINUOUS
 62
     7
 10
320.2995
 20
287.448100000000010
 11
318.0597
 21
281.452999999999970
  0
LINE
  8
PT6-Rzut39
  6
GESTRICHELT
 62
     7
 10
355.0736
 20
290.361400000000000
 11
343.4169
 21
259.168400000000020
  0
LINE
  8
PT6-Rzut39
  6
CONTINUOUS
 62
     7
 10
318.0597
 20
281.452999999999970
 11
321.6192
 21
280.122999999999990
  0
LINE
  8
PT6-Rzut39
  6
CONTINUOUS
 62
     7
 10
321.6192
 20
280.122999999999990
 11
323.8592
 21
286.118100000000030
  0
LINE
  8
PT6-Rzut39
  6
CONTINUOUS
 62
     7
 10
323.8616
 20
286.117200000000030
 11
320.2995
 21
287.448100000000010
  0
LINE
  8
PT6-Rzut39
  6
CONTINUOUS
 62
     7
 10
284.4374
 20
315.472700000000030
 11
285.7513
 21
314.981800000000020
  0
LINE
  8
PT6-Rzut39
  6
CONTINUOUS
 62
     7
 10
285.7521
 20
314.984199999999990
 11
285.2608
 21
313.670500000000000
  0
LINE
  8
PT6-Rzut39
  6
CONTINUOUS
 62
     7
 10
285.2608
 20
313.670500000000000
 11
283.9498
 21
314.160399999999980
  0
LINE
  8
PT6-Rzut39
  6
CONTINUOUS
 62
     7
 10
283.9489
 20
314.158000000000020
 11
284.4398
 21
315.471900000000010
  0
LINE
  8
PT6-Rzut39
  6
CONTINUOUS
 62
     7
 10
284.8421
 20
312.548599999999960
 11
284.3512
 21
311.234800000000010
  0
LINE
  8
PT6-Rzut39
  6
CONTINUOUS
 62
     7
 10
284.3535
 20
311.233999999999980
 11
283.0398
 21
311.724800000000020
  0
LINE
  8
PT6-Rzut39
  6
CONTINUOUS
 62
     7
 10
283.0389
 20
311.722499999999970
 11
283.5301
 21
313.036200000000010
  0
LINE
  8
PT6-Rzut39
  6
CONTINUOUS
 62
     7
 10
283.5301
 20
313.036200000000010
 11
284.8412
 21
312.546299999999970
  0
LINE
  8
PT6-Rzut39
  6
CONTINUOUS
 62
     7
 10
283.9321
 20
310.113100000000030
 11
283.4412
 21
308.799300000000020
  0
LINE
  8
PT6-Rzut39
  6
CONTINUOUS
 62
     7
 10
283.4435
 20
308.798400000000020
 11
282.1298
 21
309.289300000000030
  0
LINE
  8
PT6-Rzut39
  6
CONTINUOUS
 62
     7
 10
282.1289
 20
309.286900000000000
 11
282.6198
 21
310.600700000000020
  0
LINE
  8
PT6-Rzut39
  6
CONTINUOUS
 62
     7
 10
282.6174
 20
310.601600000000020
 11
283.9312
 21
310.110700000000010
  0
LINE
  8
PT6-Rzut39
  6
CONTINUOUS
 62
     7
 10
238.8517
 20
316.601699999999990
 11
238.3609
 21
315.287899999999980
  0
LINE
  8
PT6-Rzut39
  6
CONTINUOUS
 62
     7
 10
238.3632
 20
315.287000000000030
 11
237.0494
 21
315.777899999999990
  0
LINE
  8
PT6-Rzut39
  6
CONTINUOUS
 62
     7
 10
237.0485
 20
315.775600000000000
 11
237.5398
 21
317.089299999999980
  0
LINE
  8
PT6-Rzut39
  6
CONTINUOUS
 62
     7
 10
237.5398
 20
317.089299999999980
 11
238.8509
 21
316.599400000000000
  0
LINE
  8
PT6-Rzut39
  6
CONTINUOUS
 62
     7
 10
237.9417
 20
314.166200000000000
 11
237.4516
 21
312.852100000000010
  0
LINE
  8
PT6-Rzut39
  6
CONTINUOUS
 62
     7
 10
237.4516
 20
312.852100000000010
 11
236.1394
 21
313.342400000000000
  0
LINE
  8
PT6-Rzut39
  6
CONTINUOUS
 62
     7
 10
236.1385
 20
313.340000000000030
 11
236.6294
 21
314.653799999999990
  0
LINE
  8
PT6-Rzut39
  6
CONTINUOUS
 62
     7
 10
236.6271
 20
314.654699999999990
 11
237.9409
 21
314.163799999999980
  0
LINE
  8
PT6-Rzut39
  6
CONTINUOUS
 62
     7
 10
319.6028
 20
282.154800000000020
 11
320.0937
 21
283.468500000000010
  0
LINE
  8
PT6-Rzut39
  6
CONTINUOUS
 62
     7
 10
320.0913
 20
283.469299999999980
 11
321.4038
 21
282.978999999999980
  0
LINE
  8
PT6-Rzut39
  6
CONTINUOUS
 62
     7
 10
321.4038
 20
282.978999999999980
 11
320.9152
 21
281.667100000000000
  0
LINE
  8
PT6-Rzut39
  6
CONTINUOUS
 62
     7
 10
320.9175
 20
281.666299999999980
 11
319.6037
 21
282.157100000000010
  0
LINE
  8
PT6-Rzut39
  6
CONTINUOUS
 62
     7
 10
320.5128
 20
284.590199999999980
 11
321.004
 21
285.903900000000020
  0
LINE
  8
PT6-Rzut39
  6
CONTINUOUS
 62
     7
 10
321.004
 20
285.903900000000020
 11
322.3151
 21
285.413999999999990
  0
LINE
  8
PT6-Rzut39
  6
CONTINUOUS
 62
     7
 10
322.316
 20
285.416299999999980
 11
321.8251
 21
284.102600000000000
  0
LINE
  8
PT6-Rzut39
  6
CONTINUOUS
 62
     7
 10
321.8275
 20
284.101699999999990
 11
320.5137
 21
284.592600000000000
  0
LINE
  8
PT6-Dachy40
  6
CONTINUOUS
 62
     7
 10
360.3364
 20
295.874199999999970
 11
212.7939
 21
351.038099999999990
  0
LINE
  8
PT6-Dachy40
  6
CONTINUOUS
 62
     7
 10
212.7939
 20
351.038099999999990
 11
198.7655
 21
313.215800000000000
  0
LINE
  8
PT2-Rzut2
  6
CONTINUOUS
 62
     7
 10
226.5377
 20
40.436300000000017
 11
232.9402
 21
40.436300000000017
  0
LINE
  8
PT2-Rzut2
  6
CONTINUOUS
 62
     7
 10
234.3402
 20
40.436300000000017
 11
235.5402
 21
40.436300000000017
  0
LINE
  8
PT2-Rzut2
  6
CONTINUOUS
 62
     7
 10
232.9402
 20
40.436300000000017
 11
234.3402
 21
40.436300000000017
  0
LINE
  8
PT2-Rzut2
  6
CONTINUOUS
 62
     7
 10
232.9402
 20
41.624199999999973
 11
234.3402
 21
43.038799999999981
  0
LINE
  8
PT2-Rzut2
  6
CONTINUOUS
 62
     7
 10
230.3402
 20
41.633800000000008
 11
231.7402
 21
43.038799999999981
  0
LINE
  8
PT2-Rzut2
  6
CONTINUOUS
 62
     7
 10
227.7402
 20
41.636300000000006
 11
229.1402
 21
43.038799999999981
  0
LINE
  8
PT2-Rzut2
  6
GESTRICHELT
 62
     7
 10
138.2257
 20
30.790300000000002
 11
315.6413
 21
30.790300000000002
  0
LINE
  8
PT2-Okna_i_drzwi4
  6
CONTINUOUS
 62
     7
 10
238.3747
 20
56.794899999999984
 11
242.5759
 21
68.035500000000013
  0
ARC
  8
PT2-Wymiarowanie8
  6
CONTINUOUS
 62
     7
 10
242.575899999999990
 20
68.035500000000013
 40
12.000000000000000
 50
249.723199999999990
 51
339.506800000000000
  0
LINE
  8
PT2-Okna_i_drzwi4
  6
CONTINUOUS
 62
     7
 10
260.8617
 20
48.390499999999975
 11
265.0629
 21
59.630999999999972
  0
ARC
  8
PT2-Wymiarowanie8
  6
CONTINUOUS
 62
     7
 10
265.062900000000010
 20
59.630999999999972
 40
12.000000000000000
 50
159.506900000000000
 51
249.290500000000010
  0
LINE
  8
PT3-Rzut14
  6
CONTINUOUS
 62
     7
 10
168.555
 20
226.875200000000010
 11
172.3021
 21
225.475400000000010
  0
LINE
  8
PT3-Rzut14
  6
CONTINUOUS
 62
     7
 10
177.6533
 20
251.231300000000000
 11
181.4004
 21
249.831600000000010
  0
LINE
  8
PT3-Rzut14
  6
CONTINUOUS
 62
     7
 10
301.9208
 20
271.256499999999960
 11
303.9332
 21
272.642400000000010
  0
LINE
  8
PT3-Rzut14
  6
CONTINUOUS
 62
     7
 10
304.3564
 20
270.346999999999980
 11
306.3687
 21
271.732399999999980
  0
LINE
  8
PT3-Rzut14
  6
CONTINUOUS
 62
     7
 10
306.792
 20
269.436900000000040
 11
308.8043
 21
270.822400000000020
  0
LINE
  8
PT3-Rzut14
  6
CONTINUOUS
 62
     7
 10
257.334
 20
129.662100000000010
 11
261.081
 21
128.261900000000030
  0
LINE
  8
PT3-Rzut14
  6
CONTINUOUS
 62
     7
 10
224.2679
 20
74.601800000000026
 11
226.2803
 21
75.987599999999986
  0
LINE
  8
PT3-Rzut14
  6
CONTINUOUS
 62
     7
 10
226.7035
 20
73.691899999999976
 11
228.715
 21
75.075499999999977
  0
LINE
  8
PT3-Rzut14
  6
CONTINUOUS
 62
     7
 10
229.139
 20
72.781999999999982
 11
232.3684
 21
73.710699999999974
  0
LINE
  8
PT3-Rzut14
  6
CONTINUOUS
 62
     7
 10
232.7916
 20
71.415000000000020
 11
234.804
 21
72.800900000000013
  0
LINE
  8
PT3-Rzut14
  6
CONTINUOUS
 62
     7
 10
236.6808
 20
74.394900000000007
 11
245.4321
 21
97.813100000000020
  0
LINE
  8
PT3-Rzut14
  6
CONTINUOUS
 62
     7
 10
246.8324
 20
101.560200000000010
 11
255.9338
 21
125.915100000000000
  0
LINE
  8
PT3-Rzut14
  6
CONTINUOUS
 62
     7
 10
257.334
 20
129.662100000000010
 11
266.4354
 21
154.017000000000000
  0
LINE
  8
PT3-Rzut14
  6
CONTINUOUS
 62
     7
 10
267.8358
 20
157.764399999999990
 11
276.9372
 21
182.119400000000010
  0
LINE
  8
PT3-Rzut14
  6
CONTINUOUS
 62
     7
 10
278.3372
 20
185.865800000000010
 11
287.4387
 21
210.220800000000000
  0
LINE
  8
PT3-Rzut14
  6
CONTINUOUS
 62
     7
 10
289.6595
 20
216.163600000000000
 11
297.7107
 21
237.708400000000010
  0
LINE
  8
PT3-Rzut14
  6
CONTINUOUS
 62
     7
 10
299.3406
 20
242.070100000000000
 11
308.442
 21
266.425000000000010
  0
LINE
  8
PT3-Rzut14
  6
CONTINUOUS
 62
     7
 10
308.9104
 20
266.250000000000000
 11
299.8553
 21
242.019200000000010
  0
LINE
  8
PT3-Rzut14
  6
CONTINUOUS
 62
     7
 10
300.5583
 20
241.615000000000010
 11
309.6688
 21
265.994199999999980
  0
LINE
  8
PT3-Rzut14
  6
CONTINUOUS
 62
     7
 10
298.1929
 20
237.570500000000010
 11
290.1557
 21
216.063400000000000
  0
LINE
  8
PT3-Rzut14
  6
CONTINUOUS
 62
     7
 10
298.9284
 20
237.253300000000000
 11
290.8645
 21
215.674700000000000
  0
LINE
  8
PT3-Rzut14
  6
CONTINUOUS
 62
     7
 10
287.95
 20
210.161100000000000
 11
278.8196
 21
185.728500000000000
  0
LINE
  8
PT3-Rzut14
  6
CONTINUOUS
 62
     7
 10
279.5256
 20
185.332400000000010
 11
288.6848
 21
209.841900000000010
  0
LINE
  8
PT3-Rzut14
  6
CONTINUOUS
 62
     7
 10
277.4387
 20
182.033300000000000
 11
268.2939
 21
157.562199999999990
  0
LINE
  8
PT3-Rzut14
  6
CONTINUOUS
 62
     7
 10
278.1848
 20
181.744499999999990
 11
269.066
 21
157.342999999999990
  0
LINE
  8
PT3-Rzut14
  6
CONTINUOUS
 62
     7
 10
266.8932
 20
153.814100000000000
 11
257.8145
 21
129.519900000000010
  0
LINE
  8
PT3-Rzut14
  6
CONTINUOUS
 62
     7
 10
267.6537
 20
153.563799999999990
 11
258.5578
 21
129.223700000000010
  0
LINE
  8
PT3-Rzut14
  6
CONTINUOUS
 62
     7
 10
256.3954
 20
125.722399999999990
 11
247.3051
 21
101.397200000000000
  0
LINE
  8
PT3-Rzut14
  6
CONTINUOUS
 62
     7
 10
257.1559
 20
125.472100000000010
 11
248.057
 21
101.124000000000020
  0
LINE
  8
PT3-Rzut14
  6
CONTINUOUS
 62
     7
 10
237.1577
 20
74.243499999999983
 11
245.8894
 21
97.608999999999980
  0
LINE
  8
PT3-Rzut14
  6
CONTINUOUS
 62
     7
 10
237.8839
 20
73.901299999999992
 11
246.6729
 21
97.420200000000023
  0
LINE
  8
PT3-Rzut14
  6
GESTRICHELT
 62
     7
 10
240.4277
 20
72.994700000000023
 11
249.179
 21
96.412899999999979
  0
LINE
  8
PT3-Rzut14
  6
GESTRICHELT
 62
     7
 10
250.5793
 20
100.144999999999980
 11
259.6807
 21
124.514900000000010
  0
LINE
  8
PT3-Rzut14
  6
GESTRICHELT
 62
     7
 10
261.081
 20
128.261900000000030
 11
270.1823
 21
152.616800000000010
  0
LINE
  8
PT3-Rzut14
  6
GESTRICHELT
 62
     7
 10
271.5827
 20
156.364200000000010
 11
280.6841
 21
180.719200000000000
  0
LINE
  8
PT3-Rzut14
  6
GESTRICHELT
 62
     7
 10
282.0842
 20
184.465599999999990
 11
291.2841
 21
209.084300000000010
  0
LINE
  8
PT3-Rzut14
  6
GESTRICHELT
 62
     7
 10
293.4064
 20
214.763399999999990
 11
301.4576
 21
236.308200000000000
  0
LINE
  8
PT3-Rzut14
  6
GESTRICHELT
 62
     7
 10
303.0876
 20
240.669800000000010
 11
312.189
 21
265.024800000000030
  0
TEXT
  8
PT3-Wymiarowanie20
  6
CONTINUOUS
 62
     7
 10
124.024800000000000
 20
131.215399999999990
 40
2.000000000000000
 50
339.500000000000000
  1
260
  0
TEXT
  8
PT3-Wymiarowanie20
  6
CONTINUOUS
 62
     7
 10
123.772400000000000
 20
131.270800000000010
 40
2.000000000000000
 50
339.500000000000000
  1

  0
TEXT
  8
PT3-Wymiarowanie20
  6
CONTINUOUS
 62
     7
 10
123.772400000000000
 20
128.270800000000010
 40
2.000000000000000
 50
339.500000000000000
  1
340
  0
LINE
  8
PT3-Wymiarowanie20
  6
CONTINUOUS
 62
     7
 10
133.3848
 20
125.722899999999980
 11
119.3332
 21
130.971900000000010
  0
TEXT
  8
PT3-Wymiarowanie20
  6
CONTINUOUS
 62
     7
 10
134.318600000000000
 20
160.155399999999990
 40
2.000000000000000
 50
339.500000000000000
  1
260
  0
TEXT
  8
PT3-Wymiarowanie20
  6
CONTINUOUS
 62
     7
 10
132.849600000000010
 20
156.395800000000010
 40
2.000000000000000
 50
339.500000000000000
  1
340
  0
LINE
  8
PT3-Wymiarowanie20
  6
CONTINUOUS
 62
     7
 10
143.8833
 20
154.031499999999990
 11
129.8317
 21
159.280499999999990
  0
TEXT
  8
PT3-Wymiarowanie20
  6
CONTINUOUS
 62
     7
 10
144.432400000000000
 20
187.517599999999990
 40
2.000000000000000
 50
339.500000000000000
  1
260
  0
TEXT
  8
PT3-Wymiarowanie20
  6
CONTINUOUS
 62
     7
 10
142.865700000000000
 20
184.689799999999990
 40
2.000000000000000
 50
339.500000000000000
  1
340
  0
LINE
  8
PT3-Wymiarowanie20
  6
CONTINUOUS
 62
     7
 10
154.2103
 20
182.014500000000000
 11
140.1587
 21
187.263499999999990
  0
TEXT
  8
PT3-Wymiarowanie20
  6
CONTINUOUS
 62
     7
 10
155.552100000000000
 20
215.727000000000000
 40
2.000000000000000
 50
339.500000000000000
  1
260
  0
TEXT
  8
PT3-Wymiarowanie20
  6
CONTINUOUS
 62
     7
 10
155.299600000000000
 20
215.782400000000000
 40
2.000000000000000
 50
339.500000000000000
  1

  0
TEXT
  8
PT3-Wymiarowanie20
  6
CONTINUOUS
 62
     7
 10
155.299600000000000
 20
212.782400000000000
 40
2.000000000000000
 50
339.500000000000000
  1
340
  0
LINE
  8
PT3-Wymiarowanie20
  6
CONTINUOUS
 62
     7
 10
164.9121
 20
210.234500000000000
 11
150.8605
 21
215.483499999999990
  0
TEXT
  8
PT3-Wymiarowanie20
  6
CONTINUOUS
 62
     7
 10
165.845800000000000
 20
244.667000000000000
 40
2.000000000000000
 50
339.500000000000000
  1
260
  0
TEXT
  8
PT3-Wymiarowanie20
  6
CONTINUOUS
 62
     7
 10
164.376900000000010
 20
240.907400000000000
 40
2.000000000000000
 50
339.500000000000000
  1
340
  0
LINE
  8
PT3-Wymiarowanie20
  6
CONTINUOUS
 62
     7
 10
175.4106
 20
238.543100000000010
 11
161.359
 21
243.792100000000000
  0
TEXT
  8
PT3-Wymiarowanie20
  6
CONTINUOUS
 62
     7
 10
175.959599999999990
 20
272.029200000000000
 40
2.000000000000000
 50
339.500000000000000
  1
260
  0
TEXT
  8
PT3-Wymiarowanie20
  6
CONTINUOUS
 62
     7
 10
174.393000000000000
 20
269.201400000000040
 40
2.000000000000000
 50
339.500000000000000
  1
340
  0
LINE
  8
PT3-Wymiarowanie20
  6
CONTINUOUS
 62
     7
 10
185.7376
 20
266.526200000000020
 11
171.686
 21
271.775200000000040
  0
TEXT
  8
PT3-Wymiarowanie20
  6
CONTINUOUS
 62
     7
 10
187.253099999999990
 20
300.193400000000000
 40
2.000000000000000
 50
339.500000000000000
  1
260
  0
TEXT
  8
PT3-Wymiarowanie20
  6
CONTINUOUS
 62
     7
 10
187.000599999999990
 20
300.248800000000020
 40
2.000000000000000
 50
339.500000000000000
  1

  0
TEXT
  8
PT3-Wymiarowanie20
  6
CONTINUOUS
 62
     7
 10
187.000599999999990
 20
297.248800000000020
 40
2.000000000000000
 50
339.500000000000000
  1
340
  0
LINE
  8
PT3-Wymiarowanie20
  6
CONTINUOUS
 62
     7
 10
196.6131
 20
294.700800000000020
 11
182.5615
 21
299.949799999999980
  0
LINE
  8
PT3-Wymiarowanie20
  6
CONTINUOUS
 62
     7
 10
221.3601
 20
79.104600000000005
 11
221.6928
 21
79.995000000000005
  0
LINE
  8
PT3-Wymiarowanie20
  6
CONTINUOUS
 62
     7
 10
221.0101
 20
78.167800000000000
 11
221.3601
 21
79.104600000000005
  0
LINE
  8
PT3-Wymiarowanie20
  6
CONTINUOUS
 62
     7
 10
222.0428
 20
80.931699999999978
 11
221.6928
 21
79.995000000000005
  0
LINE
  8
PT3-Wymiarowanie20
  6
CONTINUOUS
 62
     7
 10
221.0668
 20
79.747799999999984
 11
221.6535
 21
78.461299999999994
  0
LINE
  8
PT3-Wymiarowanie20
  6
CONTINUOUS
 62
     7
 10
221.3995
 20
80.638199999999983
 11
221.9861
 21
79.351699999999994
  0
LINE
  8
PT3-Wymiarowanie20
  6
CONTINUOUS
 62
     7
 10
220.4234
 20
79.454600000000028
 11
222.2969
 21
78.754500000000007
  0
LINE
  8
PT3-Wymiarowanie20
  6
CONTINUOUS
 62
     7
 10
220.7561
 20
80.345000000000027
 11
222.6296
 21
79.644999999999982
  0
TEXT
  8
PT3-Wymiarowanie20
  6
CONTINUOUS
 62
     7
 10
220.134800000000010
 20
79.972699999999975
 40
2.000000000000000
 50
69.500000000000000
  1
9
  0
TEXT
  8
PT3-Wymiarowanie20
  6
CONTINUOUS
 62
     7
 10
219.723000000000010
 20
81.919300000000021
 40
1.500000000000000
 50
69.500000000000000
  1
5
  0
TEXT
  8
PT3-Wymiarowanie20
  6
CONTINUOUS
 62
     7
 10
223.037399999999990
 20
90.406600000000026
 40
2.000000000000000
 50
69.500000000000000
  1
2,50
  0
LINE
  8
PT3-Wymiarowanie20
  6
CONTINUOUS
 62
     7
 10
221.6928
 20
79.995000000000005
 11
230.4429
 21
103.413599999999970
  0
LINE
  8
PT3-Wymiarowanie20
  6
CONTINUOUS
 62
     7
 10
221.3428
 20
79.058199999999999
 11
221.6928
 21
79.995000000000005
  0
LINE
  8
PT3-Wymiarowanie20
  6
CONTINUOUS
 62
     7
 10
230.7929
 20
104.350399999999980
 11
230.4429
 21
103.413599999999970
  0
LINE
  8
PT3-Wymiarowanie20
  6
CONTINUOUS
 62
     7
 10
221.3995
 20
80.638199999999983
 11
221.9861
 21
79.351699999999994
  0
LINE
  8
PT3-Wymiarowanie20
  6
CONTINUOUS
 62
     7
 10
230.1496
 20
104.056899999999980
 11
230.7362
 21
102.770300000000020
  0
LINE
  8
PT3-Wymiarowanie20
  6
CONTINUOUS
 62
     7
 10
220.7561
 20
80.345000000000027
 11
222.6296
 21
79.644999999999982
  0
LINE
  8
PT3-Wymiarowanie20
  6
CONTINUOUS
 62
     7
 10
229.5062
 20
103.763600000000000
 11
231.3797
 21
103.063600000000010
  0
LINE
  8
PT3-Wymiarowanie20
  6
CONTINUOUS
 62
     7
 10
230.4429
 20
103.413599999999970
 11
231.843
 21
107.160799999999990
  0
LINE
  8
PT3-Wymiarowanie20
  6
CONTINUOUS
 62
     7
 10
230.0929
 20
102.476900000000000
 11
230.4429
 21
103.413599999999970
  0
LINE
  8
PT3-Wymiarowanie20
  6
CONTINUOUS
 62
     7
 10
232.193
 20
108.097500000000030
 11
231.843
 21
107.160799999999990
  0
LINE
  8
PT3-Wymiarowanie20
  6
CONTINUOUS
 62
     7
 10
230.1496
 20
104.056899999999980
 11
230.7362
 21
102.770300000000020
  0
LINE
  8
PT3-Wymiarowanie20
  6
CONTINUOUS
 62
     7
 10
231.5497
 20
107.804100000000010
 11
232.1363
 21
106.517499999999980
  0
LINE
  8
PT3-Wymiarowanie20
  6
CONTINUOUS
 62
     7
 10
229.5062
 20
103.763600000000000
 11
231.3797
 21
103.063600000000010
  0
LINE
  8
PT3-Wymiarowanie20
  6
CONTINUOUS
 62
     7
 10
230.9062
 20
107.510800000000020
 11
232.7797
 21
106.810799999999970
  0
TEXT
  8
PT3-Wymiarowanie20
  6
CONTINUOUS
 62
     7
 10
229.478800000000010
 20
104.923999999999980
 40
2.000000000000000
 50
69.500000000000000
  1
40
  0
TEXT
  8
PT3-Wymiarowanie20
  6
CONTINUOUS
 62
     7
 10
233.362599999999990
 20
118.040900000000020
 40
2.000000000000000
 50
69.500000000000000
  1
2,60
  0
LINE
  8
PT3-Wymiarowanie20
  6
CONTINUOUS
 62
     7
 10
231.843
 20
107.160799999999990
 11
240.9431
 21
131.516300000000000
  0
LINE
  8
PT3-Wymiarowanie20
  6
CONTINUOUS
 62
     7
 10
231.493
 20
106.224100000000020
 11
231.843
 21
107.160799999999990
  0
LINE
  8
PT3-Wymiarowanie20
  6
CONTINUOUS
 62
     7
 10
241.2931
 20
132.452999999999970
 11
240.9431
 21
131.516300000000000
  0
LINE
  8
PT3-Wymiarowanie20
  6
CONTINUOUS
 62
     7
 10
231.5497
 20
107.804100000000010
 11
232.1363
 21
106.517499999999980
  0
LINE
  8
PT3-Wymiarowanie20
  6
CONTINUOUS
 62
     7
 10
240.6498
 20
132.159600000000010
 11
241.2364
 21
130.872999999999990
  0
LINE
  8
PT3-Wymiarowanie20
  6
CONTINUOUS
 62
     7
 10
230.9062
 20
107.510800000000020
 11
232.7797
 21
106.810799999999970
  0
LINE
  8
PT3-Wymiarowanie20
  6
CONTINUOUS
 62
     7
 10
240.0064
 20
131.866300000000020
 11
241.8799
 21
131.166299999999980
  0
LINE
  8
PT3-Wymiarowanie20
  6
CONTINUOUS
 62
     7
 10
240.9431
 20
131.516300000000000
 11
242.3431
 21
135.263199999999980
  0
LINE
  8
PT3-Wymiarowanie20
  6
CONTINUOUS
 62
     7
 10
240.5931
 20
130.579500000000000
 11
240.9431
 21
131.516300000000000
  0
LINE
  8
PT3-Wymiarowanie20
  6
CONTINUOUS
 62
     7
 10
242.6931
 20
136.199999999999990
 11
242.3431
 21
135.263199999999980
  0
LINE
  8
PT3-Wymiarowanie20
  6
CONTINUOUS
 62
     7
 10
240.6498
 20
132.159600000000010
 11
241.2364
 21
130.872999999999990
  0
LINE
  8
PT3-Wymiarowanie20
  6
CONTINUOUS
 62
     7
 10
242.0498
 20
135.906499999999990
 11
242.6365
 21
134.620000000000000
  0
LINE
  8
PT3-Wymiarowanie20
  6
CONTINUOUS
 62
     7
 10
240.0064
 20
131.866300000000020
 11
241.8799
 21
131.166299999999980
  0
LINE
  8
PT3-Wymiarowanie20
  6
CONTINUOUS
 62
     7
 10
241.4064
 20
135.613299999999980
 11
243.2799
 21
134.913200000000020
  0
TEXT
  8
PT3-Wymiarowanie20
  6
CONTINUOUS
 62
     7
 10
239.849500000000010
 20
133.058400000000010
 40
2.000000000000000
 50
69.500000000000000
  1
40
  0
TEXT
  8
PT3-Wymiarowanie20
  6
CONTINUOUS
 62
     7
 10
243.862699999999990
 20
146.143300000000010
 40
2.000000000000000
 50
69.500000000000000
  1
2,60
  0
LINE
  8
PT3-Wymiarowanie20
  6
CONTINUOUS
 62
     7
 10
242.3431
 20
135.263199999999980
 11
251.4432
 21
159.618599999999990
  0
LINE
  8
PT3-Wymiarowanie20
  6
CONTINUOUS
 62
     7
 10
241.9931
 20
134.326500000000010
 11
242.3431
 21
135.263199999999980
  0
LINE
  8
PT3-Wymiarowanie20
  6
CONTINUOUS
 62
     7
 10
251.7932
 20
160.555399999999990
 11
251.4432
 21
159.618599999999990
  0
LINE
  8
PT3-Wymiarowanie20
  6
CONTINUOUS
 62
     7
 10
242.0498
 20
135.906499999999990
 11
242.6365
 21
134.620000000000000
  0
LINE
  8
PT3-Wymiarowanie20
  6
CONTINUOUS
 62
     7
 10
251.1499
 20
160.261900000000000
 11
251.7365
 21
158.975400000000010
  0
LINE
  8
PT3-Wymiarowanie20
  6
CONTINUOUS
 62
     7
 10
241.4064
 20
135.613299999999980
 11
243.2799
 21
134.913200000000020
  0
LINE
  8
PT3-Wymiarowanie20
  6
CONTINUOUS
 62
     7
 10
250.5065
 20
159.968600000000010
 11
252.38
 21
159.268599999999990
  0
LINE
  8
PT3-Wymiarowanie20
  6
CONTINUOUS
 62
     7
 10
251.4432
 20
159.618599999999990
 11
252.8434
 21
163.366099999999990
  0
LINE
  8
PT3-Wymiarowanie20
  6
CONTINUOUS
 62
     7
 10
251.0932
 20
158.681900000000010
 11
251.4432
 21
159.618599999999990
  0
LINE
  8
PT3-Wymiarowanie20
  6
CONTINUOUS
 62
     7
 10
253.1934
 20
164.302899999999990
 11
252.8434
 21
163.366099999999990
  0
LINE
  8
PT3-Wymiarowanie20
  6
CONTINUOUS
 62
     7
 10
251.1499
 20
160.261900000000000
 11
251.7365
 21
158.975400000000010
  0
LINE
  8
PT3-Wymiarowanie20
  6
CONTINUOUS
 62
     7
 10
252.5501
 20
164.009400000000000
 11
253.1367
 21
162.722800000000010
  0
LINE
  8
PT3-Wymiarowanie20
  6
CONTINUOUS
 62
     7
 10
250.5065
 20
159.968600000000010
 11
252.38
 21
159.268599999999990
  0
LINE
  8
PT3-Wymiarowanie20
  6
CONTINUOUS
 62
     7
 10
251.9067
 20
163.716100000000010
 11
253.7802
 21
163.016099999999990
  0
TEXT
  8
PT3-Wymiarowanie20
  6
CONTINUOUS
 62
     7
 10
250.220200000000010
 20
160.987500000000010
 40
2.000000000000000
 50
69.500000000000000
  1
40
  0
TEXT
  8
PT3-Wymiarowanie20
  6
CONTINUOUS
 62
     7
 10
254.363000000000000
 20
174.246199999999990
 40
2.000000000000000
 50
69.500000000000000
  1
2,60
  0
LINE
  8
PT3-Wymiarowanie20
  6
CONTINUOUS
 62
     7
 10
252.8434
 20
163.366099999999990
 11
261.9435
 21
187.721600000000000
  0
LINE
  8
PT3-Wymiarowanie20
  6
CONTINUOUS
 62
     7
 10
252.4934
 20
162.429399999999990
 11
252.8434
 21
163.366099999999990
  0
LINE
  8
PT3-Wymiarowanie20
  6
CONTINUOUS
 62
     7
 10
262.2935
 20
188.658300000000000
 11
261.9435
 21
187.721600000000000
  0
LINE
  8
PT3-Wymiarowanie20
  6
CONTINUOUS
 62
     7
 10
252.5501
 20
164.009400000000000
 11
253.1367
 21
162.722800000000010
  0
LINE
  8
PT3-Wymiarowanie20
  6
CONTINUOUS
 62
     7
 10
261.6502
 20
188.364900000000010
 11
262.2369
 21
187.078300000000010
  0
LINE
  8
PT3-Wymiarowanie20
  6
CONTINUOUS
 62
     7
 10
251.9067
 20
163.716100000000010
 11
253.7802
 21
163.016099999999990
  0
LINE
  8
PT3-Wymiarowanie20
  6
CONTINUOUS
 62
     7
 10
261.0068
 20
188.071599999999990
 11
262.8803
 21
187.371600000000000
  0
LINE
  8
PT3-Wymiarowanie20
  6
CONTINUOUS
 62
     7
 10
261.9435
 20
187.721600000000000
 11
263.3433
 21
191.468099999999990
  0
LINE
  8
PT3-Wymiarowanie20
  6
CONTINUOUS
 62
     7
 10
261.5935
 20
186.784799999999990
 11
261.9435
 21
187.721600000000000
  0
LINE
  8
PT3-Wymiarowanie20
  6
CONTINUOUS
 62
     7
 10
263.6934
 20
192.404799999999990
 11
263.3433
 21
191.468099999999990
  0
LINE
  8
PT3-Wymiarowanie20
  6
CONTINUOUS
 62
     7
 10
261.6502
 20
188.364900000000010
 11
262.2369
 21
187.078300000000010
  0
LINE
  8
PT3-Wymiarowanie20
  6
CONTINUOUS
 62
     7
 10
263.05
 20
192.111300000000000
 11
263.6367
 21
190.824800000000010
  0
LINE
  8
PT3-Wymiarowanie20
  6
CONTINUOUS
 62
     7
 10
261.0068
 20
188.071599999999990
 11
262.8803
 21
187.371600000000000
  0
LINE
  8
PT3-Wymiarowanie20
  6
CONTINUOUS
 62
     7
 10
262.4066
 20
191.818099999999990
 11
264.2801
 21
191.118100000000000
  0
TEXT
  8
PT3-Wymiarowanie20
  6
CONTINUOUS
 62
     7
 10
261.001600000000000
 20
189.224600000000010
 40
2.000000000000000
 50
69.500000000000000
  1
40
  0
TEXT
  8
PT3-Wymiarowanie20
  6
CONTINUOUS
 62
     7
 10
264.863000000000000
 20
202.348199999999990
 40
2.000000000000000
 50
69.500000000000000
  1
2,60
  0
LINE
  8
PT3-Wymiarowanie20
  6
CONTINUOUS
 62
     7
 10
263.3433
 20
191.468099999999990
 11
272.4435
 21
215.823600000000000
  0
LINE
  8
PT3-Wymiarowanie20
  6
CONTINUOUS
 62
     7
 10
262.9933
 20
190.531299999999990
 11
263.3433
 21
191.468099999999990
  0
LINE
  8
PT3-Wymiarowanie20
  6
CONTINUOUS
 62
     7
 10
272.7935
 20
216.760300000000000
 11
272.4435
 21
215.823600000000000
  0
LINE
  8
PT3-Wymiarowanie20
  6
CONTINUOUS
 62
     7
 10
263.05
 20
192.111300000000000
 11
263.6367
 21
190.824800000000010
  0
LINE
  8
PT3-Wymiarowanie20
  6
CONTINUOUS
 62
     7
 10
272.1502
 20
216.466900000000010
 11
272.7368
 21
215.180299999999990
  0
LINE
  8
PT3-Wymiarowanie20
  6
CONTINUOUS
 62
     7
 10
262.4066
 20
191.818099999999990
 11
264.2801
 21
191.118100000000000
  0
LINE
  8
PT3-Wymiarowanie20
  6
CONTINUOUS
 62
     7
 10
271.5067
 20
216.173599999999990
 11
273.3802
 21
215.473600000000000
  0
TEXT
  8
PT3-Wymiarowanie20
  6
CONTINUOUS
 62
     7
 10
270.932799999999990
 20
218.593400000000000
 40
2.000000000000000
 50
69.500000000000000
  1
63
  0
TEXT
  8
PT3-Wymiarowanie20
  6
CONTINUOUS
 62
     7
 10
271.445100000000020
 20
222.122099999999990
 40
1.500000000000000
 50
69.500000000000000
  1
5
  0
LINE
  8
PT3-Wymiarowanie20
  6
CONTINUOUS
 62
     7
 10
272.4435
 20
215.823600000000000
 11
274.664
 21
221.766500000000010
  0
LINE
  8
PT3-Wymiarowanie20
  6
CONTINUOUS
 62
     7
 10
272.0935
 20
214.886799999999990
 11
272.4435
 21
215.823600000000000
  0
LINE
  8
PT3-Wymiarowanie20
  6
CONTINUOUS
 62
     7
 10
275.014
 20
222.703200000000010
 11
274.664
 21
221.766500000000010
  0
LINE
  8
PT3-Wymiarowanie20
  6
CONTINUOUS
 62
     7
 10
272.1502
 20
216.466900000000010
 11
272.7368
 21
215.180299999999990
  0
LINE
  8
PT3-Wymiarowanie20
  6
CONTINUOUS
 62
     7
 10
274.3706
 20
222.409799999999990
 11
274.9573
 21
221.123200000000000
  0
LINE
  8
PT3-Wymiarowanie20
  6
CONTINUOUS
 62
     7
 10
271.5067
 20
216.173599999999990
 11
273.3802
 21
215.473600000000000
  0
LINE
  8
PT3-Wymiarowanie20
  6
CONTINUOUS
 62
     7
 10
273.7272
 20
222.116500000000000
 11
275.6007
 21
221.416500000000010
  0
TEXT
  8
PT3-Wymiarowanie20
  6
CONTINUOUS
 62
     7
 10
275.931600000000000
 20
231.972100000000010
 40
2.000000000000000
 50
69.500000000000000
  1
2,3
  0
LINE
  8
PT3-Wymiarowanie20
  6
CONTINUOUS
 62
     7
 10
274.664
 20
221.766500000000010
 11
282.7141
 21
243.311700000000000
  0
LINE
  8
PT3-Wymiarowanie20
  6
CONTINUOUS
 62
     7
 10
274.314
 20
220.829700000000000
 11
274.664
 21
221.766500000000010
  0
LINE
  8
PT3-Wymiarowanie20
  6
CONTINUOUS
 62
     7
 10
283.0641
 20
244.248400000000000
 11
282.7141
 21
243.311700000000000
  0
LINE
  8
PT3-Wymiarowanie20
  6
CONTINUOUS
 62
     7
 10
274.3706
 20
222.409799999999990
 11
274.9573
 21
221.123200000000000
  0
LINE
  8
PT3-Wymiarowanie20
  6
CONTINUOUS
 62
     7
 10
282.4207
 20
243.955000000000010
 11
283.0074
 21
242.668399999999990
  0
LINE
  8
PT3-Wymiarowanie20
  6
CONTINUOUS
 62
     7
 10
273.7272
 20
222.116500000000000
 11
275.6007
 21
221.416500000000010
  0
LINE
  8
PT3-Wymiarowanie20
  6
CONTINUOUS
 62
     7
 10
281.7773
 20
243.661700000000000
 11
283.6508
 21
242.961700000000010
  0
LINE
  8
PT3-Wymiarowanie20
  6
CONTINUOUS
 62
     7
 10
282.7141
 20
243.311700000000000
 11
284.3438
 21
247.673499999999990
  0
LINE
  8
PT3-Wymiarowanie20
  6
CONTINUOUS
 62
     7
 10
282.3641
 20
242.374900000000000
 11
282.7141
 21
243.311700000000000
  0
LINE
  8
PT3-Wymiarowanie20
  6
CONTINUOUS
 62
     7
 10
284.6938
 20
248.610199999999990
 11
284.3438
 21
247.673499999999990
  0
LINE
  8
PT3-Wymiarowanie20
  6
CONTINUOUS
 62
     7
 10
282.4207
 20
243.955000000000010
 11
283.0074
 21
242.668399999999990
  0
LINE
  8
PT3-Wymiarowanie20
  6
CONTINUOUS
 62
     7
 10
284.0505
 20
248.316700000000000
 11
284.6371
 21
247.030200000000010
  0
LINE
  8
PT3-Wymiarowanie20
  6
CONTINUOUS
 62
     7
 10
281.7773
 20
243.661700000000000
 11
283.6508
 21
242.961700000000010
  0
LINE
  8
PT3-Wymiarowanie20
  6
CONTINUOUS
 62
     7
 10
283.407
 20
248.023500000000010
 11
285.2805
 21
247.323500000000000
  0
TEXT
  8
PT3-Wymiarowanie20
  6
CONTINUOUS
 62
     7
 10
281.537699999999970
 20
245.082699999999990
 40
2.000000000000000
 50
69.500000000000000
  1
46
  0
TEXT
  8
PT3-Wymiarowanie20
  6
CONTINUOUS
 62
     7
 10
281.757799999999970
 20
248.720599999999990
 40
1.500000000000000
 50
69.500000000000000
  1
5
  0
TEXT
  8
PT3-Wymiarowanie20
  6
CONTINUOUS
 62
     7
 10
285.863400000000010
 20
258.553499999999990
 40
2.000000000000000
 50
69.500000000000000
  1
2,60
  0
LINE
  8
PT3-Wymiarowanie20
  6
CONTINUOUS
 62
     7
 10
284.3438
 20
247.673499999999990
 11
293.4439
 21
272.028900000000020
  0
LINE
  8
PT3-Wymiarowanie20
  6
CONTINUOUS
 62
     7
 10
283.9938
 20
246.736700000000010
 11
284.3438
 21
247.673499999999990
  0
LINE
  8
PT3-Wymiarowanie20
  6
CONTINUOUS
 62
     7
 10
293.7939
 20
272.965599999999990
 11
293.4439
 21
272.028900000000020
  0
LINE
  8
PT3-Wymiarowanie20
  6
CONTINUOUS
 62
     7
 10
284.0505
 20
248.316700000000000
 11
284.6371
 21
247.030200000000010
  0
LINE
  8
PT3-Wymiarowanie20
  6
CONTINUOUS
 62
     7
 10
293.1506
 20
272.672100000000000
 11
293.7372
 21
271.385600000000010
  0
LINE
  8
PT3-Wymiarowanie20
  6
CONTINUOUS
 62
     7
 10
283.407
 20
248.023500000000010
 11
285.2805
 21
247.323500000000000
  0
LINE
  8
PT3-Wymiarowanie20
  6
CONTINUOUS
 62
     7
 10
292.5071
 20
272.378899999999990
 11
294.3806
 21
271.678800000000020
  0
LINE
  8
PT3-Wymiarowanie20
  6
CONTINUOUS
 62
     7
 10
293.4439
 20
272.028900000000020
 11
293.81
 21
273.008699999999980
  0
LINE
  8
PT3-Wymiarowanie20
  6
CONTINUOUS
 62
     7
 10
293.0939
 20
271.092099999999960
 11
293.4439
 21
272.028900000000020
  0
LINE
  8
PT3-Wymiarowanie20
  6
CONTINUOUS
 62
     7
 10
294.16
 20
273.945400000000010
 11
293.81
 21
273.008699999999980
  0
LINE
  8
PT3-Wymiarowanie20
  6
CONTINUOUS
 62
     7
 10
293.1506
 20
272.672100000000000
 11
293.7372
 21
271.385600000000010
  0
LINE
  8
PT3-Wymiarowanie20
  6
CONTINUOUS
 62
     7
 10
293.5167
 20
273.651999999999990
 11
294.1033
 21
272.365400000000020
  0
LINE
  8
PT3-Wymiarowanie20
  6
CONTINUOUS
 62
     7
 10
292.5071
 20
272.378899999999990
 11
294.3806
 21
271.678800000000020
  0
LINE
  8
PT3-Wymiarowanie20
  6
CONTINUOUS
 62
     7
 10
292.8732
 20
273.358700000000000
 11
294.7467
 21
272.658700000000010
  0
TEXT
  8
PT3-Wymiarowanie20
  6
CONTINUOUS
 62
     7
 10
290.984300000000020
 20
270.444799999999990
 40
2.000000000000000
 50
69.500000000000000
  1
10
  0
TEXT
  8
PT3-Wymiarowanie20
  6
CONTINUOUS
 62
     7
 10
291.204400000000020
 20
274.082600000000010
 40
1.500000000000000
 50
69.500000000000000
  1
5
  0
TEXT
  8
PT4-Schody26
  6
CONTINUOUS
 62
     7
 10
370.953199999999980
 20
254.043399999999990
 40
2.000000000000000
 50
69.500000000000000
  1
10 
  0
TEXT
  8
PT4-Schody26
  6
CONTINUOUS
 62
     7
 10
370.953199999999980
 20
251.043399999999990
 40
2.000000000000000
 50
69.500000000000000
  1
Stp.15.8/33.3
  0
LINE
  8
PT6-Rzut39
  6
CONTINUOUS
 62
     7
 10
236.1385
 20
313.340000000000030
 11
237.9409
 21
314.163799999999980
  0
LINE
  8
PT6-Rzut39
  6
CONTINUOUS
 62
     7
 10
237.0485
 20
315.775600000000000
 11
238.8509
 21
316.599400000000000
  0
LINE
  8
PT6-Rzut39
  6
CONTINUOUS
 62
     7
 10
282.1289
 20
309.286900000000000
 11
283.9312
 21
310.110700000000010
  0
LINE
  8
PT6-Rzut39
  6
CONTINUOUS
 62
     7
 10
283.0389
 20
311.722499999999970
 11
284.8412
 21
312.546299999999970
  0
LINE
  8
PT6-Rzut39
  6
CONTINUOUS
 62
     7
 10
283.9489
 20
314.158000000000020
 11
285.7521
 21
314.984199999999990
  0
LINE
  8
PT6-Rzut39
  6
CONTINUOUS
 62
     7
 10
320.5137
 20
284.592600000000000
 11
322.316
 21
285.416299999999980
  0
LINE
  8
PT6-Rzut39
  6
CONTINUOUS
 62
     7
 10
319.6037
 20
282.157100000000010
 11
321.4038
 21
282.978999999999980
  0
TEXT
  8
PT5-Wymiarowanie33
  6
CONTINUOUS
 62
     7
 10
385.202400000000010
 20
212.392699999999990
 40
2.000000000000000
 50
429.600000000000020
  1
1,10
  0
LINE
  8
PT5-Wymiarowanie33
  6
CONTINUOUS
 62
     7
 10
390.1579
 20
221.127900000000010
 11
386.3228
 21
210.818600000000000
  0
LINE
  8
PT5-Wymiarowanie33
  6
CONTINUOUS
 62
     7
 10
390.5066
 20
222.065100000000000
 11
390.1579
 21
221.127900000000010
  0
LINE
  8
PT5-Wymiarowanie33
  6
CONTINUOUS
 62
     7
 10
385.9741
 20
209.881400000000010
 11
386.3228
 21
210.818600000000000
  0
LINE
  8
PT5-Wymiarowanie33
  6
CONTINUOUS
 62
     7
 10
390.4522
 20
220.485000000000010
 11
389.8637
 21
221.770800000000010
  0
LINE
  8
PT5-Wymiarowanie33
  6
CONTINUOUS
 62
     7
 10
386.617
 20
210.175800000000010
 11
386.0285
 21
211.461500000000000
  0
LINE
  8
PT5-Wymiarowanie33
  6
CONTINUOUS
 62
     7
 10
391.0952
 20
220.779200000000000
 11
389.2207
 21
221.476599999999990
  0
LINE
  8
PT5-Wymiarowanie33
  6
CONTINUOUS
 62
     7
 10
387.26
 20
210.470000000000000
 11
385.3855
 21
211.167300000000010
  0
LINE
  8
PT5-Wymiarowanie33
  6
CONTINUOUS
 62
     7
 10
386.3228
 20
210.818600000000000
 11
384.9281
 21
207.069700000000010
  0
LINE
  8
PT5-Wymiarowanie33
  6
CONTINUOUS
 62
     7
 10
386.6714
 20
211.755900000000000
 11
386.3228
 21
210.818600000000000
  0
LINE
  8
PT5-Wymiarowanie33
  6
CONTINUOUS
 62
     7
 10
384.5794
 20
206.132399999999990
 11
384.9281
 21
207.069700000000010
  0
LINE
  8
PT5-Wymiarowanie33
  6
CONTINUOUS
 62
     7
 10
386.617
 20
210.175800000000010
 11
386.0285
 21
211.461500000000000
  0
LINE
  8
PT5-Wymiarowanie33
  6
CONTINUOUS
 62
     7
 10
385.2224
 20
206.426799999999990
 11
384.6339
 21
207.712500000000010
  0
LINE
  8
PT5-Wymiarowanie33
  6
CONTINUOUS
 62
     7
 10
387.26
 20
210.470000000000000
 11
385.3855
 21
211.167300000000010
  0
LINE
  8
PT5-Wymiarowanie33
  6
CONTINUOUS
 62
     7
 10
385.8654
 20
206.721000000000000
 11
383.9909
 21
207.418299999999990
  0
TEXT
  8
PT5-Wymiarowanie33
  6
CONTINUOUS
 62
     7
 10
383.649200000000010
 20
206.367899999999990
 40
2.000000000000000
 50
429.600000000000020
  1
40
  0
TEXT
  8
PT5-Wymiarowanie33
  6
CONTINUOUS
 62
     7
 10
379.972500000000030
 20
198.334200000000010
 40
2.000000000000000
 50
429.600000000000020
  1
1,10
  0
LINE
  8
PT5-Wymiarowanie33
  6
CONTINUOUS
 62
     7
 10
384.9281
 20
207.069700000000010
 11
381.0927
 21
196.759899999999990
  0
LINE
  8
PT5-Wymiarowanie33
  6
CONTINUOUS
 62
     7
 10
385.2768
 20
208.006900000000000
 11
384.9281
 21
207.069700000000010
  0
LINE
  8
PT5-Wymiarowanie33
  6
CONTINUOUS
 62
     7
 10
380.7441
 20
195.822700000000000
 11
381.0927
 21
196.759899999999990
  0
LINE
  8
PT5-Wymiarowanie33
  6
CONTINUOUS
 62
     7
 10
385.2224
 20
206.426799999999990
 11
384.6339
 21
207.712500000000010
  0
LINE
  8
PT5-Wymiarowanie33
  6
CONTINUOUS
 62
     7
 10
381.387
 20
196.117099999999990
 11
380.7985
 21
197.402800000000010
  0
LINE
  8
PT5-Wymiarowanie33
  6
CONTINUOUS
 62
     7
 10
385.8654
 20
206.721000000000000
 11
383.9909
 21
207.418299999999990
  0
LINE
  8
PT5-Wymiarowanie33
  6
CONTINUOUS
 62
     7
 10
382.03
 20
196.411200000000010
 11
380.1555
 21
197.108600000000000
  0
LINE
  8
PT5-Wymiarowanie33
  6
CONTINUOUS
 62
     7
 10
381.0927
 20
196.759899999999990
 11
379.6981
 21
193.011000000000000
  0
LINE
  8
PT5-Wymiarowanie33
  6
CONTINUOUS
 62
     7
 10
381.4414
 20
197.697200000000010
 11
381.0927
 21
196.759899999999990
  0
LINE
  8
PT5-Wymiarowanie33
  6
CONTINUOUS
 62
     7
 10
379.3494
 20
192.073700000000000
 11
379.6981
 21
193.011000000000000
  0
LINE
  8
PT5-Wymiarowanie33
  6
CONTINUOUS
 62
     7
 10
381.387
 20
196.117099999999990
 11
380.7985
 21
197.402800000000010
  0
LINE
  8
PT5-Wymiarowanie33
  6
CONTINUOUS
 62
     7
 10
379.9923
 20
192.368100000000000
 11
379.4038
 21
193.653799999999990
  0
LINE
  8
PT5-Wymiarowanie33
  6
CONTINUOUS
 62
     7
 10
382.03
 20
196.411200000000010
 11
380.1555
 21
197.108600000000000
  0
LINE
  8
PT5-Wymiarowanie33
  6
CONTINUOUS
 62
     7
 10
380.6353
 20
192.662299999999990
 11
378.7608
 21
193.359600000000000
  0
TEXT
  8
PT5-Wymiarowanie33
  6
CONTINUOUS
 62
     7
 10
378.646099999999990
 20
192.165500000000010
 40
2.000000000000000
 50
429.600000000000020
  1
40
  0
TEXT
  8
PT5-Wymiarowanie33
  6
CONTINUOUS
 62
     7
 10
374.742399999999980
 20
184.275499999999990
 40
2.000000000000000
 50
429.600000000000020
  1
1,10
  0
LINE
  8
PT5-Wymiarowanie33
  6
CONTINUOUS
 62
     7
 10
379.6981
 20
193.011000000000000
 11
375.8627
 21
182.701300000000000
  0
LINE
  8
PT5-Wymiarowanie33
  6
CONTINUOUS
 62
     7
 10
380.0467
 20
193.948200000000010
 11
379.6981
 21
193.011000000000000
  0
LINE
  8
PT5-Wymiarowanie33
  6
CONTINUOUS
 62
     7
 10
375.5141
 20
181.764000000000010
 11
375.8627
 21
182.701300000000000
  0
LINE
  8
PT5-Wymiarowanie33
  6
CONTINUOUS
 62
     7
 10
379.9923
 20
192.368100000000000
 11
379.4038
 21
193.653799999999990
  0
LINE
  8
PT5-Wymiarowanie33
  6
CONTINUOUS
 62
     7
 10
376.157
 20
182.058400000000010
 11
375.5685
 21
183.344100000000000
  0
LINE
  8
PT5-Wymiarowanie33
  6
CONTINUOUS
 62
     7
 10
380.6353
 20
192.662299999999990
 11
378.7608
 21
193.359600000000000
  0
LINE
  8
PT5-Wymiarowanie33
  6
CONTINUOUS
 62
     7
 10
376.8
 20
182.352600000000000
 11
374.9255
 21
183.049900000000010
  0
LINE
  8
PT5-Wymiarowanie33
  6
CONTINUOUS
 62
     7
 10
375.8627
 20
182.701300000000000
 11
374.4681
 21
178.952400000000010
  0
LINE
  8
PT5-Wymiarowanie33
  6
CONTINUOUS
 62
     7
 10
376.2114
 20
183.638499999999990
 11
375.8627
 21
182.701300000000000
  0
LINE
  8
PT5-Wymiarowanie33
  6
CONTINUOUS
 62
     7
 10
374.1194
 20
178.015199999999990
 11
374.4681
 21
178.952400000000010
  0
LINE
  8
PT5-Wymiarowanie33
  6
CONTINUOUS
 62
     7
 10
376.157
 20
182.058400000000010
 11
375.5685
 21
183.344100000000000
  0
LINE
  8
PT5-Wymiarowanie33
  6
CONTINUOUS
 62
     7
 10
374.7624
 20
178.309500000000010
 11
374.1739
 21
179.595300000000010
  0
LINE
  8
PT5-Wymiarowanie33
  6
CONTINUOUS
 62
     7
 10
376.8
 20
182.352600000000000
 11
374.9255
 21
183.049900000000010
  0
LINE
  8
PT5-Wymiarowanie33
  6
CONTINUOUS
 62
     7
 10
375.4054
 20
178.603700000000000
 11
373.5309
 21
179.301099999999990
  0
TEXT
  8
PT5-Wymiarowanie33
  6
CONTINUOUS
 62
     7
 10
373.078100000000010
 20
178.124500000000010
 40
2.000000000000000
 50
429.600000000000020
  1
40
  0
TEXT
  8
PT5-Wymiarowanie33
  6
CONTINUOUS
 62
     7
 10
369.512499999999990
 20
170.216900000000010
 40
2.000000000000000
 50
429.600000000000020
  1
1,10
  0
LINE
  8
PT5-Wymiarowanie33
  6
CONTINUOUS
 62
     7
 10
374.4681
 20
178.952400000000010
 11
370.6327
 21
168.642599999999990
  0
LINE
  8
PT5-Wymiarowanie33
  6
CONTINUOUS
 62
     7
 10
374.8168
 20
179.889600000000000
 11
374.4681
 21
178.952400000000010
  0
LINE
  8
PT5-Wymiarowanie33
  6
CONTINUOUS
 62
     7
 10
370.2841
 20
167.705400000000000
 11
370.6327
 21
168.642599999999990
  0
LINE
  8
PT5-Wymiarowanie33
  6
CONTINUOUS
 62
     7
 10
374.7624
 20
178.309500000000010
 11
374.1739
 21
179.595300000000010
  0
LINE
  8
PT5-Wymiarowanie33
  6
CONTINUOUS
 62
     7
 10
370.927
 20
167.999799999999990
 11
370.3385
 21
169.285500000000010
  0
LINE
  8
PT5-Wymiarowanie33
  6
CONTINUOUS
 62
     7
 10
375.4054
 20
178.603700000000000
 11
373.5309
 21
179.301099999999990
  0
LINE
  8
PT5-Wymiarowanie33
  6
CONTINUOUS
 62
     7
 10
371.57
 20
168.294000000000010
 11
369.6955
 21
168.991300000000000
  0
LINE
  8
PT5-Wymiarowanie33
  6
CONTINUOUS
 62
     7
 10
370.6327
 20
168.642599999999990
 11
369.2381
 21
164.893700000000000
  0
LINE
  8
PT5-Wymiarowanie33
  6
CONTINUOUS
 62
     7
 10
370.9814
 20
169.579900000000010
 11
370.6327
 21
168.642599999999990
  0
LINE
  8
PT5-Wymiarowanie33
  6
CONTINUOUS
 62
     7
 10
368.8894
 20
163.956400000000000
 11
369.2381
 21
164.893700000000000
  0
LINE
  8
PT5-Wymiarowanie33
  6
CONTINUOUS
 62
     7
 10
370.927
 20
167.999799999999990
 11
370.3385
 21
169.285500000000010
  0
LINE
  8
PT5-Wymiarowanie33
  6
CONTINUOUS
 62
     7
 10
369.5323
 20
164.250800000000000
 11
368.9438
 21
165.536499999999990
  0
LINE
  8
PT5-Wymiarowanie33
  6
CONTINUOUS
 62
     7
 10
371.57
 20
168.294000000000010
 11
369.6955
 21
168.991300000000000
  0
LINE
  8
PT5-Wymiarowanie33
  6
CONTINUOUS
 62
     7
 10
370.1753
 20
164.544999999999990
 11
368.3008
 21
165.242300000000000
  0
TEXT
  8
PT5-Wymiarowanie33
  6
CONTINUOUS
 62
     7
 10
367.833000000000030
 20
164.244900000000000
 40
2.000000000000000
 50
429.600000000000020
  1
40
  0
TEXT
  8
PT5-Wymiarowanie33
  6
CONTINUOUS
 62
     7
 10
364.282400000000000
 20
156.158199999999990
 40
2.000000000000000
 50
429.600000000000020
  1
1,10
  0
LINE
  8
PT5-Wymiarowanie33
  6
CONTINUOUS
 62
     7
 10
369.2381
 20
164.893700000000000
 11
365.4028
 21
154.584000000000000
  0
LINE
  8
PT5-Wymiarowanie33
  6
CONTINUOUS
 62
     7
 10
369.5868
 20
165.830900000000010
 11
369.2381
 21
164.893700000000000
  0
LINE
  8
PT5-Wymiarowanie33
  6
CONTINUOUS
 62
     7
 10
365.0541
 20
153.646800000000010
 11
365.4028
 21
154.584000000000000
  0
LINE
  8
PT5-Wymiarowanie33
  6
CONTINUOUS
 62
     7
 10
369.5323
 20
164.250800000000000
 11
368.9438
 21
165.536499999999990
  0
LINE
  8
PT5-Wymiarowanie33
  6
CONTINUOUS
 62
     7
 10
365.697
 20
153.941100000000010
 11
365.1085
 21
155.226900000000000
  0
LINE
  8
PT5-Wymiarowanie33
  6
CONTINUOUS
 62
     7
 10
370.1753
 20
164.544999999999990
 11
368.3008
 21
165.242300000000000
  0
LINE
  8
PT5-Wymiarowanie33
  6
CONTINUOUS
 62
     7
 10
366.34
 20
154.235300000000000
 11
364.4655
 21
154.932700000000010
  0
LINE
  8
PT5-Wymiarowanie33
  6
CONTINUOUS
 62
     7
 10
365.4028
 20
154.584000000000000
 11
364.0081
 21
150.835000000000010
  0
LINE
  8
PT5-Wymiarowanie33
  6
CONTINUOUS
 62
     7
 10
365.7514
 20
155.521199999999990
 11
365.4028
 21
154.584000000000000
  0
LINE
  8
PT5-Wymiarowanie33
  6
CONTINUOUS
 62
     7
 10
363.6594
 20
149.897799999999990
 11
364.0081
 21
150.835000000000010
  0
LINE
  8
PT5-Wymiarowanie33
  6
CONTINUOUS
 62
     7
 10
365.697
 20
153.941100000000010
 11
365.1085
 21
155.226900000000000
  0
LINE
  8
PT5-Wymiarowanie33
  6
CONTINUOUS
 62
     7
 10
364.3023
 20
150.192200000000010
 11
363.7138
 21
151.477900000000010
  0
LINE
  8
PT5-Wymiarowanie33
  6
CONTINUOUS
 62
     7
 10
366.34
 20
154.235300000000000
 11
364.4655
 21
154.932700000000010
  0
LINE
  8
PT5-Wymiarowanie33
  6
CONTINUOUS
 62
     7
 10
364.9453
 20
150.486400000000000
 11
363.0708
 21
151.183699999999990
  0
TEXT
  8
PT5-Wymiarowanie33
  6
CONTINUOUS
 62
     7
 10
362.345700000000020
 20
149.961800000000010
 40
2.000000000000000
 50
429.600000000000020
  1
40
  0
TEXT
  8
PT5-Wymiarowanie33
  6
CONTINUOUS
 62
     7
 10
359.052399999999980
 20
142.099500000000030
 40
2.000000000000000
 50
429.600000000000020
  1
1,10
  0
LINE
  8
PT5-Wymiarowanie33
  6
CONTINUOUS
 62
     7
 10
364.0081
 20
150.835000000000010
 11
360.1727
 21
140.525199999999980
  0
LINE
  8
PT5-Wymiarowanie33
  6
CONTINUOUS
 62
     7
 10
364.3568
 20
151.772300000000000
 11
364.0081
 21
150.835000000000010
  0
LINE
  8
PT5-Wymiarowanie33
  6
CONTINUOUS
 62
     7
 10
359.824
 20
139.588000000000020
 11
360.1727
 21
140.525199999999980
  0
LINE
  8
PT5-Wymiarowanie33
  6
CONTINUOUS
 62
     7
 10
364.3023
 20
150.192200000000010
 11
363.7138
 21
151.477900000000010
  0
LINE
  8
PT5-Wymiarowanie33
  6
CONTINUOUS
 62
     7
 10
360.467
 20
139.882400000000020
 11
359.8785
 21
141.168099999999980
  0
LINE
  8
PT5-Wymiarowanie33
  6
CONTINUOUS
 62
     7
 10
364.9453
 20
150.486400000000000
 11
363.0708
 21
151.183699999999990
  0
LINE
  8
PT5-Wymiarowanie33
  6
CONTINUOUS
 62
     7
 10
361.11
 20
140.176600000000010
 11
359.2355
 21
140.873899999999990
  0
LINE
  8
PT5-Wymiarowanie33
  6
CONTINUOUS
 62
     7
 10
360.1727
 20
140.525199999999980
 11
358.778
 21
136.776299999999990
  0
LINE
  8
PT5-Wymiarowanie33
  6
CONTINUOUS
 62
     7
 10
360.5214
 20
141.462499999999980
 11
360.1727
 21
140.525199999999980
  0
LINE
  8
PT5-Wymiarowanie33
  6
CONTINUOUS
 62
     7
 10
358.4294
 20
135.839000000000000
 11
358.778
 21
136.776299999999990
  0
LINE
  8
PT5-Wymiarowanie33
  6
CONTINUOUS
 62
     7
 10
360.467
 20
139.882400000000020
 11
359.8785
 21
141.168099999999980
  0
LINE
  8
PT5-Wymiarowanie33
  6
CONTINUOUS
 62
     7
 10
359.0723
 20
136.133399999999990
 11
358.4838
 21
137.419100000000010
  0
LINE
  8
PT5-Wymiarowanie33
  6
CONTINUOUS
 62
     7
 10
361.11
 20
140.176600000000010
 11
359.2355
 21
140.873899999999990
  0
LINE
  8
PT5-Wymiarowanie33
  6
CONTINUOUS
 62
     7
 10
359.7153
 20
136.427599999999980
 11
357.8408
 21
137.124900000000030
  0
TEXT
  8
PT5-Wymiarowanie33
  6
CONTINUOUS
 62
     7
 10
357.181199999999990
 20
136.163000000000010
 40
2.000000000000000
 50
429.600000000000020
  1
40
  0
TEXT
  8
PT5-Wymiarowanie33
  6
CONTINUOUS
 62
     7
 10
353.822400000000020
 20
128.040799999999990
 40
2.000000000000000
 50
429.600000000000020
  1
1,10
  0
LINE
  8
PT5-Wymiarowanie33
  6
CONTINUOUS
 62
     7
 10
358.778
 20
136.776299999999990
 11
354.9427
 21
126.466600000000030
  0
LINE
  8
PT5-Wymiarowanie33
  6
CONTINUOUS
 62
     7
 10
359.1267
 20
137.713500000000010
 11
358.778
 21
136.776299999999990
  0
LINE
  8
PT5-Wymiarowanie33
  6
CONTINUOUS
 62
     7
 10
354.594
 20
125.529400000000010
 11
354.9427
 21
126.466600000000030
  0
LINE
  8
PT5-Wymiarowanie33
  6
CONTINUOUS
 62
     7
 10
359.0723
 20
136.133399999999990
 11
358.4838
 21
137.419100000000010
  0
LINE
  8
PT5-Wymiarowanie33
  6
CONTINUOUS
 62
     7
 10
355.237
 20
125.823699999999970
 11
354.6485
 21
127.109500000000030
  0
LINE
  8
PT5-Wymiarowanie33
  6
CONTINUOUS
 62
     7
 10
359.7153
 20
136.427599999999980
 11
357.8408
 21
137.124900000000030
  0
LINE
  8
PT5-Wymiarowanie33
  6
CONTINUOUS
 62
     7
 10
355.88
 20
126.117900000000020
 11
354.0055
 21
126.815299999999980
  0
LINE
  8
PT5-Wymiarowanie33
  6
CONTINUOUS
 62
     7
 10
354.9427
 20
126.466600000000030
 11
353.548
 21
122.717600000000000
  0
LINE
  8
PT5-Wymiarowanie33
  6
CONTINUOUS
 62
     7
 10
355.2914
 20
127.403799999999990
 11
354.9427
 21
126.466600000000030
  0
LINE
  8
PT5-Wymiarowanie33
  6
CONTINUOUS
 62
     7
 10
353.1994
 20
121.780300000000010
 11
353.548
 21
122.717600000000000
  0
LINE
  8
PT5-Wymiarowanie33
  6
CONTINUOUS
 62
     7
 10
355.237
 20
125.823699999999970
 11
354.6485
 21
127.109500000000030
  0
LINE
  8
PT5-Wymiarowanie33
  6
CONTINUOUS
 62
     7
 10
353.8423
 20
122.074700000000010
 11
353.2538
 21
123.360400000000030
  0
LINE
  8
PT5-Wymiarowanie33
  6
CONTINUOUS
 62
     7
 10
355.88
 20
126.117900000000020
 11
354.0055
 21
126.815299999999980
  0
LINE
  8
PT5-Wymiarowanie33
  6
CONTINUOUS
 62
     7
 10
354.4853
 20
122.368900000000000
 11
352.6108
 21
123.066199999999980
  0
TEXT
  8
PT5-Wymiarowanie33
  6
CONTINUOUS
 62
     7
 10
351.613200000000010
 20
122.041299999999980
 40
2.000000000000000
 50
429.600000000000020
  1
40
  0
TEXT
  8
PT5-Wymiarowanie33
  6
CONTINUOUS
 62
     7
 10
348.592400000000000
 20
113.982000000000030
 40
2.000000000000000
 50
429.600000000000020
  1
1,10
  0
LINE
  8
PT5-Wymiarowanie33
  6
CONTINUOUS
 62
     7
 10
353.548
 20
122.717600000000000
 11
349.7126
 21
112.407699999999980
  0
LINE
  8
PT5-Wymiarowanie33
  6
CONTINUOUS
 62
     7
 10
353.8967
 20
123.654800000000020
 11
353.548
 21
122.717600000000000
  0
LINE
  8
PT5-Wymiarowanie33
  6
CONTINUOUS
 62
     7
 10
349.364
 20
111.470500000000020
 11
349.7126
 21
112.407699999999980
  0
LINE
  8
PT5-Wymiarowanie33
  6
CONTINUOUS
 62
     7
 10
353.8423
 20
122.074700000000010
 11
353.2538
 21
123.360400000000030
  0
LINE
  8
PT5-Wymiarowanie33
  6
CONTINUOUS
 62
     7
 10
350.0069
 20
111.764900000000010
 11
349.4184
 21
113.050599999999970
  0
LINE
  8
PT5-Wymiarowanie33
  6
CONTINUOUS
 62
     7
 10
354.4853
 20
122.368900000000000
 11
352.6108
 21
123.066199999999980
  0
LINE
  8
PT5-Wymiarowanie33
  6
CONTINUOUS
 62
     7
 10
350.6499
 20
112.059100000000000
 11
348.7754
 21
112.756399999999990
  0
LINE
  8
PT5-Wymiarowanie33
  6
CONTINUOUS
 62
     7
 10
349.7126
 20
112.407699999999980
 11
348.318
 21
108.658900000000020
  0
LINE
  8
PT5-Wymiarowanie33
  6
CONTINUOUS
 62
     7
 10
350.0613
 20
113.345000000000030
 11
349.7126
 21
112.407699999999980
  0
LINE
  8
PT5-Wymiarowanie33
  6
CONTINUOUS
 62
     7
 10
347.9694
 20
107.721700000000000
 11
348.318
 21
108.658900000000020
  0
LINE
  8
PT5-Wymiarowanie33
  6
CONTINUOUS
 62
     7
 10
350.0069
 20
111.764900000000010
 11
349.4184
 21
113.050599999999970
  0
LINE
  8
PT5-Wymiarowanie33
  6
CONTINUOUS
 62
     7
 10
348.6123
 20
108.016099999999990
 11
348.0238
 21
109.301800000000010
  0
LINE
  8
PT5-Wymiarowanie33
  6
CONTINUOUS
 62
     7
 10
350.6499
 20
112.059100000000000
 11
348.7754
 21
112.756399999999990
  0
LINE
  8
PT5-Wymiarowanie33
  6
CONTINUOUS
 62
     7
 10
349.2553
 20
108.310200000000010
 11
347.3808
 21
109.007600000000020
  0
TEXT
  8
PT5-Wymiarowanie33
  6
CONTINUOUS
 62
     7
 10
346.690800000000020
 20
108.161700000000000
 40
2.000000000000000
 50
429.600000000000020
  1
40
  0
TEXT
  8
PT5-Wymiarowanie33
  6
CONTINUOUS
 62
     7
 10
343.362399999999980
 20
99.923499999999990
 40
2.000000000000000
 50
429.600000000000020
  1
1,10
  0
LINE
  8
PT5-Wymiarowanie33
  6
CONTINUOUS
 62
     7
 10
348.318
 20
108.658900000000020
 11
344.4827
 21
98.349199999999996
  0
LINE
  8
PT5-Wymiarowanie33
  6
CONTINUOUS
 62
     7
 10
348.6667
 20
109.596200000000010
 11
348.318
 21
108.658900000000020
  0
LINE
  8
PT5-Wymiarowanie33
  6
CONTINUOUS
 62
     7
 10
344.134
 20
97.411999999999978
 11
344.4827
 21
98.349199999999996
  0
LINE
  8
PT5-Wymiarowanie33
  6
CONTINUOUS
 62
     7
 10
348.6123
 20
108.016099999999990
 11
348.0238
 21
109.301800000000010
  0
LINE
  8
PT5-Wymiarowanie33
  6
CONTINUOUS
 62
     7
 10
344.7769
 20
97.706399999999974
 11
344.1884
 21
98.992099999999994
  0
LINE
  8
PT5-Wymiarowanie33
  6
CONTINUOUS
 62
     7
 10
349.2553
 20
108.310200000000010
 11
347.3808
 21
109.007600000000020
  0
LINE
  8
PT5-Wymiarowanie33
  6
CONTINUOUS
 62
     7
 10
345.4199
 20
98.000600000000020
 11
343.5454
 21
98.697900000000004
  0
LINE
  8
PT5-Wymiarowanie33
  6
CONTINUOUS
 62
     7
 10
344.4827
 20
98.349199999999996
 11
343.088
 21
94.600300000000004
  0
LINE
  8
PT5-Wymiarowanie33
  6
CONTINUOUS
 62
     7
 10
344.8314
 20
99.286499999999990
 11
344.4827
 21
98.349199999999996
  0
LINE
  8
PT5-Wymiarowanie33
  6
CONTINUOUS
 62
     7
 10
342.7394
 20
93.663000000000011
 11
343.088
 21
94.600300000000004
  0
LINE
  8
PT5-Wymiarowanie33
  6
CONTINUOUS
 62
     7
 10
344.7769
 20
97.706399999999974
 11
344.1884
 21
98.992099999999994
  0
LINE
  8
PT5-Wymiarowanie33
  6
CONTINUOUS
 62
     7
 10
343.3823
 20
93.957400000000007
 11
342.7938
 21
95.243100000000027
  0
LINE
  8
PT5-Wymiarowanie33
  6
CONTINUOUS
 62
     7
 10
345.4199
 20
98.000600000000020
 11
343.5454
 21
98.697900000000004
  0
LINE
  8
PT5-Wymiarowanie33
  6
CONTINUOUS
 62
     7
 10
344.0253
 20
94.251599999999996
 11
342.1508
 21
94.948899999999981
  0
TEXT
  8
PT5-Wymiarowanie33
  6
CONTINUOUS
 62
     7
 10
341.364899999999980
 20
93.797900000000027
 40
2.000000000000000
 50
429.600000000000020
  1
40
  0
TEXT
  8
PT5-Wymiarowanie33
  6
CONTINUOUS
 62
     7
 10
338.132400000000020
 20
85.864800000000002
 40
2.000000000000000
 50
429.600000000000020
  1
1,10
  0
LINE
  8
PT5-Wymiarowanie33
  6
CONTINUOUS
 62
     7
 10
343.088
 20
94.600300000000004
 11
339.2527
 21
84.290500000000009
  0
LINE
  8
PT5-Wymiarowanie33
  6
CONTINUOUS
 62
     7
 10
343.4367
 20
95.537500000000023
 11
343.088
 21
94.600300000000004
  0
LINE
  8
PT5-Wymiarowanie33
  6
CONTINUOUS
 62
     7
 10
338.904
 20
83.353299999999990
 11
339.2527
 21
84.290500000000009
  0
LINE
  8
PT5-Wymiarowanie33
  6
CONTINUOUS
 62
     7
 10
343.3823
 20
93.957400000000007
 11
342.7938
 21
95.243100000000027
  0
LINE
  8
PT5-Wymiarowanie33
  6
CONTINUOUS
 62
     7
 10
339.5469
 20
83.647600000000011
 11
338.9584
 21
84.933400000000006
  0
LINE
  8
PT5-Wymiarowanie33
  6
CONTINUOUS
 62
     7
 10
344.0253
 20
94.251599999999996
 11
342.1508
 21
94.948899999999981
  0
LINE
  8
PT5-Wymiarowanie33
  6
CONTINUOUS
 62
     7
 10
340.1899
 20
83.941800000000001
 11
338.3154
 21
84.639200000000017
  0
LINE
  8
PT5-Wymiarowanie33
  6
CONTINUOUS
 62
     7
 10
339.2527
 20
84.290500000000009
 11
337.858
 21
80.541499999999985
  0
LINE
  8
PT5-Wymiarowanie33
  6
CONTINUOUS
 62
     7
 10
339.6013
 20
85.227800000000002
 11
339.2527
 21
84.290500000000009
  0
LINE
  8
PT5-Wymiarowanie33
  6
CONTINUOUS
 62
     7
 10
337.5093
 20
79.604300000000023
 11
337.858
 21
80.541499999999985
  0
LINE
  8
PT5-Wymiarowanie33
  6
CONTINUOUS
 62
     7
 10
339.5469
 20
83.647600000000011
 11
338.9584
 21
84.933400000000006
  0
LINE
  8
PT5-Wymiarowanie33
  6
CONTINUOUS
 62
     7
 10
338.1522
 20
79.898700000000019
 11
337.5638
 21
81.184399999999982
  0
LINE
  8
PT5-Wymiarowanie33
  6
CONTINUOUS
 62
     7
 10
340.1899
 20
83.941800000000001
 11
338.3154
 21
84.639200000000017
  0
LINE
  8
PT5-Wymiarowanie33
  6
CONTINUOUS
 62
     7
 10
338.7952
 20
80.192900000000009
 11
336.9208
 21
80.890199999999993
  0
TEXT
  8
PT5-Wymiarowanie33
  6
CONTINUOUS
 62
     7
 10
336.281099999999980
 20
80.079700000000003
 40
2.000000000000000
 50
429.600000000000020
  1
40
  0
TEXT
  8
PT5-Wymiarowanie33
  6
CONTINUOUS
 62
     7
 10
332.902400000000000
 20
71.806100000000015
 40
2.000000000000000
 50
429.600000000000020
  1
1,10
  0
LINE
  8
PT5-Wymiarowanie33
  6
CONTINUOUS
 62
     7
 10
337.858
 20
80.541499999999985
 11
334.0227
 21
70.231899999999996
  0
LINE
  8
PT5-Wymiarowanie33
  6
CONTINUOUS
 62
     7
 10
338.2067
 20
81.478799999999978
 11
337.858
 21
80.541499999999985
  0
LINE
  8
PT5-Wymiarowanie33
  6
CONTINUOUS
 62
     7
 10
333.674
 20
69.294600000000003
 11
334.0227
 21
70.231899999999996
  0
LINE
  8
PT5-Wymiarowanie33
  6
CONTINUOUS
 62
     7
 10
338.1522
 20
79.898700000000019
 11
337.5638
 21
81.184399999999982
  0
LINE
  8
PT5-Wymiarowanie33
  6
CONTINUOUS
 62
     7
 10
334.3169
 20
69.588999999999999
 11
333.7284
 21
70.874700000000018
  0
LINE
  8
PT5-Wymiarowanie33
  6
CONTINUOUS
 62
     7
 10
338.7952
 20
80.192900000000009
 11
336.9208
 21
80.890199999999993
  0
LINE
  8
PT5-Wymiarowanie33
  6
CONTINUOUS
 62
     7
 10
334.9599
 20
69.883199999999988
 11
333.0854
 21
70.580499999999972
  0
LINE
  8
PT5-Wymiarowanie33
  6
CONTINUOUS
 62
     7
 10
334.0227
 20
70.231899999999996
 11
332.628
 21
66.482899999999972
  0
LINE
  8
PT5-Wymiarowanie33
  6
CONTINUOUS
 62
     7
 10
334.3713
 20
71.169100000000014
 11
334.0227
 21
70.231899999999996
  0
LINE
  8
PT5-Wymiarowanie33
  6
CONTINUOUS
 62
     7
 10
332.2793
 20
65.545599999999979
 11
332.628
 21
66.482899999999972
  0
LINE
  8
PT5-Wymiarowanie33
  6
CONTINUOUS
 62
     7
 10
334.3169
 20
69.588999999999999
 11
333.7284
 21
70.874700000000018
  0
LINE
  8
PT5-Wymiarowanie33
  6
CONTINUOUS
 62
     7
 10
332.9222
 20
65.839999999999975
 11
332.3337
 21
67.125699999999995
  0
LINE
  8
PT5-Wymiarowanie33
  6
CONTINUOUS
 62
     7
 10
334.9599
 20
69.883199999999988
 11
333.0854
 21
70.580499999999972
  0
LINE
  8
PT5-Wymiarowanie33
  6
CONTINUOUS
 62
     7
 10
333.5652
 20
66.134200000000021
 11
331.6907
 21
66.831500000000005
  0
TEXT
  8
PT5-Wymiarowanie33
  6
CONTINUOUS
 62
     7
 10
331.116600000000010
 20
65.877400000000023
 40
2.000000000000000
 50
429.600000000000020
  1
40
  0
TEXT
  8
PT5-Wymiarowanie33
  6
CONTINUOUS
 62
     7
 10
327.672300000000010
 20
57.747400000000027
 40
2.000000000000000
 50
429.600000000000020
  1
1,10
  0
LINE
  8
PT5-Wymiarowanie33
  6
CONTINUOUS
 62
     7
 10
332.628
 20
66.482899999999972
 11
328.7926
 21
56.173099999999977
  0
LINE
  8
PT5-Wymiarowanie33
  6
CONTINUOUS
 62
     7
 10
332.9767
 20
67.420099999999991
 11
332.628
 21
66.482899999999972
  0
LINE
  8
PT5-Wymiarowanie33
  6
CONTINUOUS
 62
     7
 10
328.444
 20
55.235900000000015
 11
328.7926
 21
56.173099999999977
  0
LINE
  8
PT5-Wymiarowanie33
  6
CONTINUOUS
 62
     7
 10
332.9222
 20
65.839999999999975
 11
332.3337
 21
67.125699999999995
  0
LINE
  8
PT5-Wymiarowanie33
  6
CONTINUOUS
 62
     7
 10
329.0869
 20
55.530300000000011
 11
328.4984
 21
56.815999999999974
  0
LINE
  8
PT5-Wymiarowanie33
  6
CONTINUOUS
 62
     7
 10
333.5652
 20
66.134200000000021
 11
331.6907
 21
66.831500000000005
  0
LINE
  8
PT5-Wymiarowanie33
  6
CONTINUOUS
 62
     7
 10
329.7299
 20
55.824500000000000
 11
327.8554
 21
56.521799999999985
  0
LINE
  8
PT5-Wymiarowanie33
  6
CONTINUOUS
 62
     7
 10
328.7926
 20
56.173099999999977
 11
327.398
 21
52.424199999999985
  0
LINE
  8
PT5-Wymiarowanie33
  6
CONTINUOUS
 62
     7
 10
329.1413
 20
57.110400000000027
 11
328.7926
 21
56.173099999999977
  0
LINE
  8
PT5-Wymiarowanie33
  6
CONTINUOUS
 62
     7
 10
327.0493
 20
51.486899999999991
 11
327.398
 21
52.424199999999985
  0
LINE
  8
PT5-Wymiarowanie33
  6
CONTINUOUS
 62
     7
 10
329.0869
 20
55.530300000000011
 11
328.4984
 21
56.815999999999974
  0
LINE
  8
PT5-Wymiarowanie33
  6
CONTINUOUS
 62
     7
 10
327.6922
 20
51.781299999999987
 11
327.1037
 21
53.067000000000007
  0
LINE
  8
PT5-Wymiarowanie33
  6
CONTINUOUS
 62
     7
 10
329.7299
 20
55.824500000000000
 11
327.8554
 21
56.521799999999985
  0
LINE
  8
PT5-Wymiarowanie33
  6
CONTINUOUS
 62
     7
 10
328.3352
 20
52.075499999999977
 11
326.4607
 21
52.772800000000018
  0
TEXT
  8
PT5-Wymiarowanie33
  6
CONTINUOUS
 62
     7
 10
325.790700000000020
 20
51.675000000000011
 40
2.000000000000000
 50
429.600000000000020
  1
40
  0
TEXT
  8
PT5-Wymiarowanie33
  6
CONTINUOUS
 62
     7
 10
322.442299999999990
 20
43.688699999999983
 40
2.000000000000000
 50
429.600000000000020
  1
1,10
  0
LINE
  8
PT5-Wymiarowanie33
  6
CONTINUOUS
 62
     7
 10
327.398
 20
52.424199999999985
 11
323.5626
 21
42.114500000000021
  0
LINE
  8
PT5-Wymiarowanie33
  6
CONTINUOUS
 62
     7
 10
327.7466
 20
53.361400000000003
 11
327.398
 21
52.424199999999985
  0
LINE
  8
PT5-Wymiarowanie33
  6
CONTINUOUS
 62
     7
 10
323.214
 20
41.177200000000028
 11
323.5626
 21
42.114500000000021
  0
LINE
  8
PT5-Wymiarowanie33
  6
CONTINUOUS
 62
     7
 10
327.6922
 20
51.781299999999987
 11
327.1037
 21
53.067000000000007
  0
LINE
  8
PT5-Wymiarowanie33
  6
CONTINUOUS
 62
     7
 10
323.8569
 20
41.471600000000024
 11
323.2684
 21
42.757299999999987
  0
LINE
  8
PT5-Wymiarowanie33
  6
CONTINUOUS
 62
     7
 10
328.3352
 20
52.075499999999977
 11
326.4607
 21
52.772800000000018
  0
LINE
  8
PT5-Wymiarowanie33
  6
CONTINUOUS
 62
     7
 10
324.4999
 20
41.765800000000013
 11
322.6254
 21
42.463099999999997
  0
TEXT
  8
PT5-Wymiarowanie33
  6
CONTINUOUS
 62
     7
 10
319.982399999999980
 20
37.076199999999972
 40
2.000000000000000
 50
429.600000000000020
  1
54
  0
TEXT
  8
PT5-Wymiarowanie33
  6
CONTINUOUS
 62
     7
 10
320.493200000000000
 20
41.174800000000005
 40
1.500000000000000
 50
429.600000000000020
  1
5
  0
LINE
  8
PT5-Wymiarowanie33
  6
CONTINUOUS
 62
     7
 10
323.5626
 20
42.114500000000021
 11
321.6622
 21
37.005899999999997
  0
LINE
  8
PT5-Wymiarowanie33
  6
CONTINUOUS
 62
     7
 10
323.9113
 20
43.051699999999983
 11
323.5626
 21
42.114500000000021
  0
LINE
  8
PT5-Wymiarowanie33
  6
CONTINUOUS
 62
     7
 10
321.3135
 20
36.068699999999978
 11
321.6622
 21
37.005899999999997
  0
LINE
  8
PT5-Wymiarowanie33
  6
CONTINUOUS
 62
     7
 10
323.8569
 20
41.471600000000024
 11
323.2684
 21
42.757299999999987
  0
LINE
  8
PT5-Wymiarowanie33
  6
CONTINUOUS
 62
     7
 10
321.9564
 20
36.363099999999974
 11
321.3679
 21
37.648799999999994
  0
LINE
  8
PT5-Wymiarowanie33
  6
CONTINUOUS
 62
     7
 10
324.4999
 20
41.765800000000013
 11
322.6254
 21
42.463099999999997
  0
LINE
  8
PT5-Wymiarowanie33
  6
CONTINUOUS
 62
     7
 10
322.5994
 20
36.657300000000021
 11
320.7249
 21
37.354600000000005
  0
LINE
  8
PT5-Wymiarowanie33
  6
CONTINUOUS
 62
     7
 10
327.5064
 20
34.762499999999989
 11
328.9095
 21
38.517100000000028
  0
LINE
  8
PT5-Wymiarowanie33
  6
CONTINUOUS
 62
     7
 10
327.1563
 20
33.825800000000015
 11
327.5064
 21
34.762499999999989
  0
LINE
  8
PT5-Wymiarowanie33
  6
CONTINUOUS
 62
     7
 10
329.2595
 20
39.453800000000001
 11
328.9095
 21
38.517100000000028
  0
LINE
  8
PT5-Wymiarowanie33
  6
CONTINUOUS
 62
     7
 10
327.2131
 20
35.405799999999999
 11
327.7997
 21
34.119199999999978
  0
LINE
  8
PT5-Wymiarowanie33
  6
CONTINUOUS
 62
     7
 10
328.6162
 20
39.160399999999981
 11
329.2028
 21
37.873800000000017
  0
LINE
  8
PT5-Wymiarowanie33
  6
CONTINUOUS
 62
     7
 10
328.4431
 20
34.412399999999991
 11
326.5697
 21
35.112500000000011
  0
LINE
  8
PT5-Wymiarowanie33
  6
CONTINUOUS
 62
     7
 10
329.8462
 20
38.166999999999973
 11
327.9728
 21
38.867200000000025
  0
TEXT
  8
PT5-Wymiarowanie33
  6
CONTINUOUS
 62
     7
 10
326.112300000000000
 20
36.363200000000006
 40
2.000000000000000
 50
69.500000000000000
  1
40
  0
TEXT
  8
PT5-Wymiarowanie33
  6
CONTINUOUS
 62
     7
 10
359.284499999999980
 20
126.610999999999990
 40
2.000000000000000
 50
69.500000000000000
  1
19,24
  0
LINE
  8
PT5-Wymiarowanie33
  6
CONTINUOUS
 62
     7
 10
328.9095
 20
38.517100000000028
 11
396.2665
 21
218.761000000000000
  0
LINE
  8
PT5-Wymiarowanie33
  6
CONTINUOUS
 62
     7
 10
328.5594
 20
37.580399999999997
 11
328.9095
 21
38.517100000000028
  0
LINE
  8
PT5-Wymiarowanie33
  6
CONTINUOUS
 62
     7
 10
396.6166
 20
219.697700000000000
 11
396.2665
 21
218.761000000000000
  0
LINE
  8
PT5-Wymiarowanie33
  6
CONTINUOUS
 62
     7
 10
328.6162
 20
39.160399999999981
 11
329.2028
 21
37.873800000000017
  0
LINE
  8
PT5-Wymiarowanie33
  6
CONTINUOUS
 62
     7
 10
395.9732
 20
219.404300000000010
 11
396.5598
 21
218.117700000000010
  0
LINE
  8
PT5-Wymiarowanie33
  6
CONTINUOUS
 62
     7
 10
329.8462
 20
38.167100000000005
 11
327.9728
 21
38.867200000000025
  0
LINE
  8
PT5-Wymiarowanie33
  6
CONTINUOUS
 62
     7
 10
397.2033
 20
218.410900000000000
 11
395.3298
 21
219.110999999999990
  0
LINE
  8
PT5-Wymiarowanie33
  6
CONTINUOUS
 62
     7
 10
396.2665
 20
218.761000000000000
 11
397.6667
 21
222.507900000000010
  0
LINE
  8
PT5-Wymiarowanie33
  6
CONTINUOUS
 62
     7
 10
395.9165
 20
217.824199999999990
 11
396.2665
 21
218.761000000000000
  0
LINE
  8
PT5-Wymiarowanie33
  6
CONTINUOUS
 62
     7
 10
398.0168
 20
223.444600000000010
 11
397.6667
 21
222.507900000000010
  0
LINE
  8
PT5-Wymiarowanie33
  6
CONTINUOUS
 62
     7
 10
395.9732
 20
219.404300000000010
 11
396.5598
 21
218.117700000000010
  0
LINE
  8
PT5-Wymiarowanie33
  6
CONTINUOUS
 62
     7
 10
397.3735
 20
223.151100000000010
 11
397.96
 21
221.864600000000000
  0
LINE
  8
PT5-Wymiarowanie33
  6
CONTINUOUS
 62
     7
 10
397.2033
 20
218.410900000000000
 11
395.3298
 21
219.110999999999990
  0
LINE
  8
PT5-Wymiarowanie33
  6
CONTINUOUS
 62
     7
 10
398.6035
 20
222.157800000000010
 11
396.73
 21
222.857900000000000
  0
TEXT
  8
PT5-Wymiarowanie33
  6
CONTINUOUS
 62
     7
 10
395.026000000000010
 20
220.187099999999990
 40
2.000000000000000
 50
69.500000000000000
  1
40
  0
LINE
  8
PT5-Wymiarowanie33
  6
CONTINUOUS
 62
     7
 10
397.6667
 20
222.507900000000010
 11
401.64
 21
233.139999999999990
  0
LINE
  8
PT5-Wymiarowanie33
  6
CONTINUOUS
 62
     7
 10
397.3167
 20
221.571100000000000
 11
397.6667
 21
222.507900000000010
  0
LINE
  8
PT5-Wymiarowanie33
  6
CONTINUOUS
 62
     7
 10
401.99
 20
234.076699999999990
 11
401.64
 21
233.139999999999990
  0
LINE
  8
PT5-Wymiarowanie33
  6
CONTINUOUS
 62
     7
 10
397.3735
 20
223.151100000000010
 11
397.96
 21
221.864600000000000
  0
LINE
  8
PT5-Wymiarowanie33
  6
CONTINUOUS
 62
     7
 10
401.3467
 20
233.783300000000000
 11
401.9333
 21
232.496700000000000
  0
LINE
  8
PT5-Wymiarowanie33
  6
CONTINUOUS
 62
     7
 10
398.6035
 20
222.157800000000010
 11
396.73
 21
222.857900000000000
  0
LINE
  8
PT5-Wymiarowanie33
  6
CONTINUOUS
 62
     7
 10
402.5767
 20
232.789899999999990
 11
400.7032
 21
233.490000000000010
  0
TEXT
  8
PT5-Wymiarowanie33
  6
CONTINUOUS
 62
     7
 10
397.527600000000010
 20
226.077800000000000
 40
2.000000000000000
 50
69.500000000000000
  1
1,13
  0
TEXT
  8
PT5-Wymiarowanie33
  6
CONTINUOUS
 62
     7
 10
398.689900000000020
 20
232.236400000000000
 40
1.500000000000000
 50
69.500000000000000
  1
5
  0
LINE
  8
PT5-Wymiarowanie33
  6
CONTINUOUS
 62
     7
 10
401.64
 20
233.139999999999990
 11
403.0402
 21
236.886900000000000
  0
LINE
  8
PT5-Wymiarowanie33
  6
CONTINUOUS
 62
     7
 10
401.2899
 20
232.203300000000010
 11
401.64
 21
233.139999999999990
  0
LINE
  8
PT5-Wymiarowanie33
  6
CONTINUOUS
 62
     7
 10
403.3902
 20
237.823600000000000
 11
403.0402
 21
236.886900000000000
  0
LINE
  8
PT5-Wymiarowanie33
  6
CONTINUOUS
 62
     7
 10
401.3467
 20
233.783300000000000
 11
401.9333
 21
232.496700000000000
  0
LINE
  8
PT5-Wymiarowanie33
  6
CONTINUOUS
 62
     7
 10
402.7469
 20
237.530200000000010
 11
403.3335
 21
236.243599999999990
  0
LINE
  8
PT5-Wymiarowanie33
  6
CONTINUOUS
 62
     7
 10
402.5767
 20
232.789899999999990
 11
400.7032
 21
233.490000000000010
  0
LINE
  8
PT5-Wymiarowanie33
  6
CONTINUOUS
 62
     7
 10
403.9769
 20
236.536800000000000
 11
402.1035
 21
237.236899999999990
  0
TEXT
  8
PT5-Wymiarowanie33
  6
CONTINUOUS
 62
     7
 10
399.997599999999980
 20
234.782600000000000
 40
2.000000000000000
 50
69.500000000000000
  1
40
  0
TEXT
  8
PT5-Wymiarowanie33
  6
CONTINUOUS
 62
     7
 10
407.824700000000010
 20
256.502000000000010
 40
2.000000000000000
 50
69.500000000000000
  1
4,46
  0
TEXT
  8
PT5-Wymiarowanie33
  6
CONTINUOUS
 62
     7
 10
409.279200000000000
 20
262.551400000000000
 40
1.500000000000000
 50
69.500000000000000
  1
5
  0
LINE
  8
PT5-Wymiarowanie33
  6
CONTINUOUS
 62
     7
 10
403.0402
 20
236.886900000000000
 11
418.6702
 21
278.711900000000010
  0
LINE
  8
PT5-Wymiarowanie33
  6
CONTINUOUS
 62
     7
 10
402.6901
 20
235.950200000000000
 11
403.0402
 21
236.886900000000000
  0
LINE
  8
PT5-Wymiarowanie33
  6
CONTINUOUS
 62
     7
 10
419.0202
 20
279.648599999999990
 11
418.6702
 21
278.711900000000010
  0
LINE
  8
PT5-Wymiarowanie33
  6
CONTINUOUS
 62
     7
 10
402.7469
 20
237.530200000000010
 11
403.3335
 21
236.243599999999990
  0
LINE
  8
PT5-Wymiarowanie33
  6
CONTINUOUS
 62
     7
 10
418.3769
 20
279.355199999999970
 11
418.9635
 21
278.068600000000000
  0
LINE
  8
PT5-Wymiarowanie33
  6
CONTINUOUS
 62
     7
 10
403.9769
 20
236.536800000000000
 11
402.1035
 21
237.236899999999990
  0
LINE
  8
PT5-Wymiarowanie33
  6
CONTINUOUS
 62
     7
 10
419.6069
 20
278.361899999999990
 11
417.7334
 21
279.062000000000010
  0
LINE
  8
PT5-Wymiarowanie33
  6
CONTINUOUS
 62
     7
 10
418.6702
 20
278.711900000000010
 11
420.0704
 21
282.458800000000000
  0
LINE
  8
PT5-Wymiarowanie33
  6
CONTINUOUS
 62
     7
 10
418.3201
 20
277.775199999999980
 11
418.6702
 21
278.711900000000010
  0
LINE
  8
PT5-Wymiarowanie33
  6
CONTINUOUS
 62
     7
 10
420.4204
 20
283.395499999999970
 11
420.0704
 21
282.458800000000000
  0
LINE
  8
PT5-Wymiarowanie33
  6
CONTINUOUS
 62
     7
 10
418.3769
 20
279.355199999999970
 11
418.9635
 21
278.068600000000000
  0
LINE
  8
PT5-Wymiarowanie33
  6
CONTINUOUS
 62
     7
 10
419.7771
 20
283.102100000000010
 11
420.3637
 21
281.815499999999990
  0
LINE
  8
PT5-Wymiarowanie33
  6
CONTINUOUS
 62
     7
 10
419.6069
 20
278.361899999999990
 11
417.7334
 21
279.062000000000010
  0
LINE
  8
PT5-Wymiarowanie33
  6
CONTINUOUS
 62
     7
 10
421.0071
 20
282.108700000000000
 11
419.1336
 21
282.808800000000020
  0
TEXT
  8
PT5-Wymiarowanie33
  6
CONTINUOUS
 62
     7
 10
417.421200000000000
 20
280.054199999999980
 40
2.000000000000000
 50
69.500000000000000
  1
40
  0
TEXT
  8
PT5-Wymiarowanie33
  6
CONTINUOUS
 62
     7
 10
363.625900000000000
 20
122.808800000000020
 40
2.000000000000000
 50
69.500000000000000
  1
19,64
  0
TEXT
  8
PT5-Wymiarowanie33
  6
CONTINUOUS
 62
     7
 10
365.712300000000030
 20
130.537399999999990
 40
1.500000000000000
 50
69.500000000000000
  1
5
  0
LINE
  8
PT5-Wymiarowanie33
  6
CONTINUOUS
 62
     7
 10
332.501
 20
32.845700000000022
 11
401.3597
 21
216.822800000000000
  0
LINE
  8
PT5-Wymiarowanie33
  6
CONTINUOUS
 62
     7
 10
332.1504
 20
31.909100000000024
 11
332.501
 21
32.845700000000022
  0
LINE
  8
PT5-Wymiarowanie33
  6
CONTINUOUS
 62
     7
 10
401.7102
 20
217.759300000000000
 11
401.3597
 21
216.822800000000000
  0
LINE
  8
PT5-Wymiarowanie33
  6
CONTINUOUS
 62
     7
 10
332.208
 20
33.489100000000008
 11
332.7939
 21
32.202200000000005
  0
LINE
  8
PT5-Wymiarowanie33
  6
CONTINUOUS
 62
     7
 10
401.0667
 20
217.466199999999990
 11
401.6527
 21
216.179300000000010
  0
LINE
  8
PT5-Wymiarowanie33
  6
CONTINUOUS
 62
     7
 10
333.4375
 20
32.495099999999979
 11
331.5644
 21
33.196199999999976
  0
LINE
  8
PT5-Wymiarowanie33
  6
CONTINUOUS
 62
     7
 10
402.2963
 20
216.472199999999990
 11
400.4232
 21
217.173300000000010
  0
TEXT
  8
PT5-Wymiarowanie33
  6
CONTINUOUS
 62
     7
 10
410.246199999999990
 20
247.369300000000010
 40
2.000000000000000
 50
69.500000000000000
  1
6,80
  0
LINE
  8
PT5-Wymiarowanie33
  6
CONTINUOUS
 62
     7
 10
401.3597
 20
216.822800000000000
 11
425.1949
 21
280.505699999999990
  0
LINE
  8
PT5-Wymiarowanie33
  6
CONTINUOUS
 62
     7
 10
401.0092
 20
215.886200000000000
 11
401.3597
 21
216.822800000000000
  0
LINE
  8
PT5-Wymiarowanie33
  6
CONTINUOUS
 62
     7
 10
425.5454
 20
281.442200000000010
 11
425.1949
 21
280.505699999999990
  0
LINE
  8
PT5-Wymiarowanie33
  6
CONTINUOUS
 62
     7
 10
401.0667
 20
217.466199999999990
 11
401.6527
 21
216.179300000000010
  0
LINE
  8
PT5-Wymiarowanie33
  6
CONTINUOUS
 62
     7
 10
424.9019
 20
281.149099999999980
 11
425.4878
 21
279.862200000000030
  0
LINE
  8
PT5-Wymiarowanie33
  6
CONTINUOUS
 62
     7
 10
402.2963
 20
216.472199999999990
 11
400.4232
 21
217.173300000000010
  0
LINE
  8
PT5-Wymiarowanie33
  6
CONTINUOUS
 62
     7
 10
426.1314
 20
280.155100000000000
 11
424.2583
 21
280.856200000000000
  0
TEXT
  8
PT5-Wymiarowanie33
  6
CONTINUOUS
 62
     7
 10
399.844600000000010
 20
251.290699999999990
 40
2.000000000000000
 50
69.500000000000000
  1
6,80
  0
LINE
  8
PT5-Wymiarowanie33
  6
CONTINUOUS
 62
     7
 10
390.9737
 20
220.739900000000010
 11
414.7764
 21
284.436500000000020
  0
LINE
  8
PT5-Wymiarowanie33
  6
CONTINUOUS
 62
     7
 10
390.6237
 20
219.803100000000000
 11
390.9737
 21
220.739900000000010
  0
LINE
  8
PT5-Wymiarowanie33
  6
CONTINUOUS
 62
     7
 10
415.1264
 20
285.373200000000000
 11
414.7764
 21
284.436500000000020
  0
LINE
  8
PT5-Wymiarowanie33
  6
CONTINUOUS
 62
     7
 10
390.6805
 20
221.383100000000010
 11
391.267
 21
220.096600000000000
  0
LINE
  8
PT5-Wymiarowanie33
  6
CONTINUOUS
 62
     7
 10
414.4831
 20
285.079799999999980
 11
415.0697
 21
283.793200000000010
  0
LINE
  8
PT5-Wymiarowanie33
  6
CONTINUOUS
 62
     7
 10
391.9105
 20
220.389800000000010
 11
390.037
 21
221.089900000000000
  0
LINE
  8
PT5-Wymiarowanie33
  6
CONTINUOUS
 62
     7
 10
415.7131
 20
284.086500000000000
 11
413.8397
 21
284.786600000000020
  0
TEXT
  8
PT5-Wymiarowanie33
  6
CONTINUOUS
 62
     7
 10
344.611800000000020
 20
207.625699999999990
 40
2.000000000000000
 50
339.500000000000000
  1
3,60
  0
LINE
  8
PT5-Wymiarowanie33
  6
CONTINUOUS
 62
     7
 10
329.5383
 20
210.603800000000010
 11
363.2605
 21
198.001600000000000
  0
LINE
  8
PT5-Wymiarowanie33
  6
CONTINUOUS
 62
     7
 10
328.6016
 20
210.953800000000000
 11
329.5383
 21
210.603800000000010
  0
LINE
  8
PT5-Wymiarowanie33
  6
CONTINUOUS
 62
     7
 10
364.1972
 20
197.651500000000000
 11
363.2605
 21
198.001600000000000
  0
LINE
  8
PT5-Wymiarowanie33
  6
CONTINUOUS
 62
     7
 10
330.1816
 20
210.897099999999990
 11
328.895
 21
210.310499999999990
  0
LINE
  8
PT5-Wymiarowanie33
  6
CONTINUOUS
 62
     7
 10
363.9038
 20
198.294800000000010
 11
362.6172
 21
197.708300000000010
  0
LINE
  8
PT5-Wymiarowanie33
  6
CONTINUOUS
 62
     7
 10
329.1882
 20
209.667000000000000
 11
329.8884
 21
211.540500000000010
  0
LINE
  8
PT5-Wymiarowanie33
  6
CONTINUOUS
 62
     7
 10
362.9104
 20
197.064799999999990
 11
363.6106
 21
198.938300000000000
  0
LINE
  8
PT5-Wymiarowanie33
  6
CONTINUOUS
 62
     7
 10
331.2906
 20
215.286700000000000
 11
335.5062
 21
213.711700000000010
  0
LINE
  8
PT5-Wymiarowanie33
  6
CONTINUOUS
 62
     7
 10
330.3538
 20
215.636699999999990
 11
331.2906
 21
215.286700000000000
  0
LINE
  8
PT5-Wymiarowanie33
  6
CONTINUOUS
 62
     7
 10
336.4429
 20
213.361700000000010
 11
335.5062
 21
213.711700000000010
  0
LINE
  8
PT5-Wymiarowanie33
  6
CONTINUOUS
 62
     7
 10
331.9338
 20
215.580000000000010
 11
330.6473
 21
214.993300000000000
  0
LINE
  8
PT5-Wymiarowanie33
  6
CONTINUOUS
 62
     7
 10
336.1494
 20
214.005000000000000
 11
334.8629
 21
213.418299999999990
  0
LINE
  8
PT5-Wymiarowanie33
  6
CONTINUOUS
 62
     7
 10
330.9406
 20
214.349899999999990
 11
331.6405
 21
216.223400000000000
  0
LINE
  8
PT5-Wymiarowanie33
  6
CONTINUOUS
 62
     7
 10
335.1562
 20
212.774900000000000
 11
335.8561
 21
214.648400000000010
  0
TEXT
  8
PT5-Wymiarowanie33
  6
CONTINUOUS
 62
     7
 10
332.726900000000000
 20
216.958200000000010
 40
2.000000000000000
 50
339.500000000000000
  1
45
  0
LINE
  8
PT5-Wymiarowanie33
  6
CONTINUOUS
 62
     7
 10
335.5062
 20
213.711700000000010
 11
345.8105
 21
209.861799999999990
  0
LINE
  8
PT5-Wymiarowanie33
  6
CONTINUOUS
 62
     7
 10
334.5694
 20
214.061600000000000
 11
335.5062
 21
213.711700000000010
  0
LINE
  8
PT5-Wymiarowanie33
  6
CONTINUOUS
 62
     7
 10
346.7473
 20
209.511799999999990
 11
345.8105
 21
209.861799999999990
  0
LINE
  8
PT5-Wymiarowanie33
  6
CONTINUOUS
 62
     7
 10
336.1494
 20
214.005000000000000
 11
334.8629
 21
213.418299999999990
  0
LINE
  8
PT5-Wymiarowanie33
  6
CONTINUOUS
 62
     7
 10
346.4538
 20
210.155100000000000
 11
345.1672
 21
209.568500000000000
  0
LINE
  8
PT5-Wymiarowanie33
  6
CONTINUOUS
 62
     7
 10
335.1562
 20
212.774900000000000
 11
335.8562
 21
214.648400000000010
  0
LINE
  8
PT5-Wymiarowanie33
  6
CONTINUOUS
 62
     7
 10
345.4605
 20
208.925000000000010
 11
346.1605
 21
210.798599999999990
  0
TEXT
  8
PT5-Wymiarowanie33
  6
CONTINUOUS
 62
     7
 10
338.179199999999980
 20
214.694999999999990
 40
2.000000000000000
 50
339.500000000000000
  1
1,10
  0
TEXT
  8
PT5-Wymiarowanie33
  6
CONTINUOUS
 62
     7
 10
353.624199999999970
 20
209.597500000000000
 40
2.000000000000000
 50
339.500000000000000
  1
2,05
  0
LINE
  8
PT5-Wymiarowanie33
  6
CONTINUOUS
 62
     7
 10
345.8105
 20
209.861799999999990
 11
365.0138
 21
202.687199999999990
  0
LINE
  8
PT5-Wymiarowanie33
  6
CONTINUOUS
 62
     7
 10
344.8738
 20
210.211800000000010
 11
345.8105
 21
209.861799999999990
  0
LINE
  8
PT5-Wymiarowanie33
  6
CONTINUOUS
 62
     7
 10
365.9505
 20
202.337200000000000
 11
365.0138
 21
202.687199999999990
  0
LINE
  8
PT5-Wymiarowanie33
  6
CONTINUOUS
 62
     7
 10
346.4538
 20
210.155100000000000
 11
345.1672
 21
209.568500000000000
  0
LINE
  8
PT5-Wymiarowanie33
  6
CONTINUOUS
 62
     7
 10
365.6571
 20
202.980500000000010
 11
364.3705
 21
202.393800000000000
  0
LINE
  8
PT5-Wymiarowanie33
  6
CONTINUOUS
 62
     7
 10
345.4605
 20
208.925000000000010
 11
346.1605
 21
210.798599999999990
  0
LINE
  8
PT5-Wymiarowanie33
  6
CONTINUOUS
 62
     7
 10
364.6638
 20
201.750400000000010
 11
365.3638
 21
203.623899999999990
  0
LINE
  8
PT5-Wymiarowanie33
  6
CONTINUOUS
 62
     7
 10
360.5256
 20
236.390099999999990
 11
365.7772
 21
250.443099999999990
  0
LINE
  8
PT5-Wymiarowanie33
  6
CONTINUOUS
 62
     7
 10
360.1756
 20
235.453300000000010
 11
360.5256
 21
236.390099999999990
  0
LINE
  8
PT5-Wymiarowanie33
  6
CONTINUOUS
 62
     7
 10
366.1273
 20
251.379799999999990
 11
365.7772
 21
250.443099999999990
  0
LINE
  8
PT5-Wymiarowanie33
  6
CONTINUOUS
 62
     7
 10
360.2323
 20
237.033400000000000
 11
360.8189
 21
235.746800000000010
  0
LINE
  8
PT5-Wymiarowanie33
  6
CONTINUOUS
 62
     7
 10
365.484
 20
251.086400000000000
 11
366.0705
 21
249.799800000000000
  0
LINE
  8
PT5-Wymiarowanie33
  6
CONTINUOUS
 62
     7
 10
359.5889
 20
236.740100000000010
 11
361.4624
 21
236.039999999999990
  0
LINE
  8
PT5-Wymiarowanie33
  6
CONTINUOUS
 62
     7
 10
364.8405
 20
250.793100000000010
 11
366.714
 21
250.092999999999990
  0
TEXT
  8
PT5-Wymiarowanie33
  6
CONTINUOUS
 62
     7
 10
358.863099999999970
 20
238.492999999999990
 40
2.000000000000000
 50
69.500000000000000
  1
1,50
  0
TEXT
  8
PT5-Wymiarowanie33
  6
CONTINUOUS
 62
     7
 10
367.997000000000010
 20
263.195200000000000
 40
2.000000000000000
 50
69.500000000000000
  1
3,00
  0
LINE
  8
PT5-Wymiarowanie33
  6
CONTINUOUS
 62
     7
 10
365.7772
 20
250.443099999999990
 11
376.2778
 21
278.542100000000000
  0
LINE
  8
PT5-Wymiarowanie33
  6
CONTINUOUS
 62
     7
 10
365.4272
 20
249.506300000000010
 11
365.7772
 21
250.443099999999990
  0
LINE
  8
PT5-Wymiarowanie33
  6
CONTINUOUS
 62
     7
 10
376.6279
 20
279.478799999999980
 11
376.2778
 21
278.542100000000000
  0
LINE
  8
PT5-Wymiarowanie33
  6
CONTINUOUS
 62
     7
 10
365.484
 20
251.086400000000000
 11
366.0705
 21
249.799800000000000
  0
LINE
  8
PT5-Wymiarowanie33
  6
CONTINUOUS
 62
     7
 10
375.9845
 20
279.185400000000020
 11
376.5711
 21
277.898799999999990
  0
LINE
  8
PT5-Wymiarowanie33
  6
CONTINUOUS
 62
     7
 10
364.8405
 20
250.793100000000010
 11
366.714
 21
250.092999999999990
  0
LINE
  8
PT5-Wymiarowanie33
  6
CONTINUOUS
 62
     7
 10
375.3411
 20
278.892100000000030
 11
377.2146
 21
278.192000000000010
  0
LINE
  8
PT5-Wymiarowanie33
  6
CONTINUOUS
 62
     7
 10
376.2778
 20
278.542100000000000
 11
381.5289
 21
292.593799999999990
  0
LINE
  8
PT5-Wymiarowanie33
  6
CONTINUOUS
 62
     7
 10
375.9278
 20
277.605300000000000
 11
376.2778
 21
278.542100000000000
  0
LINE
  8
PT5-Wymiarowanie33
  6
CONTINUOUS
 62
     7
 10
381.879
 20
293.530500000000020
 11
381.5289
 21
292.593799999999990
  0
LINE
  8
PT5-Wymiarowanie33
  6
CONTINUOUS
 62
     7
 10
375.9845
 20
279.185400000000020
 11
376.5711
 21
277.898799999999990
  0
LINE
  8
PT5-Wymiarowanie33
  6
CONTINUOUS
 62
     7
 10
381.2357
 20
293.237100000000000
 11
381.8222
 21
291.950500000000030
  0
LINE
  8
PT5-Wymiarowanie33
  6
CONTINUOUS
 62
     7
 10
375.3411
 20
278.892100000000030
 11
377.2146
 21
278.192000000000010
  0
LINE
  8
PT5-Wymiarowanie33
  6
CONTINUOUS
 62
     7
 10
380.5922
 20
292.943800000000010
 11
382.4657
 21
292.243699999999990
  0
TEXT
  8
PT5-Wymiarowanie33
  6
CONTINUOUS
 62
     7
 10
377.503800000000010
 20
287.556299999999960
 40
2.000000000000000
 50
69.500000000000000
  1
1,50
  0
TEXT
  8
PT5-Wymiarowanie33
  6
CONTINUOUS
 62
     7
 10
352.520899999999980
 20
251.643300000000010
 40
2.000000000000000
 50
339.500000000000000
  1
1,40
  0
LINE
  8
PT5-Wymiarowanie33
  6
CONTINUOUS
 62
     7
 10
347.7514
 20
250.770600000000000
 11
360.8657
 21
245.869800000000000
  0
LINE
  8
PT5-Wymiarowanie33
  6
CONTINUOUS
 62
     7
 10
346.8147
 20
251.120700000000000
 11
347.7514
 21
250.770600000000000
  0
LINE
  8
PT5-Wymiarowanie33
  6
CONTINUOUS
 62
     7
 10
361.8024
 20
245.519800000000000
 11
360.8657
 21
245.869800000000000
  0
LINE
  8
PT5-Wymiarowanie33
  6
CONTINUOUS
 62
     7
 10
348.3947
 20
251.063899999999990
 11
347.1081
 21
250.477300000000010
  0
LINE
  8
PT5-Wymiarowanie33
  6
CONTINUOUS
 62
     7
 10
361.509
 20
246.163099999999990
 11
360.2224
 21
245.576500000000010
  0
LINE
  8
PT5-Wymiarowanie33
  6
CONTINUOUS
 62
     7
 10
347.4013
 20
249.833900000000000
 11
348.1014
 21
251.707300000000000
  0
LINE
  8
PT5-Wymiarowanie33
  6
CONTINUOUS
 62
     7
 10
360.5156
 20
244.933100000000000
 11
361.2157
 21
246.806500000000000
  0
LINE
  8
PT5-Wymiarowanie33
  6
CONTINUOUS
 62
     7
 10
360.8657
 20
245.869800000000000
 11
361.8024
 21
245.519800000000000
  0
LINE
  8
PT5-Wymiarowanie33
  6
CONTINUOUS
 62
     7
 10
359.9289
 20
246.219900000000000
 11
360.8657
 21
245.869800000000000
  0
LINE
  8
PT5-Wymiarowanie33
  6
CONTINUOUS
 62
     7
 10
362.7391
 20
245.169700000000010
 11
361.8024
 21
245.519800000000000
  0
LINE
  8
PT5-Wymiarowanie33
  6
CONTINUOUS
 62
     7
 10
361.509
 20
246.163099999999990
 11
360.2224
 21
245.576500000000010
  0
LINE
  8
PT5-Wymiarowanie33
  6
CONTINUOUS
 62
     7
 10
362.4457
 20
245.813099999999990
 11
361.1591
 21
245.226499999999990
  0
LINE
  8
PT5-Wymiarowanie33
  6
CONTINUOUS
 62
     7
 10
360.5156
 20
244.933100000000000
 11
361.2157
 21
246.806500000000000
  0
LINE
  8
PT5-Wymiarowanie33
  6
CONTINUOUS
 62
     7
 10
361.4523
 20
244.583000000000000
 11
362.1524
 21
246.456500000000010
  0
TEXT
  8
PT5-Wymiarowanie33
  6
CONTINUOUS
 62
     7
 10
360.862399999999980
 20
248.359199999999990
 40
2.000000000000000
 50
339.500000000000000
  1
10
  0
TEXT
  8
PT5-Wymiarowanie33
  6
CONTINUOUS
 62
     7
 10
366.571900000000030
 20
246.392500000000010
 40
2.000000000000000
 50
339.500000000000000
  1
1,40
  0
LINE
  8
PT5-Wymiarowanie33
  6
CONTINUOUS
 62
     7
 10
361.8024
 20
245.519800000000000
 11
374.9166
 21
240.619000000000000
  0
LINE
  8
PT5-Wymiarowanie33
  6
CONTINUOUS
 62
     7
 10
360.8656
 20
245.869800000000000
 11
361.8024
 21
245.519800000000000
  0
LINE
  8
PT5-Wymiarowanie33
  6
CONTINUOUS
 62
     7
 10
375.8533
 20
240.269000000000010
 11
374.9166
 21
240.619000000000000
  0
LINE
  8
PT5-Wymiarowanie33
  6
CONTINUOUS
 62
     7
 10
362.4457
 20
245.813099999999990
 11
361.1591
 21
245.226499999999990
  0
LINE
  8
PT5-Wymiarowanie33
  6
CONTINUOUS
 62
     7
 10
375.5598
 20
240.912299999999990
 11
374.2733
 21
240.325700000000010
  0
LINE
  8
PT5-Wymiarowanie33
  6
CONTINUOUS
 62
     7
 10
361.4523
 20
244.583000000000000
 11
362.1524
 21
246.456500000000010
  0
LINE
  8
PT5-Wymiarowanie33
  6
CONTINUOUS
 62
     7
 10
374.5665
 20
239.682300000000000
 11
375.2666
 21
241.555800000000000
  0
LINE
  8
PT5-Rzut27
  6
CONTINUOUS
 62
     7
 10
359.2839
 20
293.057599999999980
 11
360.2206
 21
292.707600000000010
  0
LINE
  8
PT5-Rzut27
  6
CONTINUOUS
 62
     7
 10
360.2206
 20
292.707600000000010
 11
347.2935
 21
257.829700000000000
  0
LINE
  8
PT5-Wymiarowanie33
  6
CONTINUOUS
 62
     7
 10
333.4018
 20
220.738699999999990
 11
336.1308
 21
219.719100000000000
  0
LINE
  8
PT5-Wymiarowanie33
  6
CONTINUOUS
 62
     7
 10
332.4651
 20
221.088699999999990
 11
333.4018
 21
220.738699999999990
  0
LINE
  8
PT5-Wymiarowanie33
  6
CONTINUOUS
 62
     7
 10
337.0676
 20
219.369100000000000
 11
336.1308
 21
219.719100000000000
  0
LINE
  8
PT5-Wymiarowanie33
  6
CONTINUOUS
 62
     7
 10
334.0451
 20
221.032100000000010
 11
332.7585
 21
220.445400000000010
  0
LINE
  8
PT5-Wymiarowanie33
  6
CONTINUOUS
 62
     7
 10
336.7741
 20
220.012499999999990
 11
335.4875
 21
219.425800000000010
  0
LINE
  8
PT5-Wymiarowanie33
  6
CONTINUOUS
 62
     7
 10
333.0518
 20
219.801999999999990
 11
333.7518
 21
221.675500000000000
  0
LINE
  8
PT5-Wymiarowanie33
  6
CONTINUOUS
 62
     7
 10
335.7808
 20
218.782400000000000
 11
336.4808
 21
220.655900000000000
  0
TEXT
  8
PT5-Wymiarowanie33
  6
CONTINUOUS
 62
     7
 10
335.485999999999990
 20
222.436100000000010
 40
2.000000000000000
 50
339.500000000000000
  1
29
  0
TEXT
  8
PT5-Wymiarowanie33
  6
CONTINUOUS
 62
     7
 10
347.934199999999980
 20
217.964000000000000
 40
2.000000000000000
 50
339.500000000000000
  1
2,90
  0
LINE
  8
PT5-Wymiarowanie33
  6
CONTINUOUS
 62
     7
 10
336.1308
 20
219.719100000000000
 11
363.3135
 21
209.562999999999990
  0
LINE
  8
PT5-Wymiarowanie33
  6
CONTINUOUS
 62
     7
 10
335.194
 20
220.069099999999990
 11
336.1308
 21
219.719100000000000
  0
LINE
  8
PT5-Wymiarowanie33
  6
CONTINUOUS
 62
     7
 10
364.2502
 20
209.212999999999990
 11
363.3135
 21
209.562999999999990
  0
LINE
  8
PT5-Wymiarowanie33
  6
CONTINUOUS
 62
     7
 10
336.7741
 20
220.012499999999990
 11
335.4875
 21
219.425800000000010
  0
LINE
  8
PT5-Wymiarowanie33
  6
CONTINUOUS
 62
     7
 10
363.9567
 20
209.856300000000000
 11
362.6702
 21
209.269600000000000
  0
LINE
  8
PT5-Wymiarowanie33
  6
CONTINUOUS
 62
     7
 10
335.7808
 20
218.782400000000000
 11
336.4808
 21
220.655900000000000
  0
LINE
  8
PT5-Wymiarowanie33
  6
CONTINUOUS
 62
     7
 10
362.9635
 20
208.626200000000010
 11
363.6635
 21
210.499699999999990
  0
LINE
  8
PT5-Wymiarowanie33
  6
CONTINUOUS
 62
     7
 10
363.2314
 20
209.593700000000010
 11
366.9749
 21
208.194999999999990
  0
LINE
  8
PT5-Wymiarowanie33
  6
CONTINUOUS
 62
     7
 10
362.2946
 20
209.943700000000010
 11
363.2314
 21
209.593700000000010
  0
LINE
  8
PT5-Wymiarowanie33
  6
CONTINUOUS
 62
     7
 10
367.9116
 20
207.845000000000000
 11
366.9749
 21
208.194999999999990
  0
LINE
  8
PT5-Wymiarowanie33
  6
CONTINUOUS
 62
     7
 10
363.8746
 20
209.887000000000000
 11
362.5881
 21
209.300299999999990
  0
LINE
  8
PT5-Wymiarowanie33
  6
CONTINUOUS
 62
     7
 10
367.6182
 20
208.488300000000010
 11
366.3316
 21
207.901600000000000
  0
LINE
  8
PT5-Wymiarowanie33
  6
CONTINUOUS
 62
     7
 10
362.8814
 20
208.656900000000010
 11
363.5813
 21
210.530399999999990
  0
LINE
  8
PT5-Wymiarowanie33
  6
CONTINUOUS
 62
     7
 10
366.6249
 20
207.258199999999990
 11
367.3249
 21
209.131700000000000
  0
TEXT
  8
PT5-Wymiarowanie33
  6
CONTINUOUS
 62
     7
 10
364.669500000000030
 20
211.418700000000000
 40
2.000000000000000
 50
339.500000000000000
  1
40
  0
TEXT
  8
PT5-Wymiarowanie33
  6
CONTINUOUS
 62
     7
 10
383.225799999999990
 20
312.387700000000000
 40
2.000000000000000
 50
339.500000000000000
  1
3,70
  0
LINE
  8
PT5-Wymiarowanie33
  6
CONTINUOUS
 62
     7
 10
402.3436
 20
302.589699999999990
 11
367.6838
 21
315.539600000000010
  0
LINE
  8
PT5-Wymiarowanie33
  6
CONTINUOUS
 62
     7
 10
403.2803
 20
302.239699999999970
 11
402.3436
 21
302.589699999999990
  0
LINE
  8
PT5-Wymiarowanie33
  6
CONTINUOUS
 62
     7
 10
366.7471
 20
315.889599999999970
 11
367.6838
 21
315.539600000000010
  0
LINE
  8
PT5-Wymiarowanie33
  6
CONTINUOUS
 62
     7
 10
401.7003
 20
302.296400000000010
 11
402.9869
 21
302.882999999999980
  0
LINE
  8
PT5-Wymiarowanie33
  6
CONTINUOUS
 62
     7
 10
367.0405
 20
315.246300000000020
 11
368.3271
 21
315.832999999999970
  0
LINE
  8
PT5-Wymiarowanie33
  6
CONTINUOUS
 62
     7
 10
402.6936
 20
303.526500000000000
 11
401.9936
 21
301.653000000000020
  0
LINE
  8
PT5-Wymiarowanie33
  6
CONTINUOUS
 62
     7
 10
368.0338
 20
316.476400000000010
 11
367.3338
 21
314.602899999999980
  0
TEXT
  8
PT5-Wymiarowanie33
  6
CONTINUOUS
 62
     7
 10
292.328100000000010
 20
346.349800000000020
 40
2.000000000000000
 50
339.500000000000000
  1
15,55
  0
LINE
  8
PT5-Wymiarowanie33
  6
CONTINUOUS
 62
     7
 10
367.6838
 20
315.539600000000010
 11
222.0095
 21
369.967899999999990
  0
LINE
  8
PT5-Wymiarowanie33
  6
CONTINUOUS
 62
     7
 10
368.6206
 20
315.189599999999980
 11
367.6838
 21
315.539600000000010
  0
LINE
  8
PT5-Wymiarowanie33
  6
CONTINUOUS
 62
     7
 10
221.0727
 20
370.317900000000010
 11
222.0095
 21
369.967899999999990
  0
LINE
  8
PT5-Wymiarowanie33
  6
CONTINUOUS
 62
     7
 10
367.0405
 20
315.246300000000020
 11
368.3271
 21
315.832999999999970
  0
LINE
  8
PT5-Wymiarowanie33
  6
CONTINUOUS
 62
     7
 10
221.3662
 20
369.674600000000000
 11
222.6528
 21
370.261300000000010
  0
LINE
  8
PT5-Wymiarowanie33
  6
CONTINUOUS
 62
     7
 10
368.0338
 20
316.476400000000010
 11
367.3338
 21
314.602899999999980
  0
LINE
  8
PT5-Wymiarowanie33
  6
CONTINUOUS
 62
     7
 10
222.3595
 20
370.904699999999990
 11
221.6595
 21
369.031200000000010
  0
TEXT
  8
PT5-Wymiarowanie33
  6
CONTINUOUS
 62
     7
 10
313.858600000000020
 20
351.116499999999970
 40
2.000000000000000
 50
339.500000000000000
  1
19,25
  0
LINE
  8
PT5-Wymiarowanie33
  6
CONTINUOUS
 62
     7
 10
226.2103
 20
381.210399999999990
 11
406.5438
 21
313.830600000000000
  0
LINE
  8
PT5-Wymiarowanie33
  6
CONTINUOUS
 62
     7
 10
225.2736
 20
381.560400000000020
 11
226.2103
 21
381.210399999999990
  0
LINE
  8
PT5-Wymiarowanie33
  6
CONTINUOUS
 62
     7
 10
407.4806
 20
313.480599999999980
 11
406.5438
 21
313.830600000000000
  0
LINE
  8
PT5-Wymiarowanie33
  6
CONTINUOUS
 62
     7
 10
226.8536
 20
381.503699999999980
 11
225.5671
 21
380.917100000000000
  0
LINE
  8
PT5-Wymiarowanie33
  6
CONTINUOUS
 62
     7
 10
407.1871
 20
314.123899999999990
 11
405.9006
 21
313.537300000000020
  0
LINE
  8
PT5-Wymiarowanie33
  6
CONTINUOUS
 62
     7
 10
226.5604
 20
382.147100000000020
 11
225.8603
 21
380.273599999999990
  0
LINE
  8
PT5-Wymiarowanie33
  6
CONTINUOUS
 62
     7
 10
406.8939
 20
314.767400000000010
 11
406.1938
 21
312.893900000000030
  0
LINE
  8
PT5-Wymiarowanie33
  6
CONTINUOUS
 62
     7
 10
404.4437
 20
308.210199999999990
 11
400.6967
 21
309.610200000000020
  0
LINE
  8
PT5-Wymiarowanie33
  6
CONTINUOUS
 62
     7
 10
405.3804
 20
307.860200000000020
 11
404.4437
 21
308.210199999999990
  0
LINE
  8
PT5-Wymiarowanie33
  6
CONTINUOUS
 62
     7
 10
399.7599
 20
309.960199999999990
 11
400.6967
 21
309.610200000000020
  0
LINE
  8
PT5-Wymiarowanie33
  6
CONTINUOUS
 62
     7
 10
403.8004
 20
307.916900000000000
 11
405.0869
 21
308.503500000000030
  0
LINE
  8
PT5-Wymiarowanie33
  6
CONTINUOUS
 62
     7
 10
400.0534
 20
309.316900000000030
 11
401.3399
 21
309.903500000000010
  0
LINE
  8
PT5-Wymiarowanie33
  6
CONTINUOUS
 62
     7
 10
404.7937
 20
309.146900000000020
 11
404.0937
 21
307.273399999999980
  0
LINE
  8
PT5-Wymiarowanie33
  6
CONTINUOUS
 62
     7
 10
401.0467
 20
310.546899999999990
 11
400.3467
 21
308.673400000000020
  0
TEXT
  8
PT5-Wymiarowanie33
  6
CONTINUOUS
 62
     7
 10
401.947400000000020
 20
311.332099999999970
 40
2.000000000000000
 50
339.500000000000000
  1
40
  0
TEXT
  8
PT5-Wymiarowanie33
  6
CONTINUOUS
 62
     7
 10
385.325899999999990
 20
318.008199999999990
 40
2.000000000000000
 50
339.500000000000000
  1
2,90
  0
LINE
  8
PT5-Wymiarowanie33
  6
CONTINUOUS
 62
     7
 10
400.6967
 20
309.610200000000020
 11
373.5309
 21
319.760200000000000
  0
LINE
  8
PT5-Wymiarowanie33
  6
CONTINUOUS
 62
     7
 10
401.6334
 20
309.260200000000000
 11
400.6967
 21
309.610200000000020
  0
LINE
  8
PT5-Wymiarowanie33
  6
CONTINUOUS
 62
     7
 10
372.5942
 20
320.110200000000020
 11
373.5309
 21
319.760200000000000
  0
LINE
  8
PT5-Wymiarowanie33
  6
CONTINUOUS
 62
     7
 10
400.0534
 20
309.316900000000030
 11
401.3399
 21
309.903500000000010
  0
LINE
  8
PT5-Wymiarowanie33
  6
CONTINUOUS
 62
     7
 10
372.8877
 20
319.466900000000010
 11
374.1742
 21
320.053600000000020
  0
LINE
  8
PT5-Wymiarowanie33
  6
CONTINUOUS
 62
     7
 10
401.0467
 20
310.546899999999990
 11
400.3467
 21
308.673400000000020
  0
LINE
  8
PT5-Wymiarowanie33
  6
CONTINUOUS
 62
     7
 10
373.8809
 20
320.697000000000000
 11
373.1809
 21
318.823499999999970
  0
LINE
  8
PT5-Wymiarowanie33
  6
CONTINUOUS
 62
     7
 10
373.5309
 20
319.760200000000000
 11
369.784
 21
321.160200000000030
  0
LINE
  8
PT5-Wymiarowanie33
  6
CONTINUOUS
 62
     7
 10
374.4677
 20
319.410200000000030
 11
373.5309
 21
319.760200000000000
  0
LINE
  8
PT5-Wymiarowanie33
  6
CONTINUOUS
 62
     7
 10
368.8472
 20
321.510200000000000
 11
369.784
 21
321.160200000000030
  0
LINE
  8
PT5-Wymiarowanie33
  6
CONTINUOUS
 62
     7
 10
372.8877
 20
319.466900000000010
 11
374.1742
 21
320.053600000000020
  0
LINE
  8
PT5-Wymiarowanie33
  6
CONTINUOUS
 62
     7
 10
369.1407
 20
320.866899999999990
 11
370.4272
 21
321.453599999999990
  0
LINE
  8
PT5-Wymiarowanie33
  6
CONTINUOUS
 62
     7
 10
373.8809
 20
320.697000000000000
 11
373.1809
 21
318.823499999999970
  0
LINE
  8
PT5-Wymiarowanie33
  6
CONTINUOUS
 62
     7
 10
370.134
 20
322.096999999999980
 11
369.434
 21
320.223500000000000
  0
TEXT
  8
PT5-Wymiarowanie33
  6
CONTINUOUS
 62
     7
 10
371.133300000000020
 20
322.895600000000000
 40
2.000000000000000
 50
339.500000000000000
  1
40
  0
TEXT
  8
PT5-Wymiarowanie33
  6
CONTINUOUS
 62
     7
 10
294.428699999999990
 20
351.971000000000000
 40
2.000000000000000
 50
339.500000000000000
  1
15,55
  0
LINE
  8
PT5-Wymiarowanie33
  6
CONTINUOUS
 62
     7
 10
369.7841
 20
321.160200000000030
 11
224.1103
 21
375.589900000000000
  0
LINE
  8
PT5-Wymiarowanie33
  6
CONTINUOUS
 62
     7
 10
370.7209
 20
320.810200000000010
 11
369.7841
 21
321.160200000000030
  0
LINE
  8
PT5-Wymiarowanie33
  6
CONTINUOUS
 62
     7
 10
223.1736
 20
375.939900000000020
 11
224.1103
 21
375.589900000000000
  0
LINE
  8
PT5-Wymiarowanie33
  6
CONTINUOUS
 62
     7
 10
369.1409
 20
320.866800000000010
 11
370.4274
 21
321.453500000000020
  0
LINE
  8
PT5-Wymiarowanie33
  6
CONTINUOUS
 62
     7
 10
223.4671
 20
375.296600000000010
 11
224.7536
 21
375.883199999999990
  0
LINE
  8
PT5-Wymiarowanie33
  6
CONTINUOUS
 62
     7
 10
370.1341
 20
322.096900000000010
 11
369.4341
 21
320.223399999999970
  0
LINE
  8
PT5-Wymiarowanie33
  6
CONTINUOUS
 62
     7
 10
224.4604
 20
376.526599999999970
 11
223.7603
 21
374.653099999999990
  0
ARC
  8
PT2-Wymiarowanie8
  6
GESTRICHELT
 62
     7
 10
242.575899999999990
 20
68.035500000000013
 40
12.000000000000000
 50
166.471100000000010
 51
249.723199999999990
  0
LINE
  8
PT6-Rzut39
  6
CONTINUOUS
 62
     7
 10
200.5575
 20
312.545799999999990
 11
198.7655
 21
313.215800000000000
  0
LINE
  8
PT5-Rzut27
  6
CONTINUOUS
 62
     7
 10
259.6807
 20
124.514900000000010
 11
261.081
 21
128.261900000000030
  0
LINE
  8
PT5-Rzut27
  6
CONTINUOUS
 62
     7
 10
259.7031
 20
124.506500000000020
 11
262.1162
 21
123.604699999999980
  0
LINE
  8
PT5-Rzut27
  6
CONTINUOUS
 62
     7
 10
262.1162
 20
123.604699999999980
 11
263.4933
 21
127.360500000000000
  0
LINE
  8
PT5-Rzut27
  6
CONTINUOUS
 62
     7
 10
263.4933
 20
127.360500000000000
 11
261.0855
 21
128.260200000000000
  0
LINE
  8
PT5-Rzut27
  6
CONTINUOUS
 62
     7
 10
260.6736
 20
127.133100000000010
 11
261.9891
 21
126.641500000000010
  0
LINE
  8
PT5-Rzut27
  6
CONTINUOUS
 62
     7
 10
261.9891
 20
126.641500000000010
 11
261.4122
 21
125.148900000000030
  0
LINE
  8
PT5-Rzut27
  6
CONTINUOUS
 62
     7
 10
261.4122
 20
125.148900000000030
 11
260.1008
 21
125.639000000000010
  0
CIRCLE
  8
PT5-Rzut27
  6
CONTINUOUS
 62
     7
 10
261.049100000000010
 20
126.100399999999980
 40
0.706400000000000
  0
LINE
  8
PT5-Rzut27
  6
CONTINUOUS
 62
     7
 10
260.3991
 20
125.787899999999980
 11
261.6866
 21
126.412899999999980
  0
LINE
  8
PT5-Wymiarowanie33
  6
CONTINUOUS
 62
     7
 10
257.9141
 20
119.837400000000000
 11
259.2112
 21
119.347500000000030
  0
LINE
  8
PT5-Wymiarowanie33
  6
CONTINUOUS
 62
     7
 10
256.9786
 20
120.190699999999990
 11
257.9141
 21
119.837400000000000
  0
LINE
  8
PT5-Wymiarowanie33
  6
CONTINUOUS
 62
     7
 10
260.1467
 20
118.994199999999980
 11
259.2112
 21
119.347500000000030
  0
LINE
  8
PT5-Wymiarowanie33
  6
CONTINUOUS
 62
     7
 10
258.5584
 20
120.128400000000000
 11
257.2698
 21
119.546299999999970
  0
LINE
  8
PT5-Wymiarowanie33
  6
CONTINUOUS
 62
     7
 10
259.8555
 20
119.638500000000020
 11
258.5669
 21
119.056500000000030
  0
LINE
  8
PT5-Wymiarowanie33
  6
CONTINUOUS
 62
     7
 10
257.5608
 20
118.901900000000010
 11
258.2674
 21
120.772899999999990
  0
LINE
  8
PT5-Wymiarowanie33
  6
CONTINUOUS
 62
     7
 10
258.8579
 20
118.411999999999980
 11
259.5645
 21
120.283000000000020
  0
TEXT
  8
PT5-Wymiarowanie33
  6
CONTINUOUS
 62
     7
 10
256.305099999999980
 20
122.122000000000010
 40
1.500000000000000
 50
339.300000000000010
  1
14
  0
LINE
  8
PT5-Wymiarowanie33
  6
CONTINUOUS
 62
     7
 10
259.2112
 20
119.347500000000030
 11
260.3464
 21
118.918799999999980
  0
LINE
  8
PT5-Wymiarowanie33
  6
CONTINUOUS
 62
     7
 10
258.2757
 20
119.700800000000020
 11
259.2112
 21
119.347500000000030
  0
LINE
  8
PT5-Wymiarowanie33
  6
CONTINUOUS
 62
     7
 10
261.2819
 20
118.565400000000010
 11
260.3464
 21
118.918799999999980
  0
LINE
  8
PT5-Wymiarowanie33
  6
CONTINUOUS
 62
     7
 10
259.8555
 20
119.638500000000020
 11
258.5669
 21
119.056500000000030
  0
LINE
  8
PT5-Wymiarowanie33
  6
CONTINUOUS
 62
     7
 10
260.9907
 20
119.209799999999970
 11
259.7021
 21
118.627700000000000
  0
LINE
  8
PT5-Wymiarowanie33
  6
CONTINUOUS
 62
     7
 10
258.8579
 20
118.411999999999980
 11
259.5645
 21
120.283000000000020
  0
LINE
  8
PT5-Wymiarowanie33
  6
CONTINUOUS
 62
     7
 10
259.9931
 20
117.983299999999990
 11
260.6997
 21
119.854300000000020
  0
TEXT
  8
PT5-Wymiarowanie33
  6
CONTINUOUS
 62
     7
 10
260.533599999999980
 20
120.302799999999990
 40
1.500000000000000
 50
339.300000000000010
  1
12
  0
LINE
  8
PT5-Wymiarowanie33
  6
CONTINUOUS
 62
     7
 10
266.5752
 20
121.854100000000020
 11
267.01
 21
122.972699999999970
  0
LINE
  8
PT5-Wymiarowanie33
  6
CONTINUOUS
 62
     7
 10
266.2128
 20
120.922100000000000
 11
266.5752
 21
121.854100000000020
  0
LINE
  8
PT5-Wymiarowanie33
  6
CONTINUOUS
 62
     7
 10
267.3724
 20
123.904699999999990
 11
267.01
 21
122.972699999999970
  0
LINE
  8
PT5-Wymiarowanie33
  6
CONTINUOUS
 62
     7
 10
266.2904
 20
122.501199999999980
 11
266.86
 21
121.206999999999990
  0
LINE
  8
PT5-Wymiarowanie33
  6
CONTINUOUS
 62
     7
 10
266.7252
 20
123.619800000000000
 11
267.2948
 21
122.325600000000010
  0
LINE
  8
PT5-Wymiarowanie33
  6
CONTINUOUS
 62
     7
 10
267.5072
 20
121.491800000000010
 11
265.6431
 21
122.216500000000000
  0
LINE
  8
PT5-Wymiarowanie33
  6
CONTINUOUS
 62
     7
 10
267.9421
 20
122.610300000000000
 11
266.078
 21
123.334999999999980
  0
TEXT
  8
PT5-Wymiarowanie33
  6
CONTINUOUS
 62
     7
 10
264.723999999999990
 20
120.721099999999980
 40
1.500000000000000
 50
68.799999999999997
  1
12
  0
LINE
  8
PT5-Wymiarowanie33
  6
CONTINUOUS
 62
     7
 10
267.01
 20
122.972699999999970
 11
267.59
 21
124.464499999999990
  0
LINE
  8
PT5-Wymiarowanie33
  6
CONTINUOUS
 62
     7
 10
266.6477
 20
122.040599999999980
 11
267.01
 21
122.972699999999970
  0
LINE
  8
PT5-Wymiarowanie33
  6
CONTINUOUS
 62
     7
 10
267.9523
 20
125.396500000000000
 11
267.59
 21
124.464499999999990
  0
LINE
  8
PT5-Wymiarowanie33
  6
CONTINUOUS
 62
     7
 10
266.7252
 20
123.619800000000000
 11
267.2948
 21
122.325600000000010
  0
LINE
  8
PT5-Wymiarowanie33
  6
CONTINUOUS
 62
     7
 10
267.3052
 20
125.111499999999980
 11
267.8748
 21
123.817400000000020
  0
LINE
  8
PT5-Wymiarowanie33
  6
CONTINUOUS
 62
     7
 10
267.9421
 20
122.610300000000000
 11
266.078
 21
123.334999999999980
  0
LINE
  8
PT5-Wymiarowanie33
  6
CONTINUOUS
 62
     7
 10
268.522
 20
124.102100000000010
 11
266.6579
 21
124.826799999999990
  0
TEXT
  8
PT5-Wymiarowanie33
  6
CONTINUOUS
 62
     7
 10
265.578899999999980
 20
123.437299999999990
 40
1.500000000000000
 50
68.799999999999997
  1
16
  0
LINE
  8
PT5-Wymiarowanie33
  6
CONTINUOUS
 62
     7
 10
267.59
 20
124.464499999999990
 11
268.0248
 21
125.582800000000020
  0
LINE
  8
PT5-Wymiarowanie33
  6
CONTINUOUS
 62
     7
 10
267.2276
 20
123.532400000000000
 11
267.59
 21
124.464499999999990
  0
LINE
  8
PT5-Wymiarowanie33
  6
CONTINUOUS
 62
     7
 10
268.3871
 20
126.514799999999980
 11
268.0248
 21
125.582800000000020
  0
LINE
  8
PT5-Wymiarowanie33
  6
CONTINUOUS
 62
     7
 10
267.3052
 20
125.111499999999980
 11
267.8748
 21
123.817400000000020
  0
LINE
  8
PT5-Wymiarowanie33
  6
CONTINUOUS
 62
     7
 10
267.74
 20
126.229899999999990
 11
268.3096
 21
124.935700000000000
  0
LINE
  8
PT5-Wymiarowanie33
  6
CONTINUOUS
 62
     7
 10
268.522
 20
124.102100000000010
 11
266.6579
 21
124.826799999999990
  0
LINE
  8
PT5-Wymiarowanie33
  6
CONTINUOUS
 62
     7
 10
268.9568
 20
125.220399999999980
 11
267.0927
 21
125.945100000000020
  0
TEXT
  8
PT5-Wymiarowanie33
  6
CONTINUOUS
 62
     7
 10
266.541600000000020
 20
126.715899999999980
 40
1.500000000000000
 50
68.799999999999997
  1
12
  0
LINE
  8
PT5-Opis32
  6
CONTINUOUS
 62
     7
 10
319.3992
 20
228.968999999999990
 11
321.3992
 21
232.433100000000000
  0
LINE
  8
PT5-Opis32
  6
CONTINUOUS
 62
     7
 10
321.3992
 20
232.433100000000000
 11
317.3992
 21
232.433100000000000
  0
TEXT
  8
PT5-Opis32
  6
CONTINUOUS
 62
     7
 10
316.989800000000000
 20
233.654299999999980
 40
2.247000000000000
  1
+3.16
  0
LINE
  8
PT5-Opis32
  6
CONTINUOUS
 62
     7
 10
319.3992
 20
228.968999999999990
 11
317.3992
 21
232.433100000000000
  0
LINE
  8
PT5-Opis32
  6
CONTINUOUS
 62
     7
 10
367.6698
 20
286.188300000000030
 11
369.6698
 21
289.652400000000000
  0
LINE
  8
PT5-Opis32
  6
CONTINUOUS
 62
     7
 10
369.6698
 20
289.652400000000000
 11
365.6698
 21
289.652400000000000
  0
TEXT
  8
PT5-Opis32
  6
CONTINUOUS
 62
     7
 10
365.260400000000000
 20
290.873600000000010
 40
2.247000000000000
  1
+1.58
  0
LINE
  8
PT5-Opis32
  6
CONTINUOUS
 62
     7
 10
367.6698
 20
286.188300000000030
 11
365.6698
 21
289.652400000000000
  0
POLYLINE
  8
PT1-Tabelka_rysu1
  6
CONTINUOUS
 62
     7
 66
     1
 70
     1
  0
VERTEX
  8
PT1-Tabelka_rysu1
 10
487.5799
 20
10.075300000000027
  0
VERTEX
  8
PT1-Tabelka_rysu1
 10
559.5466
 20
10.075300000000027
  0
VERTEX
  8
PT1-Tabelka_rysu1
 10
559.5466
 20
11.133600000000001
  0
VERTEX
  8
PT1-Tabelka_rysu1
 10
487.5799
 20
11.133600000000001
  0
SEQEND
  8
PT1-Tabelka_rysu1
  0
LINE
  8
PT1-Tabelka_rysu1
  6
CONTINUOUS
 62
     7
 10
486.5216
 20
11.133500000000026
 11
558.4883
 21
11.133500000000026
  0
LINE
  8
PT1-Tabelka_rysu1
  6
CONTINUOUS
 62
     7
 10
487.2271
 20
11.839099999999974
 11
557.7827
 21
11.839099999999974
  0
LINE
  8
PT1-Tabelka_rysu1
  6
CONTINUOUS
 62
     7
 10
557.7827
 20
11.839099999999974
 11
557.7827
 21
56.994700000000023
  0
LINE
  8
PT1-Tabelka_rysu1
  6
CONTINUOUS
 62
     7
 10
557.7827
 20
56.994700000000023
 11
487.2271
 21
56.994700000000023
  0
LINE
  8
PT1-Tabelka_rysu1
  6
CONTINUOUS
 62
     7
 10
487.2271
 20
11.839099999999974
 11
487.2271
 21
56.994700000000023
  0
LINE
  8
PT1-Tabelka_rysu1
  6
CONTINUOUS
 62
     7
 10
487.2271
 20
28.772499999999980
 11
557.7827
 21
28.772499999999980
  0
TEXT
  8
PT1-Tabelka_rysu1
  6
CONTINUOUS
 62
     7
 10
487.932700000000010
 20
26.622099999999989
 40
1.797600000000000
  1
Skala:
  0
TEXT
  8
PT1-Tabelka_rysu1
  6
CONTINUOUS
 62
     7
 10
487.932700000000010
 20
26.622099999999989
 40
1.797600000000000
  1
1 : 100
  0
LINE
  8
PT1-Tabelka_rysu1
  6
CONTINUOUS
 62
     7
 10
510.5105
 20
28.772499999999980
 11
510.5105
 21
25.244700000000023
  0
TEXT
  8
PT1-Tabelka_rysu1
  6
CONTINUOUS
 62
     7
 10
511.216000000000010
 20
26.622099999999989
 40
1.797600000000000
  1
Data:
  0
TEXT
  8
PT1-Tabelka_rysu1
  6
CONTINUOUS
 62
     7
 10
511.216000000000010
 20
26.622099999999989
 40
1.797600000000000
  1
07.2004
  0
LINE
  8
PT1-Tabelka_rysu1
  6
CONTINUOUS
 62
     7
 10
533.7938
 20
28.772499999999980
 11
533.7938
 21
25.244700000000023
  0
TEXT
  8
PT1-Tabelka_rysu1
  6
CONTINUOUS
 62
     7
 10
534.798999999999980
 20
26.622099999999989
 40
1.797600000000000
  1
04-P-04/A
  0
LINE
  8
PT1-Tabelka_rysu1
  6
CONTINUOUS
 62
     7
 10
487.2271
 20
32.300200000000018
 11
557.7827
 21
32.300200000000018
  0
TEXT
  8
PT1-Tabelka_rysu1
  6
CONTINUOUS
 62
     7
 10
487.932700000000010
 20
30.149900000000002
 40
1.797600000000000
  1
Branża:  architektoniczna
  0
TEXT
  8
PT1-Tabelka_rysu1
  6
CONTINUOUS
 62
     7
 10
487.932700000000010
 20
54.491500000000030
 40
1.797600000000000
  1
Projekt: Rozbudowa Szkoły Podstawowej i Gimnazjum
  0
TEXT
  8
PT1-Tabelka_rysu1
  6
CONTINUOUS
 62
     7
 10
487.932700000000010
 20
51.795100000000048
 40
1.797600000000000
  1
              w Rzerzęczycach
  0
LINE
  8
PT1-Tabelka_rysu1
  6
CONTINUOUS
 62
     7
 10
487.2271
 20
48.880800000000022
 11
557.7827
 21
48.880800000000022
  0
TEXT
  8
PT1-Tabelka_rysu1
  6
CONTINUOUS
 62
     7
 10
488.082499999999980
 20
46.377600000000029
 40
1.797600000000000
  1
Inwestor: Urząd Gminy w Kłomnicach
  0
TEXT
  8
PT1-Tabelka_rysu1
  6
CONTINUOUS
 62
     7
 10
488.082499999999980
 20
43.681199999999990
 40
1.797600000000000
  1
                ul. Strażacka 20, 42-270 Kłomnice
  0
LINE
  8
PT1-Tabelka_rysu1
  6
CONTINUOUS
 62
     7
 10
487.2271
 20
40.766900000000021
 11
557.7827
 21
40.766900000000021
  0
TEXT
  8
PT1-Tabelka_rysu1
  6
CONTINUOUS
 62
     7
 10
487.932700000000010
 20
38.853299999999990
 40
1.797600000000000
  1
Projektował: Beata Król-Stroba UAB-VIII/83861/102/90
  0
TEXT
  8
PT1-Tabelka_rysu1
  6
CONTINUOUS
 62
     7
 10
499.574299999999990
 20
54.491500000000030
 40
1.797600000000000
  1

  0
TEXT
  8
PT1-Tabelka_rysu1
  6
CONTINUOUS
 62
     7
 10
499.574299999999990
 20
42.849899999999991
 40
1.797600000000000
  1
 
  0
LINE
  8
PT1-Tabelka_rysu1
  6
CONTINUOUS
 62
     7
 10
487.2271
 20
25.244700000000023
 11
557.7827
 21
25.244700000000023
  0
TEXT
  8
PT1-Tabelka_rysu1
  6
CONTINUOUS
 62
     7
 10
487.932700000000010
 20
22.388700000000028
 40
1.797600000000000
  1

  0
TEXT
  8
PT1-Tabelka_rysu1
  6
CONTINUOUS
 62
     7
 10
487.856100000000030
 20
35.958300000000008
 40
1.797600000000000
  1
Sprawdził: Witold Dominik   -  Decyzja Nr 65
  0
TEXT
  8
PT1-Tabelka_rysu1
  6
CONTINUOUS
 62
     7
 10
487.940299999999980
 20
33.178800000000024
 40
1.797600000000000
  1
Opracował: Michał Urbańczyk
  0
TEXT
  8
PT1-Tabelka_rysu1
  6
CONTINUOUS
 62
     7
 10
487.984199999999990
 20
22.865900000000011
 40
1.797600000000000
  1
Nazwa rysunku:
  0
TEXT
  8
PT1-Tabelka_rysu1
  6
CONTINUOUS
 62
     7
 10
487.643500000000020
 20
13.629500000000007
 40
2.500000000000000
  1
RZUT PIĘTRA (WIDOWNIA)
  0
TEXT
  8
PT1-Tabelka_rysu1
  6
CONTINUOUS
 62
     7
 10
487.607700000000020
 20
18.083399999999983
 40
2.500000000000000
  1
Sala gimnastyczna
  0
LINE
  8
PT1-Tabelka_rysu1
  6
CONTINUOUS
 62
     7
 10
491.5453
 20
329.801600000000010
 11
491.5453
 21
309.719699999999990
  0
LINE
  8
PT1-Tabelka_rysu1
  6
CONTINUOUS
 62
     7
 10
491.5449
 20
309.719699999999990
 11
517.1967
 21
309.719699999999990
  0
LINE
  8
PT1-Tabelka_rysu1
  6
CONTINUOUS
 62
     7
 10
517.1967
 20
309.720000000000030
 11
517.1966
 21
308.961900000000010
  0
LINE
  8
PT1-Tabelka_rysu1
  6
CONTINUOUS
 62
     7
 10
517.1963
 20
308.961900000000010
 11
521.895
 21
308.961900000000010
  0
LINE
  8
PT1-Tabelka_rysu1
  6
CONTINUOUS
 62
     7
 10
521.895
 20
308.961599999999980
 11
521.8949
 21
309.719699999999990
  0
LINE
  8
PT1-Tabelka_rysu1
  6
CONTINUOUS
 62
     7
 10
521.8946
 20
309.719699999999990
 11
542.5071
 21
309.722300000000020
  0
LINE
  8
PT1-Tabelka_rysu1
  6
CONTINUOUS
 62
     7
 10
542.5071
 20
309.722700000000030
 11
542.5071
 21
309.719699999999990
  0
LINE
  8
PT1-Tabelka_rysu1
  6
CONTINUOUS
 62
     7
 10
542.5068
 20
309.719699999999990
 11
543.0123
 21
309.719699999999990
  0
LINE
  8
PT1-Tabelka_rysu1
  6
CONTINUOUS
 62
     7
 10
543.0123
 20
309.719400000000010
 11
543.0123
 21
329.801299999999970
  0
LINE
  8
PT1-Tabelka_rysu1
  6
CONTINUOUS
 62
     7
 10
543.0126
 20
329.801299999999970
 11
521.0993
 21
329.801299999999970
  0
LINE
  8
PT1-Tabelka_rysu1
  6
CONTINUOUS
 62
     7
 10
521.0993
 20
329.801600000000010
 11
521.0993
 21
321.623400000000000
  0
LINE
  8
PT1-Tabelka_rysu1
  6
CONTINUOUS
 62
     7
 10
521.0996
 20
321.623400000000000
 11
517.3356
 21
321.623400000000000
  0
LINE
  8
PT1-Tabelka_rysu1
  6
CONTINUOUS
 62
     7
 10
517.3356
 20
321.623699999999990
 11
517.3356
 21
309.719699999999990
  0
LINE
  8
PT1-Tabelka_rysu1
  6
CONTINUOUS
 62
     7
 10
517.3359
 20
309.719699999999990
 11
517.3103
 21
309.719699999999990
  0
LINE
  8
PT1-Tabelka_rysu1
  6
CONTINUOUS
 62
     7
 10
517.3103
 20
309.719400000000010
 11
517.3103
 21
337.299500000000020
  0
LINE
  8
PT1-Tabelka_rysu1
  6
CONTINUOUS
 62
     7
 10
503.5184
 20
343.972300000000020
 11
503.5184
 21
329.801299999999970
  0
LINE
  8
PT1-Tabelka_rysu1
  6
CONTINUOUS
 62
     7
 10
503.5188
 20
329.801299999999970
 11
491.5453
 21
329.801299999999970
  0
LINE
  8
PT1-Tabelka_rysu1
  6
CONTINUOUS
 62
     7
 10
495.0435
 20
334.360999999999990
 11
495.0437
 21
329.801299999999970
  0
LINE
  8
PT1-Tabelka_rysu1
  6
CONTINUOUS
 62
     7
 10
503.5184
 20
334.360700000000010
 11
495.0435
 21
334.360700000000010
  0
LINE
  8
PT1-Tabelka_rysu1
  6
CONTINUOUS
 62
     7
 10
508.7748
 20
371.104500000000030
 11
499.237
 21
345.571700000000020
  0
LINE
  8
PT1-Tabelka_rysu1
  6
CONTINUOUS
 62
     7
 10
499.2367
 20
345.571800000000000
 11
511.5743
 21
340.963000000000020
  0
LINE
  8
PT1-Tabelka_rysu1
  6
CONTINUOUS
 62
     7
 10
517.7505
 20
338.655899999999970
 11
526.4355
 21
361.896500000000000
  0
LINE
  8
PT1-Tabelka_rysu1
  6
CONTINUOUS
 62
     7
 10
526.4355
 20
361.896500000000000
 11
530.6947
 21
360.305099999999980
  0
LINE
  8
PT1-Tabelka_rysu1
  6
CONTINUOUS
 62
     7
 10
530.6946
 20
360.304800000000000
 11
533.7011
 21
368.350100000000000
  0
LINE
  8
PT1-Tabelka_rysu1
  6
CONTINUOUS
 62
     7
 10
533.7014
 20
368.350000000000020
 11
529.3236
 21
369.985700000000010
  0
LINE
  8
PT1-Tabelka_rysu1
  6
CONTINUOUS
 62
     7
 10
529.3237
 20
369.985999999999990
 11
528.8218
 21
368.642900000000000
  0
LINE
  8
PT1-Tabelka_rysu1
  6
CONTINUOUS
 62
     7
 10
528.8218
 20
368.642900000000000
 11
510.4232
 21
375.517200000000000
  0
LINE
  8
PT1-Tabelka_rysu1
  6
CONTINUOUS
 62
     7
 10
510.4232
 20
375.517200000000000
 11
508.7747
 21
371.104199999999990
  0
LINE
  8
PT1-Tabelka_rysu1
  6
CONTINUOUS
 62
     7
 10
508.7748
 20
371.104500000000030
 11
499.237
 21
345.571700000000020
  0
LINE
  8
PT1-Tabelka_rysu1
  6
CONTINUOUS
 62
     7
 10
499.2367
 20
345.571800000000000
 11
511.5743
 21
340.963000000000020
  0
LINE
  8
PT1-Tabelka_rysu1
  6
CONTINUOUS
 62
     7
 10
508.7748
 20
371.104500000000030
 11
499.237
 21
345.571700000000020
  0
LINE
  8
PT1-Tabelka_rysu1
  6
CONTINUOUS
 62
     7
 10
499.2367
 20
345.571800000000000
 11
517.7505
 21
338.655899999999970
  0
LINE
  8
PT1-Tabelka_rysu1
  6
CONTINUOUS
 62
     7
 10
517.7505
 20
338.655899999999970
 11
517.3103
 21
337.299500000000020
  0
POLYLINE
  8
PT1-Tabelka_rysu1
  6
CONTINUOUS
 62
     7
 66
     1
 70
     1
  0
VERTEX
  8
PT1-Tabelka_rysu1
 10
499.237
 20
345.571700000000020
  0
VERTEX
  8
PT1-Tabelka_rysu1
 10
517.7505
 20
338.655899999999970
  0
VERTEX
  8
PT1-Tabelka_rysu1
 10
526.4355
 20
361.896500000000000
  0
VERTEX
  8
PT1-Tabelka_rysu1
 10
530.6946
 20
360.304800000000000
  0
VERTEX
  8
PT1-Tabelka_rysu1
 10
533.7014
 20
368.350000000000020
  0
VERTEX
  8
PT1-Tabelka_rysu1
 10
529.3237
 20
369.985999999999990
  0
VERTEX
  8
PT1-Tabelka_rysu1
 10
528.8321
 20
368.670599999999980
  0
VERTEX
  8
PT1-Tabelka_rysu1
 10
510.4232
 20
375.517200000000000
  0
SEQEND
  8
PT1-Tabelka_rysu1
  0
LINE
  8
PT5-Wyposażenie34
  6
CONTINUOUS
 62
     7
 10
337.2035
 20
242.541599999999990
 11
337.0161
 21
242.611600000000010
  0
LINE
  8
PT5-Wyposażenie34
  6
CONTINUOUS
 62
     7
 10
335.2146
 20
241.790200000000000
 11
331.224
 21
231.111500000000010
  0
LINE
  8
PT5-Wyposażenie34
  6
CONTINUOUS
 62
     7
 10
332.2327
 20
229.240000000000010
 11
332.0454
 21
229.310000000000000
  0
LINE
  8
PT5-Wyposażenie34
  6
CONTINUOUS
 62
     7
 10
332.4891
 20
229.998300000000000
 11
332.3686
 21
230.043299999999990
  0
LINE
  8
PT5-Wyposażenie34
  6
CONTINUOUS
 62
     7
 10
335.9654
 20
241.507200000000010
 11
332.0158
 21
230.813199999999990
  0
LINE
  8
PT5-Wyposażenie34
  6
CONTINUOUS
 62
     7
 10
336.9234
 20
241.792200000000010
 11
336.7382
 21
241.861400000000000
  0
ARC
  8
PT5-Wyposażenie34
  6
CONTINUOUS
 62
     7
 10
336.528200000000030
 20
241.299299999999990
 40
0.600000000000000
 50
69.509500000000003
 51
159.729299999999990
  0
ARC
  8
PT5-Wyposażenie34
  6
CONTINUOUS
 62
     7
 10
332.578599999999990
 20
230.605300000000000
 40
0.600000000000000
 50
159.729400000000000
 51
249.509500000000000
  0
ARC
  8
PT5-Wyposażenie34
  6
CONTINUOUS
 62
     7
 10
336.526099999999990
 20
241.300199999999990
 40
1.400000000000000
 50
69.509500000000003
 51
159.509300000000000
  0
ARC
  8
PT5-Wyposażenie34
  6
CONTINUOUS
 62
     7
 10
332.535399999999980
 20
230.621500000000000
 40
1.400000000000000
 50
159.509300000000000
 51
249.509500000000000
  0
LINE
  8
PT5-Wyposażenie34
  6
CONTINUOUS
 62
     7
 10
331.9504
 20
228.491500000000000
 11
331.7635
 21
228.562600000000000
  0
LINE
  8
PT5-Wyposażenie34
  6
CONTINUOUS
 62
     7
 10
331.6422
 20
227.752800000000010
 11
331.522
 21
227.798499999999990
  0
ARC
  8
PT5-Wyposażenie34
  6
CONTINUOUS
 62
     7
 10
331.308600000000010
 20
227.237799999999990
 40
0.600000000000000
 50
69.164800000000014
 51
158.944899999999960
  0
ARC
  8
PT5-Wyposażenie34
  6
CONTINUOUS
 62
     7
 10
331.265499999999970
 20
227.254200000000000
 40
1.400000000000000
 50
69.164800000000014
 51
159.164999999999960
  0
LINE
  8
PT5-Wyposażenie34
  6
CONTINUOUS
 62
     7
 10
326.9818
 20
215.189100000000000
 11
326.7944
 21
215.259199999999990
  0
LINE
  8
PT5-Wyposażenie34
  6
CONTINUOUS
 62
     7
 10
325.9731
 20
217.060700000000000
 11
329.9638
 21
227.739299999999990
  0
LINE
  8
PT5-Wyposażenie34
  6
CONTINUOUS
 62
     7
 10
326.7255
 20
216.782000000000010
 11
330.7572
 21
227.445300000000000
  0
LINE
  8
PT5-Wyposażenie34
  6
CONTINUOUS
 62
     7
 10
327.2618
 20
215.938500000000000
 11
327.0766
 21
216.007700000000000
  0
ARC
  8
PT5-Wyposażenie34
  6
CONTINUOUS
 62
     7
 10
327.286700000000000
 20
216.569799999999990
 40
0.600000000000000
 50
159.288900000000010
 51
249.508699999999980
  0
ARC
  8
PT5-Wyposażenie34
  6
CONTINUOUS
 62
     7
 10
327.284499999999980
 20
216.570600000000010
 40
1.400000000000000
 50
159.508900000000040
 51
249.508699999999980
  0
LINE
  8
PT5-Wyposażenie34
  6
CONTINUOUS
 62
     7
 10
326.7017
 20
214.439799999999990
 11
326.5144
 21
214.509800000000010
  0
LINE
  8
PT5-Wyposażenie34
  6
CONTINUOUS
 62
     7
 10
324.7129
 20
213.688400000000000
 11
320.7222
 21
203.009800000000010
  0
LINE
  8
PT5-Wyposażenie34
  6
CONTINUOUS
 62
     7
 10
325.4636
 20
213.405399999999990
 11
321.5139
 21
202.711400000000000
  0
LINE
  8
PT5-Wyposażenie34
  6
CONTINUOUS
 62
     7
 10
326.4217
 20
213.690400000000010
 11
326.2365
 21
213.759600000000010
  0
ARC
  8
PT5-Wyposażenie34
  6
CONTINUOUS
 62
     7
 10
326.026400000000020
 20
213.197499999999990
 40
0.600000000000000
 50
69.509000000000015
 51
159.728799999999980
  0
ARC
  8
PT5-Wyposażenie34
  6
CONTINUOUS
 62
     7
 10
326.024299999999980
 20
213.198399999999990
 40
1.400000000000000
 50
69.509000000000015
 51
159.508800000000060
  0
LINE
  8
PT5-Wyposażenie34
  6
CONTINUOUS
 62
     7
 10
321.4485
 20
200.389800000000010
 11
321.2616
 21
200.460900000000010
  0
LINE
  8
PT5-Wyposażenie34
  6
CONTINUOUS
 62
     7
 10
321.1404
 20
199.651000000000010
 11
321.0202
 21
199.696800000000000
  0
ARC
  8
PT5-Wyposażenie34
  6
CONTINUOUS
 62
     7
 10
320.806800000000010
 20
199.136000000000000
 40
0.600000000000000
 50
69.165199999999970
 51
158.945299999999970
  0
ARC
  8
PT5-Wyposażenie34
  6
CONTINUOUS
 62
     7
 10
320.763699999999970
 20
199.152400000000000
 40
1.400000000000000
 50
69.165199999999970
 51
159.165399999999980
  0
LINE
  8
PT5-Wyposażenie34
  6
CONTINUOUS
 62
     7
 10
316.48
 20
187.087400000000000
 11
316.2927
 21
187.157400000000000
  0
LINE
  8
PT5-Wyposażenie34
  6
CONTINUOUS
 62
     7
 10
315.4713
 20
188.958900000000000
 11
319.4619
 21
199.637599999999990
  0
LINE
  8
PT5-Wyposażenie34
  6
CONTINUOUS
 62
     7
 10
316.2237
 20
188.680200000000010
 11
320.2553
 21
199.343500000000010
  0
LINE
  8
PT5-Wyposażenie34
  6
CONTINUOUS
 62
     7
 10
316.7601
 20
187.836700000000010
 11
316.5749
 21
187.905900000000000
  0
ARC
  8
PT5-Wyposażenie34
  6
CONTINUOUS
 62
     7
 10
316.784899999999990
 20
188.467999999999990
 40
0.600000000000000
 50
159.289400000000000
 51
249.509199999999960
  0
ARC
  8
PT5-Wyposażenie34
  6
CONTINUOUS
 62
     7
 10
316.782800000000010
 20
188.468799999999990
 40
1.400000000000000
 50
159.509400000000030
 51
249.509199999999960
  0
LINE
  8
PT5-Wyposażenie34
  6
CONTINUOUS
 62
     7
 10
311.2271
 20
173.037200000000010
 11
311.0394
 21
173.105999999999990
  0
LINE
  8
PT5-Wyposażenie34
  6
CONTINUOUS
 62
     7
 10
311.4789
 20
173.796899999999990
 11
311.3582
 21
173.841199999999990
  0
ARC
  8
PT5-Wyposażenie34
  6
CONTINUOUS
 62
     7
 10
311.564799999999990
 20
174.404500000000010
 40
0.600000000000000
 50
160.074199999999990
 51
249.854299999999990
  0
ARC
  8
PT5-Wyposażenie34
  6
CONTINUOUS
 62
     7
 10
311.521500000000000
 20
174.420400000000000
 40
1.400000000000000
 50
159.854099999999990
 51
249.854299999999990
  0
LINE
  8
PT5-Wyposażenie34
  6
CONTINUOUS
 62
     7
 10
316.2
 20
186.337899999999990
 11
316.0126
 21
186.407900000000010
  0
LINE
  8
PT5-Wyposażenie34
  6
CONTINUOUS
 62
     7
 10
314.2111
 20
185.586600000000000
 11
310.2207
 21
174.907800000000010
  0
LINE
  8
PT5-Wyposażenie34
  6
CONTINUOUS
 62
     7
 10
314.9619
 20
185.303599999999990
 11
311.0124
 21
174.609500000000000
  0
LINE
  8
PT5-Wyposażenie34
  6
CONTINUOUS
 62
     7
 10
315.9199
 20
185.588500000000010
 11
315.7347
 21
185.657700000000010
  0
ARC
  8
PT5-Wyposażenie34
  6
CONTINUOUS
 62
     7
 10
315.524700000000000
 20
185.095699999999990
 40
0.600000000000000
 50
69.510400000000004
 51
159.730200000000000
  0
ARC
  8
PT5-Wyposażenie34
  6
CONTINUOUS
 62
     7
 10
315.522600000000010
 20
185.096499999999990
 40
1.400000000000000
 50
69.510400000000004
 51
159.510200000000000
  0
LINE
  8
PT5-Wyposażenie34
  6
CONTINUOUS
 62
     7
 10
305.9782
 20
158.985600000000010
 11
305.7908
 21
159.055700000000000
  0
LINE
  8
PT5-Wyposażenie34
  6
CONTINUOUS
 62
     7
 10
304.9696
 20
160.857200000000010
 11
308.9605
 21
171.535799999999990
  0
LINE
  8
PT5-Wyposażenie34
  6
CONTINUOUS
 62
     7
 10
305.7219
 20
160.578499999999990
 11
309.7539
 21
171.241700000000010
  0
LINE
  8
PT5-Wyposażenie34
  6
CONTINUOUS
 62
     7
 10
306.2582
 20
159.735000000000010
 11
306.0731
 21
159.804200000000010
  0
ARC
  8
PT5-Wyposażenie34
  6
CONTINUOUS
 62
     7
 10
306.283099999999990
 20
160.366300000000000
 40
0.600000000000000
 50
159.287500000000020
 51
249.507299999999990
  0
ARC
  8
PT5-Wyposażenie34
  6
CONTINUOUS
 62
     7
 10
306.281000000000010
 20
160.367099999999990
 40
1.400000000000000
 50
159.507499999999940
 51
249.507299999999990
  0
LINE
  8
PT5-Wyposażenie34
  6
CONTINUOUS
 62
     7
 10
310.9471
 20
172.287900000000010
 11
310.7602
 21
172.359000000000010
  0
LINE
  8
PT5-Wyposażenie34
  6
CONTINUOUS
 62
     7
 10
310.6389
 20
171.549200000000010
 11
310.5187
 21
171.594900000000000
  0
ARC
  8
PT5-Wyposażenie34
  6
CONTINUOUS
 62
     7
 10
310.305299999999990
 20
171.034200000000000
 40
0.600000000000000
 50
69.163400000000024
 51
158.943500000000090
  0
ARC
  8
PT5-Wyposażenie34
  6
CONTINUOUS
 62
     7
 10
310.262200000000010
 20
171.050600000000000
 40
1.400000000000000
 50
69.163400000000024
 51
159.163600000000090
  0
LINE
  8
PT5-Wyposażenie34
  6
CONTINUOUS
 62
     7
 10
300.7252
 20
144.935300000000010
 11
300.5375
 21
145.004200000000000
  0
LINE
  8
PT5-Wyposażenie34
  6
CONTINUOUS
 62
     7
 10
300.977
 20
145.695100000000000
 11
300.8563
 21
145.739399999999990
  0
ARC
  8
PT5-Wyposażenie34
  6
CONTINUOUS
 62
     7
 10
301.062900000000010
 20
146.302699999999990
 40
0.600000000000000
 50
160.074199999999990
 51
249.854299999999990
  0
ARC
  8
PT5-Wyposażenie34
  6
CONTINUOUS
 62
     7
 10
301.019600000000030
 20
146.318500000000000
 40
1.400000000000000
 50
159.854099999999990
 51
249.854299999999990
  0
LINE
  8
PT5-Wyposażenie34
  6
CONTINUOUS
 62
     7
 10
305.6981
 20
158.236099999999990
 11
305.5107
 21
158.306099999999990
  0
LINE
  8
PT5-Wyposażenie34
  6
CONTINUOUS
 62
     7
 10
303.7092
 20
157.484700000000000
 11
299.7188
 21
146.806000000000010
  0
LINE
  8
PT5-Wyposażenie34
  6
CONTINUOUS
 62
     7
 10
304.46
 20
157.201699999999990
 11
300.5105
 21
146.507700000000000
  0
LINE
  8
PT5-Wyposażenie34
  6
CONTINUOUS
 62
     7
 10
305.418
 20
157.486700000000010
 11
305.2328
 21
157.555900000000010
  0
ARC
  8
PT5-Wyposażenie34
  6
CONTINUOUS
 62
     7
 10
305.022800000000020
 20
156.993900000000000
 40
0.600000000000000
 50
69.510400000000004
 51
159.730200000000000
  0
ARC
  8
PT5-Wyposażenie34
  6
CONTINUOUS
 62
     7
 10
305.020699999999980
 20
156.994699999999990
 40
1.400000000000000
 50
69.510400000000004
 51
159.510200000000000
  0
LINE
  8
PT5-Wyposażenie34
  6
CONTINUOUS
 62
     7
 10
295.4763
 20
130.883800000000010
 11
295.2889
 21
130.953800000000000
  0
LINE
  8
PT5-Wyposażenie34
  6
CONTINUOUS
 62
     7
 10
294.4676
 20
132.755299999999980
 11
298.4586
 21
143.433899999999990
  0
LINE
  8
PT5-Wyposażenie34
  6
CONTINUOUS
 62
     7
 10
295.22
 20
132.476600000000020
 11
299.2519
 21
143.139799999999980
  0
LINE
  8
PT5-Wyposażenie34
  6
CONTINUOUS
 62
     7
 10
295.7563
 20
131.633100000000010
 11
295.5711
 21
131.702400000000010
  0
ARC
  8
PT5-Wyposażenie34
  6
CONTINUOUS
 62
     7
 10
295.781200000000010
 20
132.264400000000020
 40
0.600000000000000
 50
159.287500000000020
 51
249.507299999999990
  0
ARC
  8
PT5-Wyposażenie34
  6
CONTINUOUS
 62
     7
 10
295.779000000000000
 20
132.265199999999990
 40
1.400000000000000
 50
159.507499999999940
 51
249.507299999999990
  0
LINE
  8
PT5-Wyposażenie34
  6
CONTINUOUS
 62
     7
 10
300.4452
 20
144.186000000000010
 11
300.2583
 21
144.257100000000010
  0
LINE
  8
PT5-Wyposażenie34
  6
CONTINUOUS
 62
     7
 10
300.137
 20
143.447299999999980
 11
300.0168
 21
143.493100000000030
  0
ARC
  8
PT5-Wyposażenie34
  6
CONTINUOUS
 62
     7
 10
299.803400000000010
 20
142.932300000000000
 40
0.600000000000000
 50
69.163400000000024
 51
158.943500000000090
  0
ARC
  8
PT5-Wyposażenie34
  6
CONTINUOUS
 62
     7
 10
299.760299999999970
 20
142.948699999999970
 40
1.400000000000000
 50
69.163400000000024
 51
159.163600000000090
  0
LINE
  8
PT5-Wyposażenie34
  6
CONTINUOUS
 62
     7
 10
290.2236
 20
116.833399999999980
 11
290.0359
 21
116.902300000000030
  0
LINE
  8
PT5-Wyposażenie34
  6
CONTINUOUS
 62
     7
 10
290.4754
 20
117.593200000000020
 11
290.3547
 21
117.637499999999990
  0
ARC
  8
PT5-Wyposażenie34
  6
CONTINUOUS
 62
     7
 10
290.561300000000020
 20
118.200800000000020
 40
0.600000000000000
 50
160.075500000000010
 51
249.855600000000010
  0
ARC
  8
PT5-Wyposażenie34
  6
CONTINUOUS
 62
     7
 10
290.518100000000000
 20
118.216600000000030
 40
1.400000000000000
 50
159.855400000000000
 51
249.855600000000010
  0
LINE
  8
PT5-Wyposażenie34
  6
CONTINUOUS
 62
     7
 10
295.1962
 20
130.134300000000000
 11
295.0088
 21
130.204299999999990
  0
LINE
  8
PT5-Wyposażenie34
  6
CONTINUOUS
 62
     7
 10
293.2074
 20
129.382900000000010
 11
289.2172
 21
118.704000000000010
  0
LINE
  8
PT5-Wyposażenie34
  6
CONTINUOUS
 62
     7
 10
293.9581
 20
129.099899999999990
 11
290.0089
 21
118.405700000000020
  0
LINE
  8
PT5-Wyposażenie34
  6
CONTINUOUS
 62
     7
 10
294.9162
 20
129.384900000000020
 11
294.731
 21
129.454099999999980
  0
ARC
  8
PT5-Wyposażenie34
  6
CONTINUOUS
 62
     7
 10
294.521000000000020
 20
128.892000000000000
 40
0.600000000000000
 50
69.511700000000005
 51
159.731499999999980
  0
ARC
  8
PT5-Wyposażenie34
  6
CONTINUOUS
 62
     7
 10
294.518800000000000
 20
128.892900000000000
 40
1.400000000000000
 50
69.511700000000005
 51
159.511499999999980
  0
LINE
  8
PT5-Wyposażenie34
  6
CONTINUOUS
 62
     7
 10
284.9748
 20
102.781900000000010
 11
284.7875
 21
102.851900000000000
  0
LINE
  8
PT5-Wyposażenie34
  6
CONTINUOUS
 62
     7
 10
283.9662
 20
104.653399999999980
 11
287.9571
 21
115.331999999999990
  0
LINE
  8
PT5-Wyposażenie34
  6
CONTINUOUS
 62
     7
 10
284.7185
 20
104.374700000000020
 11
288.7504
 21
115.038000000000010
  0
LINE
  8
PT5-Wyposażenie34
  6
CONTINUOUS
 62
     7
 10
285.2549
 20
103.531200000000010
 11
285.0697
 21
103.600399999999980
  0
ARC
  8
PT5-Wyposażenie34
  6
CONTINUOUS
 62
     7
 10
285.279800000000020
 20
104.162500000000020
 40
0.600000000000000
 50
159.288000000000010
 51
249.507799999999970
  0
ARC
  8
PT5-Wyposażenie34
  6
CONTINUOUS
 62
     7
 10
285.277600000000010
 20
104.163299999999990
 40
1.400000000000000
 50
159.508000000000040
 51
249.507799999999970
  0
LINE
  8
PT5-Wyposażenie34
  6
CONTINUOUS
 62
     7
 10
289.9436
 20
116.084099999999980
 11
289.7568
 21
116.155300000000010
  0
LINE
  8
PT5-Wyposażenie34
  6
CONTINUOUS
 62
     7
 10
289.6355
 20
115.345399999999980
 11
289.5153
 21
115.391200000000030
  0
ARC
  8
PT5-Wyposażenie34
  6
CONTINUOUS
 62
     7
 10
289.301899999999990
 20
114.830400000000000
 40
0.600000000000000
 50
69.163900000000012
 51
158.943999999999960
  0
ARC
  8
PT5-Wyposażenie34
  6
CONTINUOUS
 62
     7
 10
289.258800000000010
 20
114.846799999999970
 40
1.400000000000000
 50
69.163900000000012
 51
159.164099999999960
  0
LINE
  8
PT5-Wyposażenie34
  6
CONTINUOUS
 62
     7
 10
279.7221
 20
88.731400000000008
 11
279.5343
 21
88.800299999999993
  0
LINE
  8
PT5-Wyposażenie34
  6
CONTINUOUS
 62
     7
 10
279.9739
 20
89.491199999999992
 11
279.8531
 21
89.535500000000013
  0
ARC
  8
PT5-Wyposażenie34
  6
CONTINUOUS
 62
     7
 10
280.059800000000000
 20
90.098799999999983
 40
0.600000000000000
 50
160.074999999999990
 51
249.855099999999990
  0
ARC
  8
PT5-Wyposażenie34
  6
CONTINUOUS
 62
     7
 10
280.016500000000010
 20
90.114700000000028
 40
1.400000000000000
 50
159.854899999999990
 51
249.855099999999990
  0
LINE
  8
PT5-Wyposażenie34
  6
CONTINUOUS
 62
     7
 10
284.6947
 20
102.032300000000020
 11
284.5074
 21
102.102300000000010
  0
LINE
  8
PT5-Wyposażenie34
  6
CONTINUOUS
 62
     7
 10
282.7059
 20
101.280899999999970
 11
278.7156
 21
90.602100000000007
  0
LINE
  8
PT5-Wyposażenie34
  6
CONTINUOUS
 62
     7
 10
283.4567
 20
100.997900000000020
 11
279.5074
 21
90.303800000000024
  0
LINE
  8
PT5-Wyposażenie34
  6
CONTINUOUS
 62
     7
 10
284.4147
 20
101.282899999999980
 11
284.2295
 21
101.352100000000010
  0
ARC
  8
PT5-Wyposażenie34
  6
CONTINUOUS
 62
     7
 10
284.019499999999990
 20
100.790000000000020
 40
0.600000000000000
 50
69.511200000000002
 51
159.730999999999990
  0
ARC
  8
PT5-Wyposażenie34
  6
CONTINUOUS
 62
     7
 10
284.017299999999980
 20
100.790799999999990
 40
1.400000000000000
 50
69.511200000000002
 51
159.511000000000000
  0
LINE
  8
PT5-Wyposażenie34
  6
CONTINUOUS
 62
     7
 10
274.4733
 20
74.680000000000007
 11
274.286
 21
74.750000000000000
  0
LINE
  8
PT5-Wyposażenie34
  6
CONTINUOUS
 62
     7
 10
273.4647
 20
76.551499999999976
 11
277.4555
 21
87.230099999999993
  0
LINE
  8
PT5-Wyposażenie34
  6
CONTINUOUS
 62
     7
 10
274.217
 20
76.272800000000018
 11
278.2489
 21
86.936100000000010
  0
LINE
  8
PT5-Wyposażenie34
  6
CONTINUOUS
 62
     7
 10
274.7534
 20
75.429399999999987
 11
274.5682
 21
75.498600000000010
  0
ARC
  8
PT5-Wyposażenie34
  6
CONTINUOUS
 62
     7
 10
274.778200000000030
 20
76.060600000000022
 40
0.600000000000000
 50
159.288000000000010
 51
249.507799999999970
  0
ARC
  8
PT5-Wyposażenie34
  6
CONTINUOUS
 62
     7
 10
274.776099999999990
 20
76.061399999999992
 40
1.400000000000000
 50
159.508000000000040
 51
249.507799999999970
  0
LINE
  8
PT5-Wyposażenie34
  6
CONTINUOUS
 62
     7
 10
279.4421
 20
87.982300000000009
 11
279.2552
 21
88.053400000000011
  0
LINE
  8
PT5-Wyposażenie34
  6
CONTINUOUS
 62
     7
 10
279.134
 20
87.243600000000015
 11
279.0137
 21
87.289300000000026
  0
ARC
  8
PT5-Wyposażenie34
  6
CONTINUOUS
 62
     7
 10
278.800299999999990
 20
86.728599999999972
 40
0.600000000000000
 50
69.163900000000012
 51
158.943999999999960
  0
ARC
  8
PT5-Wyposażenie34
  6
CONTINUOUS
 62
     7
 10
278.757200000000010
 20
86.745000000000005
 40
1.400000000000000
 50
69.163900000000012
 51
159.164099999999960
  0
LINE
  8
PT5-Wyposażenie34
  6
CONTINUOUS
 62
     7
 10
269.2204
 20
60.629500000000007
 11
269.0327
 21
60.698399999999992
  0
LINE
  8
PT5-Wyposażenie34
  6
CONTINUOUS
 62
     7
 10
269.4722
 20
61.389299999999992
 11
269.3515
 21
61.433600000000013
  0
ARC
  8
PT5-Wyposażenie34
  6
CONTINUOUS
 62
     7
 10
269.558100000000020
 20
61.996899999999982
 40
0.600000000000000
 50
160.074700000000010
 51
249.854800000000010
  0
ARC
  8
PT5-Wyposażenie34
  6
CONTINUOUS
 62
     7
 10
269.514799999999980
 20
62.012699999999995
 40
1.400000000000000
 50
159.854600000000000
 51
249.854800000000010
  0
LINE
  8
PT5-Wyposażenie34
  6
CONTINUOUS
 62
     7
 10
274.1932
 20
73.930299999999988
 11
274.0058
 21
74.000299999999982
  0
LINE
  8
PT5-Wyposażenie34
  6
CONTINUOUS
 62
     7
 10
272.2043
 20
73.178999999999974
 11
268.214
 21
62.500200000000007
  0
LINE
  8
PT5-Wyposażenie34
  6
CONTINUOUS
 62
     7
 10
272.9551
 20
72.896000000000015
 11
269.0057
 21
62.201799999999992
  0
LINE
  8
PT5-Wyposażenie34
  6
CONTINUOUS
 62
     7
 10
273.9131
 20
73.180900000000008
 11
273.7279
 21
73.250099999999975
  0
ARC
  8
PT5-Wyposażenie34
  6
CONTINUOUS
 62
     7
 10
273.517900000000000
 20
72.688100000000020
 40
0.600000000000000
 50
69.510800000000003
 51
159.730599999999980
  0
ARC
  8
PT5-Wyposażenie34
  6
CONTINUOUS
 62
     7
 10
273.515800000000010
 20
72.688899999999990
 40
1.400000000000000
 50
69.510800000000003
 51
159.510599999999980
  0
LINE
  8
PT5-Wyposażenie34
  6
CONTINUOUS
 62
     7
 10
321.7285
 20
201.139100000000010
 11
321.5408
 21
201.208000000000000
  0
LINE
  8
PT5-Wyposażenie34
  6
CONTINUOUS
 62
     7
 10
321.9804
 20
201.898900000000000
 11
321.8596
 21
201.943199999999990
  0
ARC
  8
PT5-Wyposażenie34
  6
CONTINUOUS
 62
     7
 10
322.066300000000010
 20
202.506400000000010
 40
0.600000000000000
 50
160.072800000000000
 51
249.852900000000010
  0
ARC
  8
PT5-Wyposażenie34
  6
CONTINUOUS
 62
     7
 10
322.023000000000020
 20
202.522300000000000
 40
1.400000000000000
 50
159.852700000000000
 51
249.852900000000010
  0
LINE
  8
PT5-Schody30
  6
CONTINUOUS
 62
     7
 10
242.0264
 20
71.024800000000027
 11
249.5884
 21
91.261199999999974
  0
LINE
  8
PT5-Schody30
  6
CONTINUOUS
 62
     7
 10
249.5884
 20
91.261199999999974
 11
274.8815
 21
81.813400000000001
  0
LINE
  8
PT5-Schody30
  6
CONTINUOUS
 62
     7
 10
274.8815
 20
81.813400000000001
 11
267.3735
 21
61.721499999999992
  0
LINE
  8
PT5-Schody30
  6
CONTINUOUS
 62
     7
 10
248.4683
 20
88.263599999999997
 11
273.7614
 21
78.815800000000024
  0
LINE
  8
PT5-Schody30
  6
CONTINUOUS
 62
     7
 10
247.3549
 20
85.283999999999992
 11
272.6412
 21
75.818300000000022
  0
TEXT
  8
PT5-Schody30
  6
CONTINUOUS
 62
     7
 10
263.288900000000010
 20
68.902400000000000
 40
2.000000000000000
 50
69.500000000000000
  1
1,50
  0
LINE
  8
PT5-Schody30
  6
CONTINUOUS
 62
     7
 10
263.6979
 20
63.175799999999981
 11
268.9394
 21
77.230200000000025
  0
LINE
  8
PT5-Schody30
  6
CONTINUOUS
 62
     7
 10
263.3484
 20
62.238800000000026
 11
263.6979
 21
63.175799999999981
  0
LINE
  8
PT5-Schody30
  6
CONTINUOUS
 62
     7
 10
269.2889
 20
78.167100000000005
 11
268.9394
 21
77.230200000000025
  0
LINE
  8
PT5-Schody30
  6
CONTINUOUS
 62
     7
 10
263.4041
 20
63.818899999999985
 11
263.9916
 21
62.532699999999977
  0
LINE
  8
PT5-Schody30
  6
CONTINUOUS
 62
     7
 10
268.6457
 20
77.873299999999972
 11
269.2332
 21
76.587100000000021
  0
LINE
  8
PT5-Schody30
  6
CONTINUOUS
 62
     7
 10
264.6348
 20
62.826300000000003
 11
262.7609
 21
63.525199999999984
  0
LINE
  8
PT5-Schody30
  6
CONTINUOUS
 62
     7
 10
269.8764
 20
76.880699999999990
 11
268.0025
 21
77.579600000000028
  0
LINE
  8
PT5-Schody30
  6
CONTINUOUS
 62
     7
 10
269.0273
 20
77.230200000000025
 11
270.1441
 21
80.224699999999984
  0
LINE
  8
PT5-Schody30
  6
CONTINUOUS
 62
     7
 10
268.6778
 20
76.293200000000013
 11
269.0273
 21
77.230200000000025
  0
LINE
  8
PT5-Schody30
  6
CONTINUOUS
 62
     7
 10
270.4935
 20
81.161600000000021
 11
270.1441
 21
80.224699999999984
  0
LINE
  8
PT5-Schody30
  6
CONTINUOUS
 62
     7
 10
268.7336
 20
77.873299999999972
 11
269.321
 21
76.587100000000021
  0
LINE
  8
PT5-Schody30
  6
CONTINUOUS
 62
     7
 10
269.8504
 20
80.867799999999988
 11
270.4378
 21
79.581599999999980
  0
LINE
  8
PT5-Schody30
  6
CONTINUOUS
 62
     7
 10
269.9642
 20
76.880699999999990
 11
268.0903
 21
77.579600000000028
  0
LINE
  8
PT5-Schody30
  6
CONTINUOUS
 62
     7
 10
271.081
 20
79.875200000000007
 11
269.2071
 21
80.574099999999987
  0
TEXT
  8
PT5-Schody30
  6
CONTINUOUS
 62
     7
 10
266.931699999999980
 20
78.395600000000002
 40
2.000000000000000
 50
69.500000000000000
  1
32
  0
LINE
  8
PT5-Schody30
  6
CONTINUOUS
 62
     7
 10
270.1441
 20
80.224699999999984
 11
271.2622
 21
83.222699999999975
  0
LINE
  8
PT5-Schody30
  6
CONTINUOUS
 62
     7
 10
269.7946
 20
79.287699999999973
 11
270.1441
 21
80.224699999999984
  0
LINE
  8
PT5-Schody30
  6
CONTINUOUS
 62
     7
 10
271.6116
 20
84.159600000000012
 11
271.2622
 21
83.222699999999975
  0
LINE
  8
PT5-Schody30
  6
CONTINUOUS
 62
     7
 10
269.8504
 20
80.867799999999988
 11
270.4378
 21
79.581599999999980
  0
LINE
  8
PT5-Schody30
  6
CONTINUOUS
 62
     7
 10
270.9685
 20
83.865799999999979
 11
271.5559
 21
82.579600000000028
  0
LINE
  8
PT5-Schody30
  6
CONTINUOUS
 62
     7
 10
271.081
 20
79.875200000000007
 11
269.2071
 21
80.574099999999987
  0
LINE
  8
PT5-Schody30
  6
CONTINUOUS
 62
     7
 10
272.1992
 20
82.873199999999997
 11
270.3252
 21
83.572099999999978
  0
TEXT
  8
PT5-Schody30
  6
CONTINUOUS
 62
     7
 10
268.726600000000020
 20
82.272600000000011
 40
2.000000000000000
 50
69.500000000000000
  1
32
  0
LINE
  8
PT5-Schody30
  6
CONTINUOUS
 62
     7
 10
278.5522
 20
85.779699999999991
 11
276.6311
 21
86.497299999999996
  0
LINE
  8
PT5-Schody30
  6
CONTINUOUS
 62
     7
 10
279.489
 20
85.429800000000000
 11
278.5522
 21
85.779699999999991
  0
LINE
  8
PT5-Schody30
  6
CONTINUOUS
 62
     7
 10
275.6943
 20
86.847199999999987
 11
276.6311
 21
86.497299999999996
  0
LINE
  8
PT5-Schody30
  6
CONTINUOUS
 62
     7
 10
277.909
 20
85.486300000000028
 11
279.1955
 21
86.073100000000011
  0
LINE
  8
PT5-Schody30
  6
CONTINUOUS
 62
     7
 10
275.9879
 20
86.203899999999976
 11
277.2744
 21
86.790700000000015
  0
LINE
  8
PT5-Schody30
  6
CONTINUOUS
 62
     7
 10
278.9021
 20
86.716499999999996
 11
278.2023
 21
84.842899999999986
  0
LINE
  8
PT5-Schody30
  6
CONTINUOUS
 62
     7
 10
276.981
 20
87.434100000000001
 11
276.2812
 21
85.560499999999990
  0
TEXT
  8
PT5-Schody30
  6
CONTINUOUS
 62
     7
 10
276.773700000000020
 20
88.868299999999977
 40
2.000000000000000
 50
339.500000000000000
  1
20
  0
TEXT
  8
PT5-Schody30
  6
CONTINUOUS
 62
     7
 10
280.534200000000000
 20
88.575400000000002
 40
1.500000000000000
 50
339.500000000000000
  1
5
  0
TEXT
  8
PT5-Schody30
  6
CONTINUOUS
 62
     7
 10
262.196300000000010
 20
94.544100000000014
 40
2.000000000000000
 50
339.500000000000000
  1
2,70
  0
LINE
  8
PT5-Schody30
  6
CONTINUOUS
 62
     7
 10
276.6311
 20
86.497299999999996
 11
251.338
 21
95.945100000000025
  0
LINE
  8
PT5-Schody30
  6
CONTINUOUS
 62
     7
 10
277.5679
 20
86.147400000000005
 11
276.6311
 21
86.497299999999996
  0
LINE
  8
PT5-Schody30
  6
CONTINUOUS
 62
     7
 10
250.4012
 20
96.295000000000016
 11
251.338
 21
95.945100000000025
  0
LINE
  8
PT5-Schody30
  6
CONTINUOUS
 62
     7
 10
275.9879
 20
86.203899999999976
 11
277.2744
 21
86.790700000000015
  0
LINE
  8
PT5-Schody30
  6
CONTINUOUS
 62
     7
 10
250.6948
 20
95.651700000000005
 11
251.9813
 21
96.238400000000013
  0
LINE
  8
PT5-Schody30
  6
CONTINUOUS
 62
     7
 10
276.981
 20
87.434100000000001
 11
276.2812
 21
85.560499999999990
  0
LINE
  8
PT5-Schody30
  6
CONTINUOUS
 62
     7
 10
251.6879
 20
96.881799999999998
 11
250.9881
 21
95.008300000000020
  0
LINE
  8
PT5-Schody30
  6
CONTINUOUS
 62
     7
 10
251.338
 20
95.945100000000025
 11
249.2291
 21
96.732799999999997
  0
LINE
  8
PT5-Schody30
  6
CONTINUOUS
 62
     7
 10
252.2748
 20
95.595100000000002
 11
251.338
 21
95.945100000000025
  0
LINE
  8
PT5-Schody30
  6
CONTINUOUS
 62
     7
 10
248.2923
 20
97.082699999999988
 11
249.2291
 21
96.732799999999997
  0
LINE
  8
PT5-Schody30
  6
CONTINUOUS
 62
     7
 10
250.6948
 20
95.651700000000005
 11
251.9813
 21
96.238400000000013
  0
LINE
  8
PT5-Schody30
  6
CONTINUOUS
 62
     7
 10
248.5859
 20
96.439399999999978
 11
249.8724
 21
97.026200000000017
  0
LINE
  8
PT5-Schody30
  6
CONTINUOUS
 62
     7
 10
251.6879
 20
96.881799999999998
 11
250.9881
 21
95.008300000000020
  0
LINE
  8
PT5-Schody30
  6
CONTINUOUS
 62
     7
 10
249.579
 20
97.669600000000003
 11
248.8792
 21
95.795999999999992
  0
TEXT
  8
PT5-Schody30
  6
CONTINUOUS
 62
     7
 10
250.234199999999990
 20
98.778599999999983
 40
2.000000000000000
 50
339.500000000000000
  1
22
  0
TEXT
  8
PT5-Schody30
  6
CONTINUOUS
 62
     7
 10
253.994699999999990
 20
98.485700000000008
 40
1.500000000000000
 50
339.500000000000000
  1
5
  0
LINE
  8
PT5-Schody30
  6
CONTINUOUS
 62
     7
 10
261.5748
 20
85.912699999999973
 11
259.6234
 21
80.690699999999993
  0
LINE
  8
PT5-Schody30
  6
CONTINUOUS
 62
     7
 10
261.091
 20
86.973799999999983
 11
261.0393
 21
86.656200000000013
  0
LINE
  8
PT5-Schody30
  6
CONTINUOUS
 62
     7
 10
261.0393
 20
86.656200000000013
 11
261.1131
 21
86.343000000000018
  0
LINE
  8
PT5-Schody30
  6
CONTINUOUS
 62
     7
 10
261.1131
 20
86.343000000000018
 11
261.3012
 21
86.081900000000019
  0
LINE
  8
PT5-Schody30
  6
CONTINUOUS
 62
     7
 10
261.3012
 20
86.081900000000019
 11
261.5748
 21
85.912599999999998
  0
LINE
  8
PT5-Schody30
  6
CONTINUOUS
 62
     7
 10
261.5748
 20
85.912599999999998
 11
261.8924
 21
85.860900000000015
  0
LINE
  8
PT5-Schody30
  6
CONTINUOUS
 62
     7
 10
261.8924
 20
85.860900000000015
 11
262.2056
 21
85.934700000000021
  0
LINE
  8
PT5-Schody30
  6
CONTINUOUS
 62
     7
 10
262.2056
 20
85.934700000000021
 11
262.4667
 21
86.122799999999984
  0
LINE
  8
PT5-Schody30
  6
CONTINUOUS
 62
     7
 10
262.4667
 20
86.122799999999984
 11
262.636
 21
86.396400000000028
  0
LINE
  8
PT5-Schody30
  6
CONTINUOUS
 62
     7
 10
262.636
 20
86.396400000000028
 11
262.6877
 21
86.714099999999974
  0
LINE
  8
PT5-Schody30
  6
CONTINUOUS
 62
     7
 10
262.6877
 20
86.714099999999974
 11
262.6139
 21
87.027300000000025
  0
LINE
  8
PT5-Schody30
  6
CONTINUOUS
 62
     7
 10
262.6139
 20
87.027300000000025
 11
262.4259
 21
87.288299999999992
  0
LINE
  8
PT5-Schody30
  6
CONTINUOUS
 62
     7
 10
262.4259
 20
87.288299999999992
 11
262.1522
 21
87.457600000000014
  0
LINE
  8
PT5-Schody30
  6
CONTINUOUS
 62
     7
 10
262.1522
 20
87.457600000000014
 11
261.8346
 21
87.509299999999996
  0
LINE
  8
PT5-Schody30
  6
CONTINUOUS
 62
     7
 10
261.8346
 20
87.509299999999996
 11
261.5214
 21
87.435499999999990
  0
LINE
  8
PT5-Schody30
  6
CONTINUOUS
 62
     7
 10
261.5214
 20
87.435499999999990
 11
261.2603
 21
87.247500000000002
  0
LINE
  8
PT5-Schody30
  6
CONTINUOUS
 62
     7
 10
261.2603
 20
87.247500000000002
 11
261.091
 21
86.973799999999983
  0
LINE
  8
PT5-Schody30
  6
CONTINUOUS
 62
     7
 10
259.6234
 20
80.690699999999993
 11
261.6487
 21
81.903900000000021
  0
LINE
  8
PT5-Schody30
  6
CONTINUOUS
 62
     7
 10
261.6487
 20
81.903900000000021
 11
258.8901
 21
82.934900000000027
  0
LINE
  8
PT5-Schody30
  6
CONTINUOUS
 62
     7
 10
258.8901
 20
82.934900000000027
 11
259.6234
 21
80.690699999999993
  0
TEXT
  8
PT5-Schody30
  6
CONTINUOUS
 62
     7
 10
257.870200000000010
 20
81.367000000000019
 40
2.000000000000000
 50
69.500000000000000
  1
3 Stp.
  0
TEXT
  8
PT5-Schody30
  6
CONTINUOUS
 62
     7
 10
257.870200000000010
 20
78.367000000000019
 40
2.000000000000000
 50
69.500000000000000
  1
16.33/32
  0
TEXT
  8
PT5-Wymiarowanie33
  6
CONTINUOUS
 62
     7
 10
331.831999999999990
 20
207.054499999999990
 40
2.000000000000000
 50
339.500000000000000
  1
110
  0
TEXT
  8
PT5-Wymiarowanie33
  6
CONTINUOUS
 62
     7
 10
330.743100000000030
 20
203.634500000000000
 40
2.000000000000000
 50
339.500000000000000
  1
250
  0
TEXT
  8
PT5-Wymiarowanie33
  6
CONTINUOUS
 62
     7
 10
326.581999999999990
 20
193.004500000000010
 40
2.000000000000000
 50
339.500000000000000
  1
110
  0
TEXT
  8
PT5-Wymiarowanie33
  6
CONTINUOUS
 62
     7
 10
325.493100000000030
 20
189.584499999999990
 40
2.000000000000000
 50
339.500000000000000
  1
250
  0
TEXT
  8
PT5-Wymiarowanie33
  6
CONTINUOUS
 62
     7
 10
321.331999999999990
 20
178.954500000000000
 40
2.000000000000000
 50
339.500000000000000
  1
110
  0
TEXT
  8
PT5-Wymiarowanie33
  6
CONTINUOUS
 62
     7
 10
320.243100000000030
 20
175.534500000000010
 40
2.000000000000000
 50
339.500000000000000
  1
250
  0
TEXT
  8
PT5-Wymiarowanie33
  6
CONTINUOUS
 62
     7
 10
316.081999999999990
 20
164.904500000000010
 40
2.000000000000000
 50
339.500000000000000
  1
110
  0
TEXT
  8
PT5-Wymiarowanie33
  6
CONTINUOUS
 62
     7
 10
314.993100000000030
 20
161.484500000000000
 40
2.000000000000000
 50
339.500000000000000
  1
250
  0
TEXT
  8
PT5-Wymiarowanie33
  6
CONTINUOUS
 62
     7
 10
310.831999999999990
 20
150.854500000000000
 40
2.000000000000000
 50
339.500000000000000
  1
110
  0
TEXT
  8
PT5-Wymiarowanie33
  6
CONTINUOUS
 62
     7
 10
309.743100000000030
 20
147.434500000000010
 40
2.000000000000000
 50
339.500000000000000
  1
250
  0
TEXT
  8
PT5-Wymiarowanie33
  6
CONTINUOUS
 62
     7
 10
305.581999999999990
 20
136.804500000000020
 40
2.000000000000000
 50
339.500000000000000
  1
110
  0
TEXT
  8
PT5-Wymiarowanie33
  6
CONTINUOUS
 62
     7
 10
304.493100000000030
 20
133.384500000000000
 40
2.000000000000000
 50
339.500000000000000
  1
250
  0
TEXT
  8
PT5-Wymiarowanie33
  6
CONTINUOUS
 62
     7
 10
300.331999999999990
 20
122.754500000000010
 40
2.000000000000000
 50
339.500000000000000
  1
110
  0
TEXT
  8
PT5-Wymiarowanie33
  6
CONTINUOUS
 62
     7
 10
299.243100000000030
 20
119.334499999999990
 40
2.000000000000000
 50
339.500000000000000
  1
250
  0
TEXT
  8
PT5-Wymiarowanie33
  6
CONTINUOUS
 62
     7
 10
295.081999999999990
 20
108.704500000000000
 40
2.000000000000000
 50
339.500000000000000
  1
110
  0
TEXT
  8
PT5-Wymiarowanie33
  6
CONTINUOUS
 62
     7
 10
293.993100000000030
 20
105.284499999999980
 40
2.000000000000000
 50
339.500000000000000
  1
250
  0
TEXT
  8
PT5-Wymiarowanie33
  6
CONTINUOUS
 62
     7
 10
289.831999999999990
 20
94.654499999999985
 40
2.000000000000000
 50
339.500000000000000
  1
110
  0
TEXT
  8
PT5-Wymiarowanie33
  6
CONTINUOUS
 62
     7
 10
288.743100000000030
 20
91.234500000000025
 40
2.000000000000000
 50
339.500000000000000
  1
250
  0
TEXT
  8
PT5-Wymiarowanie33
  6
CONTINUOUS
 62
     7
 10
284.581999999999990
 20
80.604499999999973
 40
2.000000000000000
 50
339.500000000000000
  1
110
  0
TEXT
  8
PT5-Wymiarowanie33
  6
CONTINUOUS
 62
     7
 10
283.493100000000030
 20
77.184500000000014
 40
2.000000000000000
 50
339.500000000000000
  1
250
  0
TEXT
  8
PT5-Wymiarowanie33
  6
CONTINUOUS
 62
     7
 10
279.331999999999990
 20
66.554500000000019
 40
2.000000000000000
 50
339.500000000000000
  1
110
  0
TEXT
  8
PT5-Wymiarowanie33
  6
CONTINUOUS
 62
     7
 10
278.243100000000030
 20
63.134500000000003
 40
2.000000000000000
 50
339.500000000000000
  1
250
  0
TEXT
  8
PT5-Wymiarowanie33
  6
CONTINUOUS
 62
     7
 10
337.081999999999990
 20
221.104500000000000
 40
2.000000000000000
 50
339.500000000000000
  1
110
  0
TEXT
  8
PT5-Wymiarowanie33
  6
CONTINUOUS
 62
     7
 10
335.993100000000030
 20
217.684500000000010
 40
2.000000000000000
 50
339.500000000000000
  1
250
  0
ENDSEC
  0
EOF
