  0
SECTION
  2
HEADER
  9
$ACADVER
  1
AC1004
  9
$EXTMIN
 10
0.0
 20
0.0
  9
$EXTMAX
 10
570.000000000000000
 20
400.000000000000000
  9
$LIMMIN
 10
0.0
 20
0.0
  9
$LIMMAX
 10
570.000000000000000
 20
400.000000000000000
  9
$CLAYER
  8
PT2-Wymiarowanie8
  0
ENDSEC
  0
SECTION
  2
TABLES
  0
TABLE
  2
LTYPE
 70
11
  0
LTYPE
  2
CONTINUOUS
 70
     0
  3
Solid line
 72
    65
 73
     0
 40
     0.0
  0
LTYPE
  2
GESTRICHELT
 70
     0
  3
__ __ __ __ __ __ __ __ __ __ __ __ __ __ __
 72
    65
 73
     2
 40
     0.75
 49
0.5
 49
-0.25
  0
LTYPE
  2
VERDECKT
 70
     0
  3
_ _ _ _ _ _ _ _ _ _ _ _ _ _ _ _ _ _ _ _ _ _
 72
    65
 73
     2
 40
     0.25
 49
0.125
 49
-0.125
  0
LTYPE
  2
MITTELLINIE
 70
     0
  3
____ _ ____ _ ____ _ ____ _ ____ _ ____ _ __
 72
    65
 73
     4
 40
     2.0
 49
1.25
 49
-0.25
 49
0.25
 49
-0.25
  0
LTYPE
  2
PHANTOM
 70
     0
  3
_____ _ _ _____ _ _ _____ _ _ _____ _ _ ____
 72
    65
 73
     6
 40
     2.5
 49
1.25
 49
-0.25
 49
0.25
 49
-0.25
 49
0.25
 49
-0.25
  0
LTYPE
  2
PUNKTIERT
 70
     0
  3
............................................
 72
    65
 73
     2
 40
     0.25
 49
0.0
 49
-0.25
  0
LTYPE
  2
STRICHPUNKTIERT
 70
     0
  3
__ . __ . __ . __ . __ . __ . __ . __ . __ .
 72
    65
 73
     4
 40
     1.0
 49
0.5
 49
-0.25
 49
0.0
 49
-0.25
  0
LTYPE
  2
RAND
 70
     0
  3
__ __ . __ __ . __ __ . __ __ . __ __ . __ _
 72
    65
 73
     6
 40
     1.75
 49
0.5
 49
-0.25
 49
0.5
 49
-0.25
 49
0.0
 49
-0.25
  0
LTYPE
  2
TRENNLINIE
 70
     0
  3
__ . . __ . . __ . . __ . . __ . . __ . . __
 72
    65
 73
     6
 40
     1.25
 49
0.5
 49
-0.25
 49
0.0
 49
-0.25
 49
0.0
 49
-0.25
  0
LTYPE
  2
ENG_PUNKTIERT
 70
     0
  3
Schließen
 72
    65
 73
     2
 40
     0.1
 49
0.05
 49
-0.05
  0
LTYPE
  2
CLOSE
 70
     0
  3

 72
    65
 73
     0
 40
     0.0
  0
ENDTAB
  0
TABLE
  2
LAYER
 70
   24
  0
LAYER
  2
PT1-Tabelka_rysu1
 70
     0
 62
    -7
  6
CONTINUOUS
  0
LAYER
  2
PT2-Rzut2
 70
     0
 62
     7
  6
CONTINUOUS
  0
LAYER
  2
PT2-Kreskowanie3
 70
     0
 62
     7
  6
CONTINUOUS
  0
LAYER
  2
PT2-Okna_i_drzwi4
 70
     0
 62
     7
  6
CONTINUOUS
  0
LAYER
  2
PT2-Schody5
 70
     0
 62
     7
  6
CONTINUOUS
  0
LAYER
  2
PT2-Podciąg6
 70
     0
 62
     7
  6
CONTINUOUS
  0
LAYER
  2
PT2-Opis7
 70
     0
 62
     7
  6
CONTINUOUS
  0
LAYER
  2
PT2-Wymiarowanie8
 70
     0
 62
     7
  6
CONTINUOUS
  0
LAYER
  2
PT2-Wyposażenie9
 70
     0
 62
     7
  6
CONTINUOUS
  0
LAYER
  2
PT2-Symbole_prze10
 70
     0
 62
     7
  6
CONTINUOUS
  0
LAYER
  2
PT2-Linie_pomocn11
 70
     0
 62
     7
  6
CONTINUOUS
  0
LAYER
  2
PT2-Grafika_2D12
 70
     0
 62
     7
  6
CONTINUOUS
  0
LAYER
  2
PT2-Podesty13
 70
     0
 62
     7
  6
CONTINUOUS
  0
LAYER
  2
PT3-Rzut14
 70
     0
 62
     7
  6
CONTINUOUS
  0
LAYER
  2
PT3-Wymiarowanie15
 70
     0
 62
     7
  6
CONTINUOUS
  0
LAYER
  2
PT3-Symbole_prze16
 70
     0
 62
     7
  6
CONTINUOUS
  0
LAYER
  2
PT3-Dach17
 70
     0
 62
     7
  6
CONTINUOUS
  0
LAYER
  2
PT4-Rzut18
 70
     0
 62
     7
  6
CONTINUOUS
  0
LAYER
  2
PT4-Opis19
 70
     0
 62
     7
  6
CONTINUOUS
  0
LAYER
  2
PT4-Wymiarowanie20
 70
     0
 62
     7
  6
CONTINUOUS
  0
LAYER
  2
PT4-Dach21
 70
     0
 62
     7
  6
CONTINUOUS
  0
LAYER
  2
PT5-Rzut22
 70
     0
 62
     7
  6
CONTINUOUS
  0
LAYER
  2
PT5-Dachy23
 70
     0
 62
     7
  6
CONTINUOUS
  0
LAYER
  2
PT5-Wymiarowanie24
 70
     0
 62
     7
  6
CONTINUOUS
  0
ENDTAB
  0
TABLE
  2
STYLE
 70
    1
  0
STYLE
  2
STANDARD
 70
    0
 40
0.0
 41
1.0
 50
0.0
71
     0
 42
0.2
  3
txt
  4

  0
ENDTAB
  0
ENDSEC
  0
SECTION
  2
ENTITIES
  0
POLYLINE
  8
PT1-Tabelka_rysu1
  6
CONTINUOUS
 62
     7
 66
     1
 70
     1
  0
VERTEX
  8
PT1-Tabelka_rysu1
 10
541.3906
 20
14.699700000000007
  0
VERTEX
  8
PT1-Tabelka_rysu1
 10
542.4489
 20
14.699700000000007
  0
VERTEX
  8
PT1-Tabelka_rysu1
 10
542.4489
 20
75.730300000000000
  0
VERTEX
  8
PT1-Tabelka_rysu1
 10
541.3906
 20
75.730300000000000
  0
SEQEND
  8
PT1-Tabelka_rysu1
  0
LINE
  8
PT1-Tabelka_rysu1
  6
CONTINUOUS
 62
     7
 10
541.3906
 20
15.757999999999981
 11
541.3906
 21
76.788599999999974
  0
LINE
  8
PT1-Tabelka_rysu1
  6
CONTINUOUS
 62
     7
 10
541.3906
 20
76.788599999999974
 11
469.4239
 21
76.788599999999974
  0
LINE
  8
PT1-Tabelka_rysu1
  6
CONTINUOUS
 62
     7
 10
469.4239
 20
15.757999999999981
 11
469.4239
 21
76.788599999999974
  0
LINE
  8
PT3-Rzut14
  6
CONTINUOUS
 62
     7
 10
207.0348
 20
79.483999999999980
 11
207.7357
 21
81.359800000000007
  0
LINE
  8
PT3-Rzut14
  6
CONTINUOUS
 62
     7
 10
208.9535
 20
80.904899999999998
 11
207.7357
 21
81.359800000000007
  0
LINE
  8
PT3-Rzut14
  6
CONTINUOUS
 62
     7
 10
209.0481
 20
80.872200000000021
 11
208.3471
 21
78.996399999999994
  0
LINE
  8
PT3-Rzut14
  6
CONTINUOUS
 62
     7
 10
208.3495
 20
78.995600000000024
 11
207.0357
 21
79.486400000000003
  0
LINE
  8
PT3-Rzut14
  6
CONTINUOUS
 62
     7
 10
207.0326
 20
82.906099999999981
 11
205.4913
 21
78.782300000000021
  0
LINE
  8
PT3-Rzut14
  6
GESTRICHELT
 62
     7
 10
206.8917
 20
82.529200000000003
 11
112.9553
 21
117.619300000000010
  0
LINE
  8
PT3-Rzut14
  6
GESTRICHELT
 62
     7
 10
112.9544
 20
117.617000000000020
 11
185.6998
 21
312.273100000000000
  0
LINE
  8
PT3-Rzut14
  6
GESTRICHELT
 62
     7
 10
185.6998
 20
312.273100000000000
 11
283.2844
 21
275.811899999999980
  0
LINE
  8
PT3-Rzut14
  6
CONTINUOUS
 62
     7
 10
284.6844
 20
279.558800000000020
 11
283.1444
 21
275.437299999999990
  0
LINE
  8
PT3-Rzut14
  6
CONTINUOUS
 62
     7
 10
283.1444
 20
275.437299999999990
 11
291.5751
 21
272.287100000000010
  0
LINE
  8
PT3-Rzut14
  6
CONTINUOUS
 62
     7
 10
293.1155
 20
276.408599999999980
 11
291.5751
 21
272.287100000000010
  0
LINE
  8
PT3-Rzut14
  6
CONTINUOUS
 62
     7
 10
219.1159
 20
78.389099999999985
 11
217.5761
 21
74.268100000000004
  0
LINE
  8
PT3-Rzut14
  6
CONTINUOUS
 62
     7
 10
219.1159
 20
78.389099999999985
 11
207.0317
 21
82.903799999999990
  0
LINE
  8
PT3-Rzut14
  6
CONTINUOUS
 62
     7
 10
211.4828
 20
79.960100000000011
 11
210.171
 21
80.449299999999994
  0
LINE
  8
PT3-Rzut14
  6
CONTINUOUS
 62
     7
 10
211.4828
 20
79.960100000000011
 11
210.7827
 21
78.086599999999976
  0
LINE
  8
PT3-Rzut14
  6
CONTINUOUS
 62
     7
 10
210.7851
 20
78.085699999999974
 11
209.4713
 21
78.576500000000010
  0
LINE
  8
PT3-Rzut14
  6
CONTINUOUS
 62
     7
 10
209.4704
 20
78.574200000000019
 11
210.171
 21
80.449299999999994
  0
LINE
  8
PT3-Rzut14
  6
CONTINUOUS
 62
     7
 10
212.6046
 20
79.540999999999997
 11
215.1363
 21
78.595300000000009
  0
LINE
  8
PT3-Rzut14
  6
CONTINUOUS
 62
     7
 10
215.1371
 20
78.597600000000000
 11
214.4362
 21
76.721900000000005
  0
LINE
  8
PT3-Rzut14
  6
CONTINUOUS
 62
     7
 10
214.4385
 20
76.721000000000004
 11
211.9068
 21
77.666699999999992
  0
LINE
  8
PT3-Rzut14
  6
CONTINUOUS
 62
     7
 10
211.9068
 20
77.666699999999992
 11
212.607
 21
79.540099999999995
  0
LINE
  8
PT3-Rzut14
  6
CONTINUOUS
 62
     7
 10
216.2604
 20
78.175400000000025
 11
217.5719
 21
77.685499999999990
  0
LINE
  8
PT3-Rzut14
  6
CONTINUOUS
 62
     7
 10
217.5727
 20
77.687799999999982
 11
216.8718
 21
75.812000000000012
  0
LINE
  8
PT3-Rzut14
  6
CONTINUOUS
 62
     7
 10
216.8741
 20
75.811199999999985
 11
215.5603
 21
76.301899999999989
  0
LINE
  8
PT3-Rzut14
  6
CONTINUOUS
 62
     7
 10
215.5594
 20
76.299599999999998
 11
216.2604
 21
78.175400000000025
  0
LINE
  8
PT3-Rzut14
  6
CONTINUOUS
 62
     7
 10
221.3229
 20
72.868400000000008
 11
296.8623
 21
275.008600000000000
  0
LINE
  8
PT3-Rzut14
  6
CONTINUOUS
 62
     7
 10
293.1155
 20
276.408599999999980
 11
284.6844
 21
279.558800000000020
  0
LINE
  8
PT3-Rzut14
  6
GESTRICHELT
 62
     7
 10
183.325
 20
317.433200000000000
 11
107.8085
 21
115.271900000000020
  0
LINE
  8
PT3-Rzut14
  6
CONTINUOUS
 62
     7
 10
205.4913
 20
78.782300000000021
 11
217.5761
 21
74.268100000000004
  0
LINE
  8
PT3-Rzut14
  6
CONTINUOUS
 62
     7
 10
285.3863
 20
278.015499999999970
 11
286.7001
 21
277.524700000000000
  0
LINE
  8
PT3-Rzut14
  6
CONTINUOUS
 62
     7
 10
286.701
 20
277.526999999999990
 11
286
 21
275.651200000000020
  0
LINE
  8
PT3-Rzut14
  6
CONTINUOUS
 62
     7
 10
286.0024
 20
275.650300000000020
 11
284.6885
 21
276.141200000000030
  0
LINE
  8
PT3-Rzut14
  6
CONTINUOUS
 62
     7
 10
284.6885
 20
276.141200000000030
 11
285.3887
 21
278.014599999999970
  0
LINE
  8
PT3-Rzut14
  6
CONTINUOUS
 62
     7
 10
287.8219
 20
277.105500000000010
 11
289.1357
 21
276.614600000000000
  0
LINE
  8
PT3-Rzut14
  6
CONTINUOUS
 62
     7
 10
289.1365
 20
276.617000000000020
 11
288.4356
 21
274.741199999999990
  0
LINE
  8
PT3-Rzut14
  6
CONTINUOUS
 62
     7
 10
288.4379
 20
274.740299999999990
 11
287.1242
 21
275.231600000000010
  0
LINE
  8
PT3-Rzut14
  6
CONTINUOUS
 62
     7
 10
287.1242
 20
275.231600000000010
 11
287.8242
 21
277.104699999999980
  0
LINE
  8
PT3-Rzut14
  6
CONTINUOUS
 62
     7
 10
290.2574
 20
276.195499999999980
 11
291.5712
 21
275.704600000000030
  0
LINE
  8
PT3-Rzut14
  6
CONTINUOUS
 62
     7
 10
291.5721
 20
275.706999999999990
 11
290.8711
 21
273.831199999999970
  0
LINE
  8
PT3-Rzut14
  6
CONTINUOUS
 62
     7
 10
290.8734
 20
273.830299999999970
 11
289.5598
 21
274.321599999999990
  0
LINE
  8
PT3-Rzut14
  6
CONTINUOUS
 62
     7
 10
289.5598
 20
274.321599999999990
 11
290.2597
 21
276.194599999999980
  0
LINE
  8
PT3-Symbole_prze16
  6
ENG_PUNKTIERT
 62
     7
 10
84.8308
 20
240.532000000000010
 11
335.1199
 21
147.014600000000000
  0
POLYLINE
  8
PT3-Symbole_prze16
  6
ENG_PUNKTIERT
 62
     7
 66
     1
 70
     1
  0
VERTEX
  8
PT3-Symbole_prze16
 10
85.5309
 20
242.405499999999990
  0
VERTEX
  8
PT3-Symbole_prze16
 10
90.0937
 20
243.903200000000000
  0
VERTEX
  8
PT3-Symbole_prze16
 10
92.5565
 20
239.780499999999990
  0
SEQEND
  8
PT3-Symbole_prze16
  0
POLYLINE
  8
PT3-Symbole_prze16
  6
ENG_PUNKTIERT
 62
     7
 66
     1
 70
     1
  0
VERTEX
  8
PT3-Symbole_prze16
 10
335.8199
 20
148.888100000000010
  0
VERTEX
  8
PT3-Symbole_prze16
 10
333.3571
 20
153.010899999999990
  0
VERTEX
  8
PT3-Symbole_prze16
 10
328.7943
 20
151.513200000000010
  0
SEQEND
  8
PT3-Symbole_prze16
  0
TEXT
  8
PT3-Symbole_prze16
  6
CONTINUOUS
 62
     7
 10
330.399600000000020
 20
143.613499999999990
 40
4.044600000000000
  1
B
  0
TEXT
  8
PT3-Symbole_prze16
  6
CONTINUOUS
 62
     7
 10
83.415099999999995
 20
235.896099999999990
 40
4.044600000000000
  1
B
  0
LINE
  8
PT4-Rzut18
  6
GESTRICHELT
 62
     7
 10
221.323
 20
72.868400000000008
 11
254.3919
 21
60.515300000000025
  0
LINE
  8
PT4-Rzut18
  6
GESTRICHELT
 62
     7
 10
254.3919
 20
60.515300000000025
 11
323.1581
 21
244.526900000000010
  0
LINE
  8
PT4-Rzut18
  6
GESTRICHELT
 62
     7
 10
330.0255
 20
262.617700000000010
 11
296.8622
 21
275.008800000000010
  0
LINE
  8
PT4-Rzut18
  6
GESTRICHELT
 62
     7
 10
296.863
 20
275.011100000000000
 11
295.4621
 21
271.261799999999990
  0
LINE
  8
PT4-Rzut18
  6
GESTRICHELT
 62
     7
 10
295.4598
 20
271.262700000000000
 11
295.6495
 21
271.191800000000000
  0
LINE
  8
PT4-Rzut18
  6
CONTINUOUS
 62
     7
 10
276.3639
 20
219.577100000000000
 11
276.1742
 21
219.648000000000000
  0
LINE
  8
PT4-Rzut18
  6
CONTINUOUS
 62
     7
 10
276.1751
 20
219.650299999999990
 11
274.2489
 21
214.496000000000010
  0
LINE
  8
PT4-Rzut18
  6
CONTINUOUS
 62
     7
 10
274.2465
 20
214.496800000000010
 11
274.4362
 21
214.425999999999990
  0
LINE
  8
PT4-Rzut18
  6
GESTRICHELT
 62
     7
 10
252.0425
 20
65.662899999999979
 11
222.723
 21
76.614700000000028
  0
LINE
  8
PT4-Rzut18
  6
CONTINUOUS
 62
     7
 10
274.4339
 20
214.426799999999990
 11
282.3049
 21
211.485899999999990
  0
LINE
  8
PT4-Rzut18
  6
CONTINUOUS
 62
     7
 10
282.3041
 20
211.483600000000000
 11
284.2302
 21
216.637900000000000
  0
LINE
  8
PT4-Rzut18
  6
CONTINUOUS
 62
     7
 10
284.2326
 20
216.637100000000000
 11
276.3615
 21
219.578000000000000
  0
LINE
  8
PT4-Rzut18
  6
GESTRICHELT
 62
     7
 10
295.6472
 20
271.192599999999970
 11
324.7849
 21
260.305799999999980
  0
LINE
  8
PT4-Rzut18
  6
GESTRICHELT
 62
     7
 10
324.7849
 20
260.305799999999980
 11
252.0425
 21
65.662899999999979
  0
LINE
  8
PT4-Rzut18
  6
CONTINUOUS
 62
     7
 10
275.7922
 20
215.197700000000000
 11
276.8782
 21
218.103900000000010
  0
LINE
  8
PT4-Rzut18
  6
CONTINUOUS
 62
     7
 10
276.8759
 20
218.104800000000010
 11
280.2505
 21
216.843899999999990
  0
LINE
  8
PT4-Rzut18
  6
CONTINUOUS
 62
     7
 10
280.2514
 20
216.846200000000010
 11
279.1654
 21
213.940000000000000
  0
LINE
  8
PT4-Rzut18
  6
CONTINUOUS
 62
     7
 10
279.1677
 20
213.939200000000000
 11
275.7931
 21
215.199999999999990
  0
LINE
  8
PT4-Rzut18
  6
CONTINUOUS
 62
     7
 10
281.3723
 20
216.424700000000000
 11
282.6861
 21
215.933899999999990
  0
LINE
  8
PT4-Rzut18
  6
CONTINUOUS
 62
     7
 10
282.6869
 20
215.936200000000010
 11
281.6009
 21
213.030000000000000
  0
LINE
  8
PT4-Rzut18
  6
CONTINUOUS
 62
     7
 10
281.6032
 20
213.029100000000000
 11
280.2894
 21
213.520000000000010
  0
LINE
  8
PT4-Rzut18
  6
CONTINUOUS
 62
     7
 10
280.2886
 20
213.517699999999990
 11
281.3746
 21
216.423900000000000
  0
LINE
  8
PT4-Rzut18
  6
GESTRICHELT
 62
     7
 10
323.1581
 20
244.526900000000010
 11
356.8811
 21
231.927100000000000
  0
LINE
  8
PT4-Rzut18
  6
GESTRICHELT
 62
     7
 10
356.8802
 20
231.924700000000000
 11
380.6847
 21
295.624599999999990
  0
LINE
  8
PT4-Rzut18
  6
GESTRICHELT
 62
     7
 10
380.687
 20
295.623800000000020
 11
346.025
 21
308.574700000000010
  0
LINE
  8
PT4-Rzut18
  6
GESTRICHELT
 62
     7
 10
346.0259
 20
308.577000000000000
 11
342.0517
 21
297.942299999999990
  0
LINE
  8
PT4-Rzut18
  6
GESTRICHELT
 62
     7
 10
354.5366
 20
237.073100000000010
 11
327.3684
 21
247.223899999999990
  0
LINE
  8
PT4-Rzut18
  6
GESTRICHELT
 62
     7
 10
327.3684
 20
247.223899999999990
 11
348.3718
 21
303.427799999999990
  0
LINE
  8
PT4-Rzut18
  6
GESTRICHELT
 62
     7
 10
348.3694
 20
303.428699999999990
 11
375.5375
 21
293.277699999999980
  0
LINE
  8
PT4-Rzut18
  6
GESTRICHELT
 62
     7
 10
375.5384
 20
293.280100000000000
 11
354.5342
 21
237.074000000000010
  0
TEXT
  8
PT4-Opis19
  6
CONTINUOUS
 62
     7
 10
332.076399999999980
 20
227.213699999999990
 40
2.500000000000000
  1
Wyłaz na dach 
  0
TEXT
  8
PT4-Opis19
  6
CONTINUOUS
 62
     7
 10
332.076399999999980
 20
223.463699999999990
 40
2.500000000000000
  1
70x70 cm
  0
LINE
  8
PT5-Rzut22
  6
GESTRICHELT
 62
     7
 10
187.0715
 20
316.028300000000000
 11
187.0763
 21
316.041200000000000
  0
LINE
  8
PT5-Rzut22
  6
GESTRICHELT
 62
     7
 10
342.9884
 20
297.592300000000020
 11
196.3779
 21
352.372099999999990
  0
LINE
  8
PT5-Rzut22
  6
GESTRICHELT
 62
     7
 10
196.3788
 20
352.374399999999980
 11
183.3253
 21
317.430400000000020
  0
LINE
  8
PT5-Rzut22
  6
GESTRICHELT
 62
     7
 10
187.0755
 20
316.038900000000010
 11
198.7251
 21
347.224899999999990
  0
LINE
  8
PT5-Rzut22
  6
GESTRICHELT
 62
     7
 10
198.7228
 20
347.225799999999990
 11
337.8414
 21
295.245999999999980
  0
LINE
  8
PT5-Rzut22
  6
CONTINUOUS
 62
     7
 10
223.1628
 20
322.188100000000020
 11
219.6031
 21
323.518199999999980
  0
LINE
  8
PT5-Rzut22
  6
CONTINUOUS
 62
     7
 10
219.6031
 20
323.518199999999980
 11
217.3631
 21
317.522800000000020
  0
LINE
  8
PT5-Rzut22
  6
CONTINUOUS
 62
     7
 10
217.3608
 20
317.523700000000020
 11
220.9228
 21
316.192900000000010
  0
LINE
  8
PT5-Rzut22
  6
CONTINUOUS
 62
     7
 10
220.9228
 20
316.192900000000010
 11
223.1628
 21
322.188100000000020
  0
LINE
  8
PT5-Rzut22
  6
CONTINUOUS
 62
     7
 10
266.5035
 20
321.900600000000000
 11
263.3535
 21
313.469800000000020
  0
LINE
  8
PT5-Rzut22
  6
CONTINUOUS
 62
     7
 10
263.3511
 20
313.470599999999990
 11
266.9131
 21
312.139999999999990
  0
LINE
  8
PT5-Rzut22
  6
CONTINUOUS
 62
     7
 10
266.5035
 20
321.900600000000000
 11
270.0631
 21
320.570600000000010
  0
LINE
  8
PT5-Rzut22
  6
CONTINUOUS
 62
     7
 10
266.9131
 20
312.139999999999990
 11
270.0631
 21
320.570600000000010
  0
LINE
  8
PT5-Rzut22
  6
CONTINUOUS
 62
     7
 10
303.0673
 20
292.332800000000020
 11
300.8274
 21
286.337699999999980
  0
LINE
  8
PT5-Rzut22
  6
GESTRICHELT
 62
     7
 10
337.8414
 20
295.245999999999980
 11
326.1847
 21
264.053000000000000
  0
LINE
  8
PT5-Rzut22
  6
CONTINUOUS
 62
     7
 10
300.8274
 20
286.337699999999980
 11
304.387
 21
285.007600000000020
  0
LINE
  8
PT5-Rzut22
  6
CONTINUOUS
 62
     7
 10
304.387
 20
285.007600000000020
 11
306.627
 21
291.002700000000000
  0
LINE
  8
PT5-Rzut22
  6
CONTINUOUS
 62
     7
 10
306.6294
 20
291.001800000000000
 11
303.0673
 21
292.332800000000020
  0
LINE
  8
PT5-Rzut22
  6
CONTINUOUS
 62
     7
 10
267.2052
 20
320.357300000000010
 11
268.5191
 21
319.866400000000000
  0
LINE
  8
PT5-Rzut22
  6
CONTINUOUS
 62
     7
 10
268.5199
 20
319.868799999999960
 11
268.0286
 21
318.555200000000010
  0
LINE
  8
PT5-Rzut22
  6
CONTINUOUS
 62
     7
 10
268.0286
 20
318.555200000000010
 11
266.7176
 21
319.045000000000020
  0
LINE
  8
PT5-Rzut22
  6
CONTINUOUS
 62
     7
 10
266.7167
 20
319.042599999999990
 11
267.2076
 21
320.356499999999980
  0
LINE
  8
PT5-Rzut22
  6
CONTINUOUS
 62
     7
 10
267.6099
 20
317.433200000000000
 11
267.119
 21
316.119399999999980
  0
LINE
  8
PT5-Rzut22
  6
CONTINUOUS
 62
     7
 10
267.1213
 20
316.118600000000010
 11
265.8076
 21
316.609399999999990
  0
LINE
  8
PT5-Rzut22
  6
CONTINUOUS
 62
     7
 10
265.8067
 20
316.607100000000000
 11
266.2979
 21
317.920799999999990
  0
LINE
  8
PT5-Rzut22
  6
CONTINUOUS
 62
     7
 10
266.2979
 20
317.920799999999990
 11
267.609
 21
317.430900000000010
  0
LINE
  8
PT5-Rzut22
  6
CONTINUOUS
 62
     7
 10
266.6999
 20
314.997700000000010
 11
266.209
 21
313.683899999999990
  0
LINE
  8
PT5-Rzut22
  6
CONTINUOUS
 62
     7
 10
266.2113
 20
313.682999999999990
 11
264.8976
 21
314.173900000000000
  0
LINE
  8
PT5-Rzut22
  6
CONTINUOUS
 62
     7
 10
264.8967
 20
314.171499999999980
 11
265.3876
 21
315.485300000000000
  0
LINE
  8
PT5-Rzut22
  6
CONTINUOUS
 62
     7
 10
265.3852
 20
315.486200000000000
 11
266.699
 21
314.995299999999990
  0
LINE
  8
PT5-Rzut22
  6
CONTINUOUS
 62
     7
 10
221.6195
 20
321.486300000000030
 11
221.1287
 21
320.172500000000010
  0
LINE
  8
PT5-Rzut22
  6
CONTINUOUS
 62
     7
 10
221.131
 20
320.171600000000010
 11
219.8172
 21
320.662500000000020
  0
LINE
  8
PT5-Rzut22
  6
CONTINUOUS
 62
     7
 10
219.8163
 20
320.660200000000030
 11
220.3075
 21
321.973900000000010
  0
LINE
  8
PT5-Rzut22
  6
CONTINUOUS
 62
     7
 10
220.3075
 20
321.973900000000010
 11
221.6187
 21
321.483999999999980
  0
LINE
  8
PT5-Rzut22
  6
CONTINUOUS
 62
     7
 10
220.7095
 20
319.050799999999980
 11
220.2194
 21
317.736699999999980
  0
LINE
  8
PT5-Rzut22
  6
CONTINUOUS
 62
     7
 10
220.2194
 20
317.736699999999980
 11
218.9072
 21
318.226999999999980
  0
LINE
  8
PT5-Rzut22
  6
CONTINUOUS
 62
     7
 10
218.9063
 20
318.224600000000010
 11
219.3972
 21
319.538400000000020
  0
LINE
  8
PT5-Rzut22
  6
CONTINUOUS
 62
     7
 10
219.3949
 20
319.539300000000030
 11
220.7087
 21
319.048400000000020
  0
LINE
  8
PT5-Rzut22
  6
CONTINUOUS
 62
     7
 10
302.3706
 20
287.039400000000000
 11
302.8615
 21
288.353099999999980
  0
LINE
  8
PT5-Rzut22
  6
CONTINUOUS
 62
     7
 10
302.8591
 20
288.353900000000010
 11
304.1716
 21
287.863600000000020
  0
LINE
  8
PT5-Rzut22
  6
CONTINUOUS
 62
     7
 10
304.1716
 20
287.863600000000020
 11
303.683
 21
286.551699999999980
  0
LINE
  8
PT5-Rzut22
  6
CONTINUOUS
 62
     7
 10
303.6853
 20
286.550900000000010
 11
302.3715
 21
287.041699999999990
  0
LINE
  8
PT5-Rzut22
  6
CONTINUOUS
 62
     7
 10
303.2806
 20
289.474800000000020
 11
303.7718
 21
290.788500000000000
  0
LINE
  8
PT5-Rzut22
  6
CONTINUOUS
 62
     7
 10
303.7718
 20
290.788500000000000
 11
305.0829
 21
290.298599999999960
  0
LINE
  8
PT5-Rzut22
  6
CONTINUOUS
 62
     7
 10
305.0838
 20
290.300900000000010
 11
304.5929
 21
288.987200000000030
  0
LINE
  8
PT5-Rzut22
  6
CONTINUOUS
 62
     7
 10
304.5953
 20
288.986300000000030
 11
303.2815
 21
289.477199999999980
  0
LINE
  8
PT5-Dachy23
  6
CONTINUOUS
 62
     7
 10
343.1042
 20
300.758899999999980
 11
195.5617
 21
355.922700000000020
  0
LINE
  8
PT5-Dachy23
  6
CONTINUOUS
 62
     7
 10
195.5617
 20
355.922700000000020
 11
181.5333
 21
318.100399999999980
  0
LINE
  8
PT2-Rzut2
  6
GESTRICHELT
 62
     7
 10
120.9935
 20
35.675000000000011
 11
269.7333
 21
35.675000000000011
  0
LINE
  8
PT3-Rzut14
  6
CONTINUOUS
 62
     7
 10
284.6885
 20
276.141200000000030
 11
286.701
 21
277.526999999999990
  0
LINE
  8
PT3-Rzut14
  6
CONTINUOUS
 62
     7
 10
287.1242
 20
275.231600000000010
 11
289.1365
 21
276.617000000000020
  0
LINE
  8
PT3-Rzut14
  6
CONTINUOUS
 62
     7
 10
289.5598
 20
274.321599999999990
 11
291.5721
 21
275.706999999999990
  0
LINE
  8
PT3-Rzut14
  6
CONTINUOUS
 62
     7
 10
207.0357
 20
79.486400000000003
 11
209.0481
 21
80.872200000000021
  0
LINE
  8
PT3-Rzut14
  6
CONTINUOUS
 62
     7
 10
209.4712
 20
78.576599999999985
 11
211.4828
 21
79.960100000000011
  0
LINE
  8
PT3-Rzut14
  6
CONTINUOUS
 62
     7
 10
211.9068
 20
77.666699999999992
 11
215.1362
 21
78.595399999999984
  0
LINE
  8
PT3-Rzut14
  6
CONTINUOUS
 62
     7
 10
215.5594
 20
76.299599999999998
 11
217.5718
 21
77.685600000000022
  0
LINE
  8
PT5-Rzut22
  6
CONTINUOUS
 62
     7
 10
218.9063
 20
318.224600000000010
 11
220.7087
 21
319.048400000000020
  0
LINE
  8
PT5-Rzut22
  6
CONTINUOUS
 62
     7
 10
219.8163
 20
320.660200000000030
 11
221.6187
 21
321.483999999999980
  0
LINE
  8
PT5-Rzut22
  6
CONTINUOUS
 62
     7
 10
264.8967
 20
314.171499999999980
 11
266.699
 21
314.995299999999990
  0
LINE
  8
PT5-Rzut22
  6
CONTINUOUS
 62
     7
 10
265.8067
 20
316.607100000000000
 11
267.609
 21
317.430900000000010
  0
LINE
  8
PT5-Rzut22
  6
CONTINUOUS
 62
     7
 10
266.7167
 20
319.042599999999990
 11
268.5199
 21
319.868799999999960
  0
LINE
  8
PT5-Rzut22
  6
CONTINUOUS
 62
     7
 10
303.2815
 20
289.477199999999980
 11
305.0838
 21
290.300900000000010
  0
LINE
  8
PT5-Rzut22
  6
CONTINUOUS
 62
     7
 10
302.3715
 20
287.041699999999990
 11
304.1716
 21
287.863600000000020
  0
LINE
  8
PT4-Rzut18
  6
GESTRICHELT
 62
     7
 10
342.0517
 20
297.942299999999990
 11
342.9884
 21
297.592300000000020
  0
LINE
  8
PT4-Rzut18
  6
GESTRICHELT
 62
     7
 10
342.9884
 20
297.592300000000020
 11
330.0255
 21
262.617700000000010
  0
LINE
  8
PT5-Dachy23
  6
CONTINUOUS
 62
     7
 10
183.3253
 20
317.430400000000020
 11
181.5333
 21
318.100399999999980
  0
LINE
  8
PT4-Rzut18
  6
CONTINUOUS
 62
     7
 10
242.4485
 20
129.399499999999990
 11
243.8488
 21
133.146500000000000
  0
LINE
  8
PT4-Rzut18
  6
CONTINUOUS
 62
     7
 10
242.4709
 20
129.391200000000030
 11
244.884
 21
128.489399999999990
  0
LINE
  8
PT4-Rzut18
  6
CONTINUOUS
 62
     7
 10
244.884
 20
128.489399999999990
 11
246.261
 21
132.245099999999980
  0
LINE
  8
PT4-Rzut18
  6
CONTINUOUS
 62
     7
 10
246.261
 20
132.245099999999980
 11
243.8533
 21
133.144900000000010
  0
LINE
  8
PT4-Rzut18
  6
CONTINUOUS
 62
     7
 10
243.4414
 20
132.017699999999990
 11
244.7569
 21
131.526099999999990
  0
LINE
  8
PT4-Rzut18
  6
CONTINUOUS
 62
     7
 10
244.7569
 20
131.526099999999990
 11
244.18
 21
130.033500000000000
  0
LINE
  8
PT4-Rzut18
  6
CONTINUOUS
 62
     7
 10
244.18
 20
130.033500000000000
 11
242.8686
 21
130.523599999999990
  0
CIRCLE
  8
PT4-Rzut18
  6
CONTINUOUS
 62
     7
 10
243.816900000000000
 20
130.985099999999990
 40
0.706400000000000
  0
LINE
  8
PT4-Rzut18
  6
CONTINUOUS
 62
     7
 10
243.1669
 20
130.672599999999990
 11
244.4544
 21
131.297599999999990
  0
POLYLINE
  8
PT1-Tabelka_rysu1
  6
CONTINUOUS
 62
     7
 66
     1
 70
     1
  0
VERTEX
  8
PT1-Tabelka_rysu1
 10
470.3477
 20
14.959900000000005
  0
VERTEX
  8
PT1-Tabelka_rysu1
 10
542.3144
 20
14.959900000000005
  0
VERTEX
  8
PT1-Tabelka_rysu1
 10
542.3144
 20
16.018199999999979
  0
VERTEX
  8
PT1-Tabelka_rysu1
 10
470.3477
 20
16.018199999999979
  0
SEQEND
  8
PT1-Tabelka_rysu1
  0
LINE
  8
PT1-Tabelka_rysu1
  6
CONTINUOUS
 62
     7
 10
469.2894
 20
16.018100000000004
 11
541.2561
 21
16.018100000000004
  0
LINE
  8
PT1-Tabelka_rysu1
  6
CONTINUOUS
 62
     7
 10
469.9949
 20
16.723700000000008
 11
540.5505
 21
16.723700000000008
  0
LINE
  8
PT1-Tabelka_rysu1
  6
CONTINUOUS
 62
     7
 10
540.5505
 20
16.723700000000008
 11
540.5505
 21
61.879300000000001
  0
LINE
  8
PT1-Tabelka_rysu1
  6
CONTINUOUS
 62
     7
 10
540.5505
 20
61.879300000000001
 11
469.9949
 21
61.879300000000001
  0
LINE
  8
PT1-Tabelka_rysu1
  6
CONTINUOUS
 62
     7
 10
469.9949
 20
16.723700000000008
 11
469.9949
 21
61.879300000000001
  0
LINE
  8
PT1-Tabelka_rysu1
  6
CONTINUOUS
 62
     7
 10
469.9949
 20
33.657100000000014
 11
540.5505
 21
33.657100000000014
  0
TEXT
  8
PT1-Tabelka_rysu1
  6
CONTINUOUS
 62
     7
 10
470.700499999999980
 20
31.506700000000023
 40
1.797600000000000
  1
Skala:
  0
TEXT
  8
PT1-Tabelka_rysu1
  6
CONTINUOUS
 62
     7
 10
470.700499999999980
 20
31.506700000000023
 40
1.797600000000000
  1
1 : 100
  0
LINE
  8
PT1-Tabelka_rysu1
  6
CONTINUOUS
 62
     7
 10
493.2783
 20
33.657100000000014
 11
493.2783
 21
30.129300000000001
  0
TEXT
  8
PT1-Tabelka_rysu1
  6
CONTINUOUS
 62
     7
 10
493.983799999999970
 20
31.506700000000023
 40
1.797600000000000
  1
Data:
  0
TEXT
  8
PT1-Tabelka_rysu1
  6
CONTINUOUS
 62
     7
 10
493.983799999999970
 20
31.506700000000023
 40
1.797600000000000
  1
07.2004
  0
LINE
  8
PT1-Tabelka_rysu1
  6
CONTINUOUS
 62
     7
 10
516.5616
 20
33.657100000000014
 11
516.5616
 21
30.129300000000001
  0
TEXT
  8
PT1-Tabelka_rysu1
  6
CONTINUOUS
 62
     7
 10
517.566799999999940
 20
31.506700000000023
 40
1.797600000000000
  1
12-P-04/A
  0
LINE
  8
PT1-Tabelka_rysu1
  6
CONTINUOUS
 62
     7
 10
469.9949
 20
37.184799999999996
 11
540.5505
 21
37.184799999999996
  0
TEXT
  8
PT1-Tabelka_rysu1
  6
CONTINUOUS
 62
     7
 10
470.700499999999980
 20
35.034500000000037
 40
1.797600000000000
  1
Branża:  architektoniczna
  0
TEXT
  8
PT1-Tabelka_rysu1
  6
CONTINUOUS
 62
     7
 10
470.700499999999980
 20
59.376100000000008
 40
1.797600000000000
  1
Projekt: Rozbudowa Szkoły Podstawowej i Gimnazjum
  0
TEXT
  8
PT1-Tabelka_rysu1
  6
CONTINUOUS
 62
     7
 10
470.700499999999980
 20
56.679700000000025
 40
1.797600000000000
  1
              w Rzerzęczycach
  0
LINE
  8
PT1-Tabelka_rysu1
  6
CONTINUOUS
 62
     7
 10
469.9949
 20
53.765400000000000
 11
540.5505
 21
53.765400000000000
  0
TEXT
  8
PT1-Tabelka_rysu1
  6
CONTINUOUS
 62
     7
 10
470.850300000000000
 20
51.262200000000007
 40
1.797600000000000
  1
Inwestor: Urząd Gminy w Kłomnicach
  0
TEXT
  8
PT1-Tabelka_rysu1
  6
CONTINUOUS
 62
     7
 10
470.850300000000000
 20
48.565799999999967
 40
1.797600000000000
  1
                ul. Strażacka 20, 42-270 Kłomnice
  0
LINE
  8
PT1-Tabelka_rysu1
  6
CONTINUOUS
 62
     7
 10
469.9949
 20
45.651499999999999
 11
540.5505
 21
45.651499999999999
  0
TEXT
  8
PT1-Tabelka_rysu1
  6
CONTINUOUS
 62
     7
 10
470.700499999999980
 20
43.737900000000025
 40
1.797600000000000
  1
Projektował: Beata Król-Stroba UAB-VIII/83861/102/90
  0
TEXT
  8
PT1-Tabelka_rysu1
  6
CONTINUOUS
 62
     7
 10
482.342100000000020
 20
59.376100000000008
 40
1.797600000000000
  1

  0
TEXT
  8
PT1-Tabelka_rysu1
  6
CONTINUOUS
 62
     7
 10
482.342100000000020
 20
47.734500000000025
 40
1.797600000000000
  1
 
  0
LINE
  8
PT1-Tabelka_rysu1
  6
CONTINUOUS
 62
     7
 10
469.9949
 20
30.129300000000001
 11
540.5505
 21
30.129300000000001
  0
TEXT
  8
PT1-Tabelka_rysu1
  6
CONTINUOUS
 62
     7
 10
470.700499999999980
 20
27.273300000000006
 40
1.797600000000000
  1

  0
TEXT
  8
PT1-Tabelka_rysu1
  6
CONTINUOUS
 62
     7
 10
470.623899999999990
 20
40.843000000000018
 40
1.797600000000000
  1
Sprawdził: Witold Dominik   -  Decyzja Nr 65
  0
TEXT
  8
PT1-Tabelka_rysu1
  6
CONTINUOUS
 62
     7
 10
470.708100000000000
 20
38.063500000000033
 40
1.797600000000000
  1
Opracował: Michał Urbańczyk
  0
TEXT
  8
PT1-Tabelka_rysu1
  6
CONTINUOUS
 62
     7
 10
470.752000000000010
 20
27.750499999999988
 40
1.797600000000000
  1
Nazwa rysunku:
  0
TEXT
  8
PT1-Tabelka_rysu1
  6
CONTINUOUS
 62
     7
 10
470.411299999999980
 20
18.514099999999985
 40
2.500000000000000
  1
RZUT DACHU
  0
TEXT
  8
PT1-Tabelka_rysu1
  6
CONTINUOUS
 62
     7
 10
470.375400000000010
 20
22.968000000000018
 40
2.500000000000000
  1
Sala gimnastyczna
  0
LINE
  8
PT1-Tabelka_rysu1
  6
CONTINUOUS
 62
     7
 10
474.313
 20
334.686300000000020
 11
474.313
 21
314.604299999999970
  0
LINE
  8
PT1-Tabelka_rysu1
  6
CONTINUOUS
 62
     7
 10
474.3127
 20
314.604299999999970
 11
499.9645
 21
314.604400000000000
  0
LINE
  8
PT1-Tabelka_rysu1
  6
CONTINUOUS
 62
     7
 10
499.9645
 20
314.604699999999980
 11
499.9644
 21
313.846599999999970
  0
LINE
  8
PT1-Tabelka_rysu1
  6
CONTINUOUS
 62
     7
 10
499.9641
 20
313.846599999999970
 11
504.6627
 21
313.846499999999990
  0
LINE
  8
PT1-Tabelka_rysu1
  6
CONTINUOUS
 62
     7
 10
504.6627
 20
313.846200000000010
 11
504.6627
 21
314.604400000000000
  0
LINE
  8
PT1-Tabelka_rysu1
  6
CONTINUOUS
 62
     7
 10
504.6624
 20
314.604400000000000
 11
525.2749
 21
314.606999999999970
  0
LINE
  8
PT1-Tabelka_rysu1
  6
CONTINUOUS
 62
     7
 10
525.2749
 20
314.607300000000010
 11
525.2749
 21
314.604299999999970
  0
LINE
  8
PT1-Tabelka_rysu1
  6
CONTINUOUS
 62
     7
 10
525.2746
 20
314.604299999999970
 11
525.7801
 21
314.604299999999970
  0
LINE
  8
PT1-Tabelka_rysu1
  6
CONTINUOUS
 62
     7
 10
525.7801
 20
314.603999999999980
 11
525.7801
 21
334.685900000000000
  0
LINE
  8
PT1-Tabelka_rysu1
  6
CONTINUOUS
 62
     7
 10
525.7804
 20
334.685900000000000
 11
503.8671
 21
334.685900000000000
  0
LINE
  8
PT1-Tabelka_rysu1
  6
CONTINUOUS
 62
     7
 10
503.8671
 20
334.686300000000020
 11
503.8671
 21
326.508100000000010
  0
LINE
  8
PT1-Tabelka_rysu1
  6
CONTINUOUS
 62
     7
 10
503.8674
 20
326.508100000000010
 11
500.1034
 21
326.508100000000010
  0
LINE
  8
PT1-Tabelka_rysu1
  6
CONTINUOUS
 62
     7
 10
500.1034
 20
326.508399999999990
 11
500.1034
 21
314.604400000000000
  0
LINE
  8
PT1-Tabelka_rysu1
  6
CONTINUOUS
 62
     7
 10
500.1037
 20
314.604400000000000
 11
500.0781
 21
314.604400000000000
  0
LINE
  8
PT1-Tabelka_rysu1
  6
CONTINUOUS
 62
     7
 10
500.0781
 20
314.603999999999980
 11
500.0781
 21
342.184100000000000
  0
LINE
  8
PT1-Tabelka_rysu1
  6
CONTINUOUS
 62
     7
 10
486.2862
 20
348.856900000000000
 11
486.2862
 21
334.685900000000000
  0
LINE
  8
PT1-Tabelka_rysu1
  6
CONTINUOUS
 62
     7
 10
486.2865
 20
334.685900000000000
 11
474.313
 21
334.685900000000000
  0
LINE
  8
PT1-Tabelka_rysu1
  6
CONTINUOUS
 62
     7
 10
477.8112
 20
339.245700000000000
 11
477.8115
 21
334.685900000000000
  0
LINE
  8
PT1-Tabelka_rysu1
  6
CONTINUOUS
 62
     7
 10
486.2862
 20
339.245400000000020
 11
477.8112
 21
339.245400000000020
  0
LINE
  8
PT1-Tabelka_rysu1
  6
CONTINUOUS
 62
     7
 10
491.5426
 20
375.989100000000010
 11
482.0047
 21
350.456300000000000
  0
LINE
  8
PT1-Tabelka_rysu1
  6
CONTINUOUS
 62
     7
 10
482.0044
 20
350.456400000000030
 11
494.342
 21
345.847700000000030
  0
LINE
  8
PT1-Tabelka_rysu1
  6
CONTINUOUS
 62
     7
 10
500.5183
 20
343.540500000000010
 11
509.2033
 21
366.781099999999980
  0
LINE
  8
PT1-Tabelka_rysu1
  6
CONTINUOUS
 62
     7
 10
509.2033
 20
366.781099999999980
 11
513.4625
 21
365.189799999999990
  0
LINE
  8
PT1-Tabelka_rysu1
  6
CONTINUOUS
 62
     7
 10
513.4624
 20
365.189500000000010
 11
516.4689
 21
373.234800000000010
  0
LINE
  8
PT1-Tabelka_rysu1
  6
CONTINUOUS
 62
     7
 10
516.4691
 20
373.234699999999980
 11
512.0914
 21
374.870400000000020
  0
LINE
  8
PT1-Tabelka_rysu1
  6
CONTINUOUS
 62
     7
 10
512.0915
 20
374.870600000000020
 11
511.5896
 21
373.527600000000010
  0
LINE
  8
PT1-Tabelka_rysu1
  6
CONTINUOUS
 62
     7
 10
511.5896
 20
373.527600000000010
 11
493.191
 21
380.401900000000010
  0
LINE
  8
PT1-Tabelka_rysu1
  6
CONTINUOUS
 62
     7
 10
493.191
 20
380.401900000000010
 11
491.5425
 21
375.988800000000030
  0
LINE
  8
PT1-Tabelka_rysu1
  6
CONTINUOUS
 62
     7
 10
491.5426
 20
375.989100000000010
 11
482.0047
 21
350.456300000000000
  0
LINE
  8
PT1-Tabelka_rysu1
  6
CONTINUOUS
 62
     7
 10
482.0044
 20
350.456400000000030
 11
494.342
 21
345.847700000000030
  0
LINE
  8
PT1-Tabelka_rysu1
  6
CONTINUOUS
 62
     7
 10
491.5426
 20
375.989100000000010
 11
482.0047
 21
350.456300000000000
  0
LINE
  8
PT1-Tabelka_rysu1
  6
CONTINUOUS
 62
     7
 10
482.0044
 20
350.456400000000030
 11
500.5183
 21
343.540500000000010
  0
LINE
  8
PT1-Tabelka_rysu1
  6
CONTINUOUS
 62
     7
 10
500.5183
 20
343.540500000000010
 11
500.0781
 21
342.184100000000000
  0
POLYLINE
  8
PT1-Tabelka_rysu1
  6
CONTINUOUS
 62
     7
 66
     1
 70
     1
  0
VERTEX
  8
PT1-Tabelka_rysu1
 10
482.0047
 20
350.456300000000000
  0
VERTEX
  8
PT1-Tabelka_rysu1
 10
500.5183
 20
343.540500000000010
  0
VERTEX
  8
PT1-Tabelka_rysu1
 10
509.2033
 20
366.781099999999980
  0
VERTEX
  8
PT1-Tabelka_rysu1
 10
513.4624
 20
365.189500000000010
  0
VERTEX
  8
PT1-Tabelka_rysu1
 10
516.4691
 20
373.234699999999980
  0
VERTEX
  8
PT1-Tabelka_rysu1
 10
512.0915
 20
374.870600000000020
  0
VERTEX
  8
PT1-Tabelka_rysu1
 10
511.5999
 20
373.555299999999990
  0
VERTEX
  8
PT1-Tabelka_rysu1
 10
493.191
 20
380.401900000000010
  0
SEQEND
  8
PT1-Tabelka_rysu1
  0
LINE
  8
PT3-Rzut14
  6
CONTINUOUS
 62
     7
 10
293.1155
 20
276.408599999999980
 11
296.8623
 21
275.008600000000000
  0
LINE
  8
PT3-Rzut14
  6
GESTRICHELT
 62
     7
 10
284.6337
 20
279.529000000000000
 11
183.325
 21
317.433200000000000
  0
LINE
  8
PT3-Rzut14
  6
GESTRICHELT
 62
     7
 10
107.8085
 20
115.271900000000020
 11
205.4913
 21
78.782300000000021
  0
LINE
  8
PT3-Rzut14
  6
CONTINUOUS
 62
     7
 10
217.5761
 20
74.268100000000004
 11
221.3229
 21
72.868400000000008
  0
LINE
  8
PT3-Rzut14
  6
CONTINUOUS
 62
     7
 10
219.1159
 20
78.389099999999985
 11
291.5751
 21
272.287100000000010
  0
LINE
  8
PT3-Dach17
  6
CONTINUOUS
 62
     7
 10
217.5761
 20
74.268100000000004
 11
216.8758
 21
72.394700000000000
  0
LINE
  8
PT3-Dach17
  6
CONTINUOUS
 62
     7
 10
216.922
 20
72.379099999999994
 11
104.2983
 21
114.448199999999990
  0
LINE
  8
PT3-Dach17
  6
CONTINUOUS
 62
     7
 10
104.2638
 20
114.454299999999990
 11
181.2151
 21
320.358000000000000
  0
LINE
  8
PT3-Dach17
  6
CONTINUOUS
 62
     7
 10
181.2269
 20
320.371600000000000
 11
293.798
 21
278.235599999999980
  0
LINE
  8
PT3-Dach17
  6
CONTINUOUS
 62
     7
 10
293.798
 20
278.235599999999980
 11
293.1155
 21
276.408599999999980
  0
LINE
  8
PT3-Dach17
  6
CONTINUOUS
 62
     7
 10
104.2983
 20
114.448199999999990
 11
102.8948
 21
114.977500000000020
  0
LINE
  8
PT3-Dach17
  6
CONTINUOUS
 62
     7
 10
102.8925
 20
114.970599999999990
 11
179.8182
 21
320.905199999999980
  0
LINE
  8
PT3-Dach17
  6
CONTINUOUS
 62
     7
 10
179.8182
 20
320.905199999999980
 11
181.2151
 21
320.358000000000000
  0
CIRCLE
  8
PT3-Dach17
  6
CONTINUOUS
 62
     7
 10
178.937999999999990
 20
316.405300000000010
 40
0.750000000000000
  0
CIRCLE
  8
PT3-Dach17
  6
CONTINUOUS
 62
     7
 10
145.557799999999990
 20
227.045099999999990
 40
0.784800000000000
  0
CIRCLE
  8
PT3-Dach17
  6
CONTINUOUS
 62
     7
 10
105.170400000000000
 20
118.926100000000020
 40
0.749700000000000
  0
TEXT
  8
PT3-Wymiarowanie15
  6
CONTINUOUS
 62
     7
 10
117.443000000000000
 20
221.327599999999990
 40
2.000000000000000
 50
429.500000000000000
  1
21,98
  0
TEXT
  8
PT3-Wymiarowanie15
  6
CONTINUOUS
 62
     7
 10
119.524500000000000
 20
229.627800000000010
 40
1.500000000000000
 50
429.500000000000000
  1
5
  0
LINE
  8
PT3-Wymiarowanie15
  6
CONTINUOUS
 62
     7
 10
159.2092
 20
328.603600000000030
 11
82.2834
 21
122.669100000000010
  0
LINE
  8
PT3-Wymiarowanie15
  6
CONTINUOUS
 62
     7
 10
159.5591
 20
329.540399999999980
 11
159.2092
 21
328.603600000000030
  0
LINE
  8
PT3-Wymiarowanie15
  6
CONTINUOUS
 62
     7
 10
81.9335
 20
121.732300000000010
 11
82.2834
 21
122.669100000000010
  0
LINE
  8
PT3-Wymiarowanie15
  6
CONTINUOUS
 62
     7
 10
159.5025
 20
327.960300000000020
 11
158.9158
 21
329.246899999999980
  0
LINE
  8
PT3-Wymiarowanie15
  6
CONTINUOUS
 62
     7
 10
82.5768
 20
122.025800000000000
 11
81.99
 21
123.312299999999990
  0
LINE
  8
PT3-Wymiarowanie15
  6
CONTINUOUS
 62
     7
 10
158.2724
 20
328.953500000000020
 11
160.1459
 21
328.253699999999980
  0
LINE
  8
PT3-Wymiarowanie15
  6
CONTINUOUS
 62
     7
 10
81.3466
 20
123.019000000000010
 11
83.2202
 21
122.319099999999990
  0
LINE
  8
PT3-Wymiarowanie15
  6
CONTINUOUS
 62
     7
 10
110.8892
 20
111.986100000000020
 11
111.589
 21
113.859699999999980
  0
LINE
  8
PT3-Wymiarowanie15
  6
CONTINUOUS
 62
     7
 10
110.5393
 20
111.049399999999990
 11
110.8892
 21
111.986100000000020
  0
LINE
  8
PT3-Wymiarowanie15
  6
CONTINUOUS
 62
     7
 10
111.939
 20
114.796499999999980
 11
111.589
 21
113.859699999999980
  0
LINE
  8
PT3-Wymiarowanie15
  6
CONTINUOUS
 62
     7
 10
110.5958
 20
112.629399999999980
 11
111.1826
 21
111.342899999999990
  0
LINE
  8
PT3-Wymiarowanie15
  6
CONTINUOUS
 62
     7
 10
111.2957
 20
114.502999999999990
 11
111.8824
 21
113.216400000000020
  0
LINE
  8
PT3-Wymiarowanie15
  6
CONTINUOUS
 62
     7
 10
109.9524
 20
112.336099999999990
 11
111.826
 21
111.636199999999970
  0
LINE
  8
PT3-Wymiarowanie15
  6
CONTINUOUS
 62
     7
 10
110.6523
 20
114.209600000000020
 11
112.5258
 21
113.509799999999980
  0
TEXT
  8
PT3-Wymiarowanie15
  6
CONTINUOUS
 62
     7
 10
108.869300000000000
 20
112.736800000000020
 40
2.000000000000000
 50
69.500000000000000
  1
20
  0
LINE
  8
PT3-Wymiarowanie15
  6
CONTINUOUS
 62
     7
 10
187.1046
 20
316.018500000000020
 11
187.8101
 21
317.907100000000010
  0
LINE
  8
PT3-Wymiarowanie15
  6
CONTINUOUS
 62
     7
 10
186.7547
 20
315.081700000000010
 11
187.1046
 21
316.018500000000020
  0
LINE
  8
PT3-Wymiarowanie15
  6
CONTINUOUS
 62
     7
 10
188.16
 20
318.843799999999990
 11
187.8101
 21
317.907100000000010
  0
LINE
  8
PT3-Wymiarowanie15
  6
CONTINUOUS
 62
     7
 10
186.8113
 20
316.661700000000000
 11
187.398
 21
315.375200000000010
  0
LINE
  8
PT3-Wymiarowanie15
  6
CONTINUOUS
 62
     7
 10
187.5167
 20
318.550299999999990
 11
188.1035
 21
317.263800000000000
  0
LINE
  8
PT3-Wymiarowanie15
  6
CONTINUOUS
 62
     7
 10
186.1679
 20
316.368400000000010
 11
188.0414
 21
315.668599999999970
  0
LINE
  8
PT3-Wymiarowanie15
  6
CONTINUOUS
 62
     7
 10
186.8733
 20
318.257000000000010
 11
188.7469
 21
317.557099999999990
  0
TEXT
  8
PT3-Wymiarowanie15
  6
CONTINUOUS
 62
     7
 10
185.378899999999990
 20
316.403199999999970
 40
2.000000000000000
 50
69.500000000000000
  1
20
  0
LINE
  8
PT3-Wymiarowanie15
  6
CONTINUOUS
 62
     7
 10
175.1344
 20
322.654800000000020
 11
173.5516
 21
318.417800000000000
  0
LINE
  8
PT3-Wymiarowanie15
  6
CONTINUOUS
 62
     7
 10
175.4843
 20
323.591599999999970
 11
175.1344
 21
322.654800000000020
  0
LINE
  8
PT3-Wymiarowanie15
  6
CONTINUOUS
 62
     7
 10
173.2017
 20
317.480999999999990
 11
173.5516
 21
318.417800000000000
  0
LINE
  8
PT3-Wymiarowanie15
  6
CONTINUOUS
 62
     7
 10
175.4277
 20
322.011599999999990
 11
174.841
 21
323.298099999999980
  0
LINE
  8
PT3-Wymiarowanie15
  6
CONTINUOUS
 62
     7
 10
173.845
 20
317.774499999999990
 11
173.2583
 21
319.061000000000040
  0
LINE
  8
PT3-Wymiarowanie15
  6
CONTINUOUS
 62
     7
 10
174.1976
 20
323.004700000000010
 11
176.0711
 21
322.304899999999980
  0
LINE
  8
PT3-Wymiarowanie15
  6
CONTINUOUS
 62
     7
 10
172.6149
 20
318.767699999999990
 11
174.4884
 21
318.067900000000010
  0
TEXT
  8
PT3-Wymiarowanie15
  6
CONTINUOUS
 62
     7
 10
172.247300000000000
 20
317.824799999999980
 40
2.000000000000000
 50
429.500000000000000
  1
45
  0
TEXT
  8
PT3-Wymiarowanie15
  6
CONTINUOUS
 62
     7
 10
153.812199999999990
 20
270.108700000000000
 40
2.000000000000000
 50
429.500000000000000
  1
9,55
  0
LINE
  8
PT3-Wymiarowanie15
  6
CONTINUOUS
 62
     7
 10
173.5516
 20
318.417800000000000
 11
140.1335
 21
228.955600000000000
  0
LINE
  8
PT3-Wymiarowanie15
  6
CONTINUOUS
 62
     7
 10
173.9016
 20
319.354600000000000
 11
173.5516
 21
318.417800000000000
  0
LINE
  8
PT3-Wymiarowanie15
  6
CONTINUOUS
 62
     7
 10
139.7836
 20
228.018800000000000
 11
140.1335
 21
228.955600000000000
  0
LINE
  8
PT3-Wymiarowanie15
  6
CONTINUOUS
 62
     7
 10
173.845
 20
317.774499999999990
 11
173.2583
 21
319.061000000000040
  0
LINE
  8
PT3-Wymiarowanie15
  6
CONTINUOUS
 62
     7
 10
140.4269
 20
228.312299999999990
 11
139.8401
 21
229.598899999999990
  0
LINE
  8
PT3-Wymiarowanie15
  6
CONTINUOUS
 62
     7
 10
172.6149
 20
318.767699999999990
 11
174.4884
 21
318.067900000000010
  0
LINE
  8
PT3-Wymiarowanie15
  6
CONTINUOUS
 62
     7
 10
139.1967
 20
229.305499999999990
 11
141.0703
 21
228.605700000000010
  0
TEXT
  8
PT3-Wymiarowanie15
  6
CONTINUOUS
 62
     7
 10
116.655500000000000
 20
170.638100000000010
 40
2.000000000000000
 50
429.500000000000000
  1
11,53
  0
LINE
  8
PT3-Wymiarowanie15
  6
CONTINUOUS
 62
     7
 10
140.1335
 20
228.955600000000000
 11
99.7842
 21
120.938100000000020
  0
LINE
  8
PT3-Wymiarowanie15
  6
CONTINUOUS
 62
     7
 10
140.4834
 20
229.892400000000010
 11
140.1335
 21
228.955600000000000
  0
LINE
  8
PT3-Wymiarowanie15
  6
CONTINUOUS
 62
     7
 10
99.4342
 20
120.001399999999990
 11
99.7842
 21
120.938100000000020
  0
LINE
  8
PT3-Wymiarowanie15
  6
CONTINUOUS
 62
     7
 10
140.4269
 20
228.312299999999990
 11
139.8401
 21
229.598899999999990
  0
LINE
  8
PT3-Wymiarowanie15
  6
CONTINUOUS
 62
     7
 10
100.0775
 20
120.294899999999980
 11
99.4908
 21
121.581399999999970
  0
LINE
  8
PT3-Wymiarowanie15
  6
CONTINUOUS
 62
     7
 10
139.1967
 20
229.305499999999990
 11
141.0703
 21
228.605700000000010
  0
LINE
  8
PT3-Wymiarowanie15
  6
CONTINUOUS
 62
     7
 10
98.8474
 20
121.288099999999990
 11
100.7209
 21
120.588199999999970
  0
LINE
  8
PT3-Wymiarowanie15
  6
CONTINUOUS
 62
     7
 10
99.7842
 20
120.938100000000020
 11
98.2086
 21
116.720300000000010
  0
LINE
  8
PT3-Wymiarowanie15
  6
CONTINUOUS
 62
     7
 10
100.1341
 20
121.874900000000030
 11
99.7842
 21
120.938100000000020
  0
LINE
  8
PT3-Wymiarowanie15
  6
CONTINUOUS
 62
     7
 10
97.8587
 20
115.783500000000000
 11
98.2086
 21
116.720300000000010
  0
LINE
  8
PT3-Wymiarowanie15
  6
CONTINUOUS
 62
     7
 10
100.0775
 20
120.294899999999980
 11
99.4908
 21
121.581399999999970
  0
LINE
  8
PT3-Wymiarowanie15
  6
CONTINUOUS
 62
     7
 10
98.502
 20
116.077000000000000
 11
97.9152
 21
117.363499999999990
  0
LINE
  8
PT3-Wymiarowanie15
  6
CONTINUOUS
 62
     7
 10
98.8474
 20
121.288099999999990
 11
100.7209
 21
120.588199999999970
  0
LINE
  8
PT3-Wymiarowanie15
  6
CONTINUOUS
 62
     7
 10
97.2718
 20
117.070200000000000
 11
99.1454
 21
116.370299999999990
  0
TEXT
  8
PT3-Wymiarowanie15
  6
CONTINUOUS
 62
     7
 10
96.800600000000003
 20
116.075800000000020
 40
2.000000000000000
 50
429.500000000000000
  1
45
  0
LINE
  8
PT4-Dach21
  6
CONTINUOUS
 62
     7
 10
296.8621
 20
275.008699999999980
 11
297.5625
 21
276.882200000000010
  0
LINE
  8
PT4-Dach21
  6
CONTINUOUS
 62
     7
 10
297.5625
 20
276.882200000000010
 11
328.847
 21
265.193099999999960
  0
LINE
  8
PT4-Dach21
  6
CONTINUOUS
 62
     7
 10
328.847
 20
265.193099999999960
 11
345.7547
 21
310.810799999999970
  0
LINE
  8
PT4-Dach21
  6
CONTINUOUS
 62
     7
 10
345.7547
 20
310.810799999999970
 11
384.195
 21
296.448199999999990
  0
LINE
  8
PT4-Dach21
  6
CONTINUOUS
 62
     7
 10
384.195
 20
296.448199999999990
 11
358.9912
 21
229.003700000000010
  0
LINE
  8
PT4-Dach21
  6
CONTINUOUS
 62
     7
 10
358.9912
 20
229.003700000000010
 11
325.2682
 21
241.603500000000000
  0
LINE
  8
PT4-Dach21
  6
CONTINUOUS
 62
     7
 10
325.2526
 20
241.628300000000000
 11
256.5021
 21
57.591999999999985
  0
LINE
  8
PT4-Dach21
  6
CONTINUOUS
 62
     7
 10
256.5021
 20
57.591999999999985
 11
220.5945
 21
71.005600000000015
  0
LINE
  8
PT4-Dach21
  6
CONTINUOUS
 62
     7
 10
220.5945
 20
71.005600000000015
 11
221.3229
 21
72.868499999999983
  0
LINE
  8
PT4-Dach21
  6
CONTINUOUS
 62
     7
 10
384.195
 20
296.448199999999990
 11
385.6002
 21
295.923200000000010
  0
LINE
  8
PT4-Dach21
  6
CONTINUOUS
 62
     7
 10
385.6002
 20
295.923200000000010
 11
360.3963
 21
228.478700000000000
  0
LINE
  8
PT4-Dach21
  6
CONTINUOUS
 62
     7
 10
360.3963
 20
228.478700000000000
 11
358.9912
 21
229.003700000000010
  0
LINE
  8
PT4-Dach21
  6
CONTINUOUS
 62
     7
 10
326.6609
 20
241.047300000000010
 11
257.8993
 21
57.045900000000017
  0
LINE
  8
PT4-Dach21
  6
CONTINUOUS
 62
     7
 10
257.8993
 20
57.045900000000017
 11
256.5021
 21
57.591999999999985
  0
CIRCLE
  8
PT4-Dach21
  6
CONTINUOUS
 62
     7
 10
361.074299999999990
 20
232.435300000000010
 40
0.724100000000000
  0
CIRCLE
  8
PT4-Dach21
  6
CONTINUOUS
 62
     7
 10
316.850300000000000
 20
216.993100000000000
 40
0.769600000000000
  0
CIRCLE
  8
PT4-Dach21
  6
CONTINUOUS
 62
     7
 10
268.770800000000010
 20
88.236199999999997
 40
0.730500000000000
  0
TEXT
  8
PT4-Wymiarowanie20
  6
CONTINUOUS
 62
     7
 10
268.122500000000000
 20
68.429500000000019
 40
2.000000000000000
 50
69.599999999999994
  1
3,30
  0
LINE
  8
PT4-Wymiarowanie20
  6
CONTINUOUS
 62
     7
 10
265.3958
 20
54.252499999999998
 11
276.9264
 21
85.196599999999989
  0
LINE
  8
PT4-Wymiarowanie20
  6
CONTINUOUS
 62
     7
 10
265.0466
 20
53.315400000000011
 11
265.3958
 21
54.252499999999998
  0
LINE
  8
PT4-Wymiarowanie20
  6
CONTINUOUS
 62
     7
 10
277.2756
 20
86.133699999999976
 11
276.9264
 21
85.196599999999989
  0
LINE
  8
PT4-Wymiarowanie20
  6
CONTINUOUS
 62
     7
 10
265.1019
 20
54.895500000000027
 11
265.6897
 21
53.609500000000025
  0
LINE
  8
PT4-Wymiarowanie20
  6
CONTINUOUS
 62
     7
 10
276.6325
 20
85.839600000000019
 11
277.2203
 21
84.553600000000017
  0
LINE
  8
PT4-Wymiarowanie20
  6
CONTINUOUS
 62
     7
 10
266.3328
 20
53.903300000000002
 11
264.4587
 21
54.601699999999994
  0
LINE
  8
PT4-Wymiarowanie20
  6
CONTINUOUS
 62
     7
 10
277.8635
 20
84.847399999999993
 11
275.9894
 21
85.545799999999986
  0
TEXT
  8
PT4-Wymiarowanie20
  6
CONTINUOUS
 62
     7
 10
297.610900000000020
 20
147.565599999999990
 40
2.000000000000000
 50
69.599999999999994
  1
13,74
  0
TEXT
  8
PT4-Wymiarowanie20
  6
CONTINUOUS
 62
     7
 10
299.689599999999980
 20
155.295600000000010
 40
1.500000000000000
 50
69.599999999999994
  1
5
  0
LINE
  8
PT4-Wymiarowanie20
  6
CONTINUOUS
 62
     7
 10
276.9264
 20
85.196599999999989
 11
324.9171
 21
213.986500000000010
  0
LINE
  8
PT4-Wymiarowanie20
  6
CONTINUOUS
 62
     7
 10
276.5772
 20
84.259599999999978
 11
276.9264
 21
85.196599999999989
  0
LINE
  8
PT4-Wymiarowanie20
  6
CONTINUOUS
 62
     7
 10
325.2663
 20
214.923499999999990
 11
324.9171
 21
213.986500000000010
  0
LINE
  8
PT4-Wymiarowanie20
  6
CONTINUOUS
 62
     7
 10
276.6325
 20
85.839600000000019
 11
277.2203
 21
84.553600000000017
  0
LINE
  8
PT4-Wymiarowanie20
  6
CONTINUOUS
 62
     7
 10
324.6232
 20
214.629500000000010
 11
325.211
 21
213.343500000000010
  0
LINE
  8
PT4-Wymiarowanie20
  6
CONTINUOUS
 62
     7
 10
277.8635
 20
84.847399999999993
 11
275.9894
 21
85.545799999999986
  0
LINE
  8
PT4-Wymiarowanie20
  6
CONTINUOUS
 62
     7
 10
325.8542
 20
213.637300000000010
 11
323.9801
 21
214.335700000000000
  0
TEXT
  8
PT4-Wymiarowanie20
  6
CONTINUOUS
 62
     7
 10
326.411999999999980
 20
224.857400000000010
 40
2.000000000000000
 50
69.599999999999994
  1
2,59
  0
TEXT
  8
PT4-Wymiarowanie20
  6
CONTINUOUS
 62
     7
 10
327.864300000000010
 20
230.906399999999990
 40
1.500000000000000
 50
69.599999999999994
  1
5
  0
LINE
  8
PT4-Wymiarowanie20
  6
CONTINUOUS
 62
     7
 10
324.9171
 20
213.986500000000010
 11
333.9839
 21
238.318600000000000
  0
LINE
  8
PT4-Wymiarowanie20
  6
CONTINUOUS
 62
     7
 10
324.568
 20
213.049399999999990
 11
324.9171
 21
213.986500000000010
  0
LINE
  8
PT4-Wymiarowanie20
  6
CONTINUOUS
 62
     7
 10
334.3331
 20
239.255599999999990
 11
333.9839
 21
238.318600000000000
  0
LINE
  8
PT4-Wymiarowanie20
  6
CONTINUOUS
 62
     7
 10
324.6232
 20
214.629500000000010
 11
325.211
 21
213.343500000000010
  0
LINE
  8
PT4-Wymiarowanie20
  6
CONTINUOUS
 62
     7
 10
333.69
 20
238.961600000000000
 11
334.2778
 21
237.675500000000000
  0
LINE
  8
PT4-Wymiarowanie20
  6
CONTINUOUS
 62
     7
 10
325.8542
 20
213.637300000000010
 11
323.9801
 21
214.335700000000000
  0
LINE
  8
PT4-Wymiarowanie20
  6
CONTINUOUS
 62
     7
 10
334.921
 20
237.969400000000010
 11
333.0469
 21
238.667700000000000
  0
LINE
  8
PT4-Wymiarowanie20
  6
CONTINUOUS
 62
     7
 10
366.088
 20
226.580800000000010
 11
367.3521
 21
230.385700000000010
  0
LINE
  8
PT4-Wymiarowanie20
  6
CONTINUOUS
 62
     7
 10
365.7727
 20
225.631800000000000
 11
366.088
 21
226.580800000000010
  0
LINE
  8
PT4-Wymiarowanie20
  6
CONTINUOUS
 62
     7
 10
367.6674
 20
231.334700000000000
 11
367.3521
 21
230.385700000000010
  0
LINE
  8
PT4-Wymiarowanie20
  6
CONTINUOUS
 62
     7
 10
365.7712
 20
227.212799999999990
 11
366.4048
 21
225.948800000000010
  0
LINE
  8
PT4-Wymiarowanie20
  6
CONTINUOUS
 62
     7
 10
367.0353
 20
231.017699999999990
 11
367.6689
 21
229.753600000000010
  0
LINE
  8
PT4-Wymiarowanie20
  6
CONTINUOUS
 62
     7
 10
367.037
 20
226.265500000000000
 11
365.139
 21
226.896099999999990
  0
LINE
  8
PT4-Wymiarowanie20
  6
CONTINUOUS
 62
     7
 10
368.3011
 20
230.070400000000010
 11
366.4031
 21
230.700899999999990
  0
TEXT
  8
PT4-Wymiarowanie20
  6
CONTINUOUS
 62
     7
 10
364.527600000000010
 20
227.890700000000010
 40
2.000000000000000
 50
71.599999999999994
  1
40
  0
TEXT
  8
PT4-Wymiarowanie20
  6
CONTINUOUS
 62
     7
 10
343.335800000000010
 20
126.739500000000020
 40
2.000000000000000
 50
69.500000000000000
  1
19,64
  0
TEXT
  8
PT4-Wymiarowanie20
  6
CONTINUOUS
 62
     7
 10
345.418400000000020
 20
134.469400000000010
 40
1.500000000000000
 50
69.500000000000000
  1
5
  0
LINE
  8
PT4-Wymiarowanie20
  6
CONTINUOUS
 62
     7
 10
312.2572
 20
36.763100000000009
 11
381.0216
 21
220.771999999999990
  0
LINE
  8
PT4-Wymiarowanie20
  6
CONTINUOUS
 62
     7
 10
311.9071
 20
35.826300000000003
 11
312.2572
 21
36.763100000000009
  0
LINE
  8
PT4-Wymiarowanie20
  6
CONTINUOUS
 62
     7
 10
381.3717
 20
221.708800000000000
 11
381.0216
 21
220.771999999999990
  0
LINE
  8
PT4-Wymiarowanie20
  6
CONTINUOUS
 62
     7
 10
311.9639
 20
37.406400000000019
 11
312.5505
 21
36.119799999999998
  0
LINE
  8
PT4-Wymiarowanie20
  6
CONTINUOUS
 62
     7
 10
380.7283
 20
221.415300000000000
 11
381.3149
 21
220.128700000000010
  0
LINE
  8
PT4-Wymiarowanie20
  6
CONTINUOUS
 62
     7
 10
313.1939
 20
36.413000000000011
 11
311.3204
 21
37.113099999999974
  0
LINE
  8
PT4-Wymiarowanie20
  6
CONTINUOUS
 62
     7
 10
381.9583
 20
220.422000000000000
 11
380.0849
 21
221.122099999999990
  0
TEXT
  8
PT4-Wymiarowanie20
  6
CONTINUOUS
 62
     7
 10
390.593099999999990
 20
253.196800000000000
 40
2.000000000000000
 50
69.500000000000000
  1
7,20
  0
LINE
  8
PT4-Wymiarowanie20
  6
CONTINUOUS
 62
     7
 10
381.0216
 20
220.771999999999990
 11
406.2256
 21
288.216299999999990
  0
LINE
  8
PT4-Wymiarowanie20
  6
CONTINUOUS
 62
     7
 10
380.6715
 20
219.835299999999990
 11
381.0216
 21
220.771999999999990
  0
LINE
  8
PT4-Wymiarowanie20
  6
CONTINUOUS
 62
     7
 10
406.5757
 20
289.153000000000020
 11
406.2256
 21
288.216299999999990
  0
LINE
  8
PT4-Wymiarowanie20
  6
CONTINUOUS
 62
     7
 10
380.7283
 20
221.415300000000000
 11
381.3149
 21
220.128700000000010
  0
LINE
  8
PT4-Wymiarowanie20
  6
CONTINUOUS
 62
     7
 10
405.9323
 20
288.859600000000000
 11
406.5189
 21
287.572999999999980
  0
LINE
  8
PT4-Wymiarowanie20
  6
CONTINUOUS
 62
     7
 10
381.9583
 20
220.422000000000000
 11
380.0849
 21
221.122099999999990
  0
LINE
  8
PT4-Wymiarowanie20
  6
CONTINUOUS
 62
     7
 10
407.1624
 20
287.866199999999990
 11
405.2889
 21
288.566300000000010
  0
LINE
  8
PT4-Wymiarowanie20
  6
CONTINUOUS
 62
     7
 10
323.4916
 20
236.929700000000000
 11
320.6999
 21
237.972700000000000
  0
LINE
  8
PT4-Wymiarowanie20
  6
CONTINUOUS
 62
     7
 10
324.4283
 20
236.579700000000000
 11
323.4916
 21
236.929700000000000
  0
LINE
  8
PT4-Wymiarowanie20
  6
CONTINUOUS
 62
     7
 10
319.7631
 20
238.322700000000000
 11
320.6999
 21
237.972700000000000
  0
LINE
  8
PT4-Wymiarowanie20
  6
CONTINUOUS
 62
     7
 10
322.8483
 20
236.636300000000010
 11
324.1349
 21
237.223000000000010
  0
LINE
  8
PT4-Wymiarowanie20
  6
CONTINUOUS
 62
     7
 10
320.0566
 20
237.679399999999990
 11
321.3432
 21
238.266099999999990
  0
LINE
  8
PT4-Wymiarowanie20
  6
CONTINUOUS
 62
     7
 10
323.1416
 20
235.992899999999990
 11
323.8416
 21
237.866400000000000
  0
LINE
  8
PT4-Wymiarowanie20
  6
CONTINUOUS
 62
     7
 10
320.3499
 20
237.036000000000000
 11
321.0499
 21
238.909500000000010
  0
TEXT
  8
PT4-Wymiarowanie20
  6
CONTINUOUS
 62
     7
 10
321.226699999999990
 20
239.583599999999990
 40
2.000000000000000
 50
339.500000000000000
  1
30
  0
LINE
  8
PT4-Wymiarowanie20
  6
CONTINUOUS
 62
     7
 10
362.4914
 20
238.371100000000010
 11
359.6693
 21
239.425600000000000
  0
LINE
  8
PT4-Wymiarowanie20
  6
CONTINUOUS
 62
     7
 10
363.4282
 20
238.021099999999990
 11
362.4914
 21
238.371100000000010
  0
LINE
  8
PT4-Wymiarowanie20
  6
CONTINUOUS
 62
     7
 10
358.7325
 20
239.775600000000000
 11
359.6693
 21
239.425600000000000
  0
LINE
  8
PT4-Wymiarowanie20
  6
CONTINUOUS
 62
     7
 10
361.8481
 20
238.077800000000000
 11
363.1347
 21
238.664500000000000
  0
LINE
  8
PT4-Wymiarowanie20
  6
CONTINUOUS
 62
     7
 10
359.026
 20
239.132200000000010
 11
360.3125
 21
239.718899999999990
  0
LINE
  8
PT4-Wymiarowanie20
  6
CONTINUOUS
 62
     7
 10
362.8414
 20
239.307899999999990
 11
362.1414
 21
237.434400000000010
  0
LINE
  8
PT4-Wymiarowanie20
  6
CONTINUOUS
 62
     7
 10
360.0193
 20
240.362300000000000
 11
359.3193
 21
238.488800000000000
  0
TEXT
  8
PT4-Wymiarowanie20
  6
CONTINUOUS
 62
     7
 10
360.487199999999970
 20
240.969100000000000
 40
2.000000000000000
 50
339.500000000000000
  1
30
  0
LINE
  8
PT4-Wymiarowanie20
  6
CONTINUOUS
 62
     7
 10
335.003
 20
281.847600000000000
 11
336.8765
 21
281.147499999999980
  0
LINE
  8
PT4-Wymiarowanie20
  6
CONTINUOUS
 62
     7
 10
334.0662
 20
282.197599999999970
 11
335.003
 21
281.847600000000000
  0
LINE
  8
PT4-Wymiarowanie20
  6
CONTINUOUS
 62
     7
 10
337.8132
 20
280.797500000000010
 11
336.8765
 21
281.147499999999980
  0
LINE
  8
PT4-Wymiarowanie20
  6
CONTINUOUS
 62
     7
 10
335.6462
 20
282.140899999999990
 11
334.3597
 21
281.554199999999980
  0
LINE
  8
PT4-Wymiarowanie20
  6
CONTINUOUS
 62
     7
 10
337.5197
 20
281.440900000000000
 11
336.2332
 21
280.854199999999990
  0
LINE
  8
PT4-Wymiarowanie20
  6
CONTINUOUS
 62
     7
 10
334.653
 20
280.910799999999990
 11
335.353
 21
282.784300000000030
  0
LINE
  8
PT4-Wymiarowanie20
  6
CONTINUOUS
 62
     7
 10
336.5265
 20
280.210800000000010
 11
337.2265
 21
282.084299999999980
  0
TEXT
  8
PT4-Wymiarowanie20
  6
CONTINUOUS
 62
     7
 10
336.081799999999990
 20
283.394599999999970
 40
2.000000000000000
 50
339.500000000000000
  1
20
  0
LINE
  8
PT4-Wymiarowanie20
  6
CONTINUOUS
 62
     7
 10
302.4822
 20
272.907600000000000
 11
303.1826
 21
274.781099999999980
  0
LINE
  8
PT4-Wymiarowanie20
  6
CONTINUOUS
 62
     7
 10
302.132
 20
271.971000000000000
 11
302.4822
 21
272.907600000000000
  0
LINE
  8
PT4-Wymiarowanie20
  6
CONTINUOUS
 62
     7
 10
303.5328
 20
275.717800000000010
 11
303.1826
 21
274.781099999999980
  0
LINE
  8
PT4-Wymiarowanie20
  6
CONTINUOUS
 62
     7
 10
302.189
 20
273.550999999999990
 11
302.7754
 21
272.264299999999990
  0
LINE
  8
PT4-Wymiarowanie20
  6
CONTINUOUS
 62
     7
 10
302.8894
 20
275.424499999999970
 11
303.4758
 21
274.137799999999970
  0
LINE
  8
PT4-Wymiarowanie20
  6
CONTINUOUS
 62
     7
 10
303.4188
 20
272.557500000000000
 11
301.5455
 21
273.257799999999970
  0
LINE
  8
PT4-Wymiarowanie20
  6
CONTINUOUS
 62
     7
 10
304.1193
 20
274.430999999999980
 11
302.2459
 21
275.131300000000010
  0
TEXT
  8
PT4-Wymiarowanie20
  6
CONTINUOUS
 62
     7
 10
301.438199999999990
 20
275.085199999999990
 40
2.000000000000000
 50
69.500000000000000
  1
20
  0
LINE
  8
PT4-Wymiarowanie20
  6
CONTINUOUS
 62
     7
 10
355.1323
 20
305.181699999999980
 11
355.8284
 21
307.073499999999970
  0
LINE
  8
PT4-Wymiarowanie20
  6
CONTINUOUS
 62
     7
 10
354.787
 20
304.243200000000000
 11
355.1323
 21
305.181699999999980
  0
LINE
  8
PT4-Wymiarowanie20
  6
CONTINUOUS
 62
     7
 10
356.1738
 20
308.012000000000000
 11
355.8284
 21
307.073499999999970
  0
LINE
  8
PT4-Wymiarowanie20
  6
CONTINUOUS
 62
     7
 10
354.8358
 20
305.823499999999970
 11
355.4289
 21
304.539899999999990
  0
LINE
  8
PT4-Wymiarowanie20
  6
CONTINUOUS
 62
     7
 10
355.5319
 20
307.715300000000010
 11
356.125
 21
306.431699999999980
  0
LINE
  8
PT4-Wymiarowanie20
  6
CONTINUOUS
 62
     7
 10
356.0708
 20
304.836400000000030
 11
354.1939
 21
305.526999999999990
  0
LINE
  8
PT4-Wymiarowanie20
  6
CONTINUOUS
 62
     7
 10
356.7669
 20
306.728200000000020
 11
354.89
 21
307.418800000000030
  0
TEXT
  8
PT4-Wymiarowanie20
  6
CONTINUOUS
 62
     7
 10
354.218900000000020
 20
307.467400000000000
 40
2.000000000000000
 50
69.799999999999997
  1
20
  0
LINE
  8
PT4-Wymiarowanie20
  6
CONTINUOUS
 62
     7
 10
329.7005
 20
239.953499999999990
 11
330.3974
 21
241.826899999999990
  0
LINE
  8
PT4-Wymiarowanie20
  6
CONTINUOUS
 62
     7
 10
329.3518
 20
239.016300000000000
 11
329.7005
 21
239.953499999999990
  0
LINE
  8
PT4-Wymiarowanie20
  6
CONTINUOUS
 62
     7
 10
330.7461
 20
242.764100000000010
 11
330.3974
 21
241.826899999999990
  0
LINE
  8
PT4-Wymiarowanie20
  6
CONTINUOUS
 62
     7
 10
329.4062
 20
240.596399999999990
 11
329.9947
 21
239.310599999999990
  0
LINE
  8
PT4-Wymiarowanie20
  6
CONTINUOUS
 62
     7
 10
330.1032
 20
242.469699999999990
 11
330.6917
 21
241.184000000000000
  0
LINE
  8
PT4-Wymiarowanie20
  6
CONTINUOUS
 62
     7
 10
330.6377
 20
239.604800000000010
 11
328.7632
 21
240.302200000000000
  0
LINE
  8
PT4-Wymiarowanie20
  6
CONTINUOUS
 62
     7
 10
331.3347
 20
241.478199999999990
 11
329.4602
 21
242.175600000000000
  0
TEXT
  8
PT4-Wymiarowanie20
  6
CONTINUOUS
 62
     7
 10
328.737199999999970
 20
241.762499999999990
 40
2.000000000000000
 50
69.599999999999994
  1
20
  0
LINE
  8
PT4-Wymiarowanie20
  6
CONTINUOUS
 62
     7
 10
-18624.3214
 20
19265.526000000002000
 11
-18623.6385
 21
19267.405800000000000
  0
LINE
  8
PT4-Wymiarowanie20
  6
CONTINUOUS
 62
     7
 10
-18624.6628
 20
19264.585999999999000
 11
-18624.3214
 21
19265.526000000002000
  0
LINE
  8
PT4-Wymiarowanie20
  6
CONTINUOUS
 62
     7
 10
-18623.2971
 20
19268.345700000002000
 11
-18623.6385
 21
19267.405800000000000
  0
LINE
  8
PT4-Wymiarowanie20
  6
CONTINUOUS
 62
     7
 10
-18624.6206
 20
19266.166499999999000
 11
-18624.0222
 21
19264.885399999999000
  0
LINE
  8
PT4-Wymiarowanie20
  6
CONTINUOUS
 62
     7
 10
-18623.9377
 20
19268.046399999999000
 11
-18623.3393
 21
19266.765200000002000
  0
LINE
  8
PT4-Wymiarowanie20
  6
CONTINUOUS
 62
     7
 10
-18623.3814
 20
19265.184499999999000
 11
-18625.2613
 21
19265.867399999999000
  0
LINE
  8
PT4-Wymiarowanie20
  6
CONTINUOUS
 62
     7
 10
-18622.6986
 20
19267.064399999999000
 11
-18624.5784
 21
19267.747200000002000
  0
TEXT
  8
PT4-Wymiarowanie20
  6
CONTINUOUS
 62
     7
 10
-18626.419099999999000
 20
19265.053700000000000
 40
2.000000000000000
 50
70.000000000000000
  1
20
  0
LINE
  8
PT4-Wymiarowanie20
  6
CONTINUOUS
 62
     7
 10
-18624.3214
 20
19265.526000000002000
 11
-18623.6385
 21
19267.405800000000000
  0
LINE
  8
PT4-Wymiarowanie20
  6
CONTINUOUS
 62
     7
 10
-18624.6628
 20
19264.585999999999000
 11
-18624.3214
 21
19265.526000000002000
  0
LINE
  8
PT4-Wymiarowanie20
  6
CONTINUOUS
 62
     7
 10
-18623.2971
 20
19268.345700000002000
 11
-18623.6385
 21
19267.405800000000000
  0
LINE
  8
PT4-Wymiarowanie20
  6
CONTINUOUS
 62
     7
 10
-18624.6206
 20
19266.166499999999000
 11
-18624.0222
 21
19264.885399999999000
  0
LINE
  8
PT4-Wymiarowanie20
  6
CONTINUOUS
 62
     7
 10
-18623.9377
 20
19268.046399999999000
 11
-18623.3393
 21
19266.765200000002000
  0
LINE
  8
PT4-Wymiarowanie20
  6
CONTINUOUS
 62
     7
 10
-18623.3814
 20
19265.184499999999000
 11
-18625.2613
 21
19265.867399999999000
  0
LINE
  8
PT4-Wymiarowanie20
  6
CONTINUOUS
 62
     7
 10
-18622.6986
 20
19267.064399999999000
 11
-18624.5784
 21
19267.747200000002000
  0
TEXT
  8
PT4-Wymiarowanie20
  6
CONTINUOUS
 62
     7
 10
-18626.419099999999000
 20
19265.053700000000000
 40
2.000000000000000
 50
70.000000000000000
  1
20
  0
LINE
  8
PT4-Wymiarowanie20
  6
CONTINUOUS
 62
     7
 10
-18624.3214
 20
19265.526000000002000
 11
-18623.6385
 21
19267.405800000000000
  0
LINE
  8
PT4-Wymiarowanie20
  6
CONTINUOUS
 62
     7
 10
-18624.6628
 20
19264.585999999999000
 11
-18624.3214
 21
19265.526000000002000
  0
LINE
  8
PT4-Wymiarowanie20
  6
CONTINUOUS
 62
     7
 10
-18623.2971
 20
19268.345700000002000
 11
-18623.6385
 21
19267.405800000000000
  0
LINE
  8
PT4-Wymiarowanie20
  6
CONTINUOUS
 62
     7
 10
-18624.6206
 20
19266.166499999999000
 11
-18624.0222
 21
19264.885399999999000
  0
LINE
  8
PT4-Wymiarowanie20
  6
CONTINUOUS
 62
     7
 10
-18623.9377
 20
19268.046399999999000
 11
-18623.3393
 21
19266.765200000002000
  0
LINE
  8
PT4-Wymiarowanie20
  6
CONTINUOUS
 62
     7
 10
-18623.3814
 20
19265.184499999999000
 11
-18625.2613
 21
19265.867399999999000
  0
LINE
  8
PT4-Wymiarowanie20
  6
CONTINUOUS
 62
     7
 10
-18622.6986
 20
19267.064399999999000
 11
-18624.5784
 21
19267.747200000002000
  0
TEXT
  8
PT4-Wymiarowanie20
  6
CONTINUOUS
 62
     7
 10
-18626.419099999999000
 20
19265.053700000000000
 40
2.000000000000000
 50
70.000000000000000
  1
20
  0
LINE
  8
PT4-Wymiarowanie20
  6
CONTINUOUS
 62
     7
 10
-18624.3214
 20
19265.526000000002000
 11
-18623.6385
 21
19267.405800000000000
  0
LINE
  8
PT4-Wymiarowanie20
  6
CONTINUOUS
 62
     7
 10
-18624.6628
 20
19264.585999999999000
 11
-18624.3214
 21
19265.526000000002000
  0
LINE
  8
PT4-Wymiarowanie20
  6
CONTINUOUS
 62
     7
 10
-18623.2971
 20
19268.345700000002000
 11
-18623.6385
 21
19267.405800000000000
  0
LINE
  8
PT4-Wymiarowanie20
  6
CONTINUOUS
 62
     7
 10
-18624.6206
 20
19266.166499999999000
 11
-18624.0222
 21
19264.885399999999000
  0
LINE
  8
PT4-Wymiarowanie20
  6
CONTINUOUS
 62
     7
 10
-18623.9377
 20
19268.046399999999000
 11
-18623.3393
 21
19266.765200000002000
  0
LINE
  8
PT4-Wymiarowanie20
  6
CONTINUOUS
 62
     7
 10
-18623.3814
 20
19265.184499999999000
 11
-18625.2613
 21
19265.867399999999000
  0
LINE
  8
PT4-Wymiarowanie20
  6
CONTINUOUS
 62
     7
 10
-18622.6986
 20
19267.064399999999000
 11
-18624.5784
 21
19267.747200000002000
  0
TEXT
  8
PT4-Wymiarowanie20
  6
CONTINUOUS
 62
     7
 10
-18626.419099999999000
 20
19265.053700000000000
 40
2.000000000000000
 50
70.000000000000000
  1
20
  0
LINE
  8
PT4-Wymiarowanie20
  6
CONTINUOUS
 62
     7
 10
-18624.3214
 20
19265.526000000002000
 11
-18623.6385
 21
19267.405800000000000
  0
LINE
  8
PT4-Wymiarowanie20
  6
CONTINUOUS
 62
     7
 10
-18624.6628
 20
19264.585999999999000
 11
-18624.3214
 21
19265.526000000002000
  0
LINE
  8
PT4-Wymiarowanie20
  6
CONTINUOUS
 62
     7
 10
-18623.2971
 20
19268.345700000002000
 11
-18623.6385
 21
19267.405800000000000
  0
LINE
  8
PT4-Wymiarowanie20
  6
CONTINUOUS
 62
     7
 10
-18624.6206
 20
19266.166499999999000
 11
-18624.0222
 21
19264.885399999999000
  0
LINE
  8
PT4-Wymiarowanie20
  6
CONTINUOUS
 62
     7
 10
-18623.9377
 20
19268.046399999999000
 11
-18623.3393
 21
19266.765200000002000
  0
LINE
  8
PT4-Wymiarowanie20
  6
CONTINUOUS
 62
     7
 10
-18623.3814
 20
19265.184499999999000
 11
-18625.2613
 21
19265.867399999999000
  0
LINE
  8
PT4-Wymiarowanie20
  6
CONTINUOUS
 62
     7
 10
-18622.6986
 20
19267.064399999999000
 11
-18624.5784
 21
19267.747200000002000
  0
TEXT
  8
PT4-Wymiarowanie20
  6
CONTINUOUS
 62
     7
 10
-18626.419099999999000
 20
19265.053700000000000
 40
2.000000000000000
 50
70.000000000000000
  1
20
  0
TEXT
  8
PT4-Wymiarowanie20
  6
CONTINUOUS
 62
     7
 10
294.342300000000020
 20
221.716199999999990
 40
2.000000000000000
 50
339.399999999999980
  1
3,83
  0
LINE
  8
PT4-Wymiarowanie20
  6
CONTINUOUS
 62
     7
 10
278.208
 20
225.135200000000000
 11
314.0327
 21
211.640800000000010
  0
LINE
  8
PT4-Wymiarowanie20
  6
CONTINUOUS
 62
     7
 10
277.2722
 20
225.487699999999990
 11
278.208
 21
225.135200000000000
  0
LINE
  8
PT4-Wymiarowanie20
  6
CONTINUOUS
 62
     7
 10
314.9685
 20
211.288299999999990
 11
314.0327
 21
211.640800000000010
  0
LINE
  8
PT4-Wymiarowanie20
  6
CONTINUOUS
 62
     7
 10
278.8521
 20
225.426799999999990
 11
277.5639
 21
224.843600000000010
  0
LINE
  8
PT4-Wymiarowanie20
  6
CONTINUOUS
 62
     7
 10
314.6768
 20
211.932400000000000
 11
313.3886
 21
211.349200000000000
  0
LINE
  8
PT4-Wymiarowanie20
  6
CONTINUOUS
 62
     7
 10
277.8555
 20
224.199400000000000
 11
278.5605
 21
226.071000000000000
  0
LINE
  8
PT4-Wymiarowanie20
  6
CONTINUOUS
 62
     7
 10
313.6802
 20
210.705000000000010
 11
314.3852
 21
212.576600000000010
  0
TEXT
  8
PT4-Wymiarowanie20
  6
CONTINUOUS
 62
     7
 10
329.108700000000000
 20
208.620399999999990
 40
2.000000000000000
 50
339.399999999999980
  1
3,60
  0
LINE
  8
PT4-Wymiarowanie20
  6
CONTINUOUS
 62
     7
 10
314.0327
 20
211.640800000000010
 11
347.7408
 21
198.943600000000000
  0
LINE
  8
PT4-Wymiarowanie20
  6
CONTINUOUS
 62
     7
 10
313.0969
 20
211.993300000000000
 11
314.0327
 21
211.640800000000010
  0
LINE
  8
PT4-Wymiarowanie20
  6
CONTINUOUS
 62
     7
 10
348.6766
 20
198.591100000000010
 11
347.7408
 21
198.943600000000000
  0
LINE
  8
PT4-Wymiarowanie20
  6
CONTINUOUS
 62
     7
 10
314.6768
 20
211.932400000000000
 11
313.3886
 21
211.349200000000000
  0
LINE
  8
PT4-Wymiarowanie20
  6
CONTINUOUS
 62
     7
 10
348.3849
 20
199.235199999999990
 11
347.0968
 21
198.651999999999990
  0
LINE
  8
PT4-Wymiarowanie20
  6
CONTINUOUS
 62
     7
 10
313.6802
 20
210.705000000000010
 11
314.3852
 21
212.576600000000010
  0
LINE
  8
PT4-Wymiarowanie20
  6
CONTINUOUS
 62
     7
 10
347.3883
 20
198.007800000000000
 11
348.0933
 21
199.879400000000000
  0
TEXT
  8
PT4-Wymiarowanie20
  6
CONTINUOUS
 62
     7
 10
330.835800000000010
 20
326.512600000000020
 40
2.000000000000000
 50
339.500000000000000
  1
3,32
  0
TEXT
  8
PT4-Wymiarowanie20
  6
CONTINUOUS
 62
     7
 10
337.007799999999970
 20
324.985300000000000
 40
1.500000000000000
 50
339.500000000000000
  1
5
  0
LINE
  8
PT4-Wymiarowanie20
  6
CONTINUOUS
 62
     7
 10
317.0426
 20
329.011300000000010
 11
348.2047
 21
317.367999999999990
  0
LINE
  8
PT4-Wymiarowanie20
  6
CONTINUOUS
 62
     7
 10
316.1058
 20
329.361300000000030
 11
317.0426
 21
329.011300000000010
  0
LINE
  8
PT4-Wymiarowanie20
  6
CONTINUOUS
 62
     7
 10
349.1414
 20
317.018000000000030
 11
348.2047
 21
317.367999999999990
  0
LINE
  8
PT4-Wymiarowanie20
  6
CONTINUOUS
 62
     7
 10
317.6858
 20
329.304599999999990
 11
316.3993
 21
328.717899999999990
  0
LINE
  8
PT4-Wymiarowanie20
  6
CONTINUOUS
 62
     7
 10
348.848
 20
317.661400000000010
 11
347.5614
 21
317.074700000000010
  0
LINE
  8
PT4-Wymiarowanie20
  6
CONTINUOUS
 62
     7
 10
317.3926
 20
329.947999999999980
 11
316.6926
 21
328.074500000000000
  0
LINE
  8
PT4-Wymiarowanie20
  6
CONTINUOUS
 62
     7
 10
348.5547
 20
318.304800000000000
 11
347.8547
 21
316.431299999999960
  0
TEXT
  8
PT4-Wymiarowanie20
  6
CONTINUOUS
 62
     7
 10
365.637000000000000
 20
313.509700000000010
 40
2.000000000000000
 50
339.500000000000000
  1
4,10
  0
TEXT
  8
PT4-Wymiarowanie20
  6
CONTINUOUS
 62
     7
 10
371.809000000000030
 20
311.982399999999980
 40
1.500000000000000
 50
339.500000000000000
  1
5
  0
LINE
  8
PT4-Wymiarowanie20
  6
CONTINUOUS
 62
     7
 10
348.2047
 20
317.367999999999990
 11
386.6451
 21
303.005400000000010
  0
LINE
  8
PT4-Wymiarowanie20
  6
CONTINUOUS
 62
     7
 10
347.2679
 20
317.718000000000020
 11
348.2047
 21
317.367999999999990
  0
LINE
  8
PT4-Wymiarowanie20
  6
CONTINUOUS
 62
     7
 10
387.5818
 20
302.655399999999990
 11
386.6451
 21
303.005400000000010
  0
LINE
  8
PT4-Wymiarowanie20
  6
CONTINUOUS
 62
     7
 10
348.848
 20
317.661400000000010
 11
347.5614
 21
317.074700000000010
  0
LINE
  8
PT4-Wymiarowanie20
  6
CONTINUOUS
 62
     7
 10
387.2883
 20
303.298700000000000
 11
386.0018
 21
302.712100000000020
  0
LINE
  8
PT4-Wymiarowanie20
  6
CONTINUOUS
 62
     7
 10
348.5547
 20
318.304800000000000
 11
347.8547
 21
316.431299999999960
  0
LINE
  8
PT4-Wymiarowanie20
  6
CONTINUOUS
 62
     7
 10
386.9951
 20
303.942099999999980
 11
386.2951
 21
302.068700000000040
  0
LINE
  8
PT4-Dach21
  6
CONTINUOUS
 62
     7
 10
341.7626
 20
242.891699999999990
 11
348.327
 21
240.460700000000000
  0
LINE
  8
PT4-Dach21
  6
CONTINUOUS
 62
     7
 10
348.327
 20
240.460700000000000
 11
350.757
 21
246.963400000000010
  0
LINE
  8
PT4-Dach21
  6
CONTINUOUS
 62
     7
 10
350.757
 20
246.963400000000010
 11
344.2201
 21
249.467800000000010
  0
LINE
  8
PT4-Dach21
  6
CONTINUOUS
 62
     7
 10
344.2201
 20
249.467800000000010
 11
341.7626
 21
242.891699999999990
  0
LINE
  8
PT4-Dach21
  6
CONTINUOUS
 62
     7
 10
341.7626
 20
242.891699999999990
 11
350.757
 21
246.963400000000010
  0
LINE
  8
PT4-Dach21
  6
CONTINUOUS
 62
     7
 10
344.2201
 20
249.467800000000010
 11
348.327
 21
240.460700000000000
  0
LINE
  8
PT4-Wymiarowanie20
  6
CONTINUOUS
 62
     7
 10
338.6095
 20
243.024100000000000
 11
338.9524
 21
243.941900000000000
  0
LINE
  8
PT4-Wymiarowanie20
  6
CONTINUOUS
 62
     7
 10
338.2594
 20
242.087400000000000
 11
338.6095
 21
243.024100000000000
  0
LINE
  8
PT4-Wymiarowanie20
  6
CONTINUOUS
 62
     7
 10
339.3025
 20
244.878600000000010
 11
338.9524
 21
243.941900000000000
  0
LINE
  8
PT4-Wymiarowanie20
  6
CONTINUOUS
 62
     7
 10
338.3162
 20
243.667399999999990
 11
338.9028
 21
242.380799999999990
  0
LINE
  8
PT4-Wymiarowanie20
  6
CONTINUOUS
 62
     7
 10
338.6591
 20
244.585199999999990
 11
339.2457
 21
243.298599999999990
  0
LINE
  8
PT4-Wymiarowanie20
  6
CONTINUOUS
 62
     7
 10
337.6727
 20
243.374200000000000
 11
339.5462
 21
242.674100000000010
  0
LINE
  8
PT4-Wymiarowanie20
  6
CONTINUOUS
 62
     7
 10
338.0157
 20
244.292000000000000
 11
339.8892
 21
243.591800000000010
  0
TEXT
  8
PT4-Wymiarowanie20
  6
CONTINUOUS
 62
     7
 10
335.694999999999990
 20
242.203200000000010
 40
2.000000000000000
 50
69.500000000000000
  1
10
  0
LINE
  8
PT4-Wymiarowanie20
  6
CONTINUOUS
 62
     7
 10
338.9524
 20
243.941900000000000
 11
341.4099
 21
250.518000000000000
  0
LINE
  8
PT4-Wymiarowanie20
  6
CONTINUOUS
 62
     7
 10
338.6024
 20
243.005200000000000
 11
338.9524
 21
243.941900000000000
  0
LINE
  8
PT4-Wymiarowanie20
  6
CONTINUOUS
 62
     7
 10
341.76
 20
251.454700000000000
 11
341.4099
 21
250.518000000000000
  0
LINE
  8
PT4-Wymiarowanie20
  6
CONTINUOUS
 62
     7
 10
338.6591
 20
244.585199999999990
 11
339.2457
 21
243.298599999999990
  0
LINE
  8
PT4-Wymiarowanie20
  6
CONTINUOUS
 62
     7
 10
341.1166
 20
251.161300000000010
 11
341.7032
 21
249.874699999999990
  0
LINE
  8
PT4-Wymiarowanie20
  6
CONTINUOUS
 62
     7
 10
338.0157
 20
244.292000000000000
 11
339.8892
 21
243.591800000000010
  0
LINE
  8
PT4-Wymiarowanie20
  6
CONTINUOUS
 62
     7
 10
340.4732
 20
250.867999999999990
 11
342.3466
 21
250.167900000000000
  0
TEXT
  8
PT4-Wymiarowanie20
  6
CONTINUOUS
 62
     7
 10
337.761399999999980
 20
247.240299999999990
 40
2.000000000000000
 50
69.500000000000000
  1
70
  0
TEXT
  8
PT4-Wymiarowanie20
  6
CONTINUOUS
 62
     7
 10
354.705600000000000
 20
252.436299999999990
 40
2.000000000000000
 50
340.000000000000000
  1
70
  0
LINE
  8
PT4-Wymiarowanie20
  6
CONTINUOUS
 62
     7
 10
358.7035
 20
248.326400000000010
 11
352.1259
 21
250.721900000000010
  0
LINE
  8
PT4-Wymiarowanie20
  6
CONTINUOUS
 62
     7
 10
359.6431
 20
247.984199999999990
 11
358.7035
 21
248.326400000000010
  0
LINE
  8
PT4-Wymiarowanie20
  6
CONTINUOUS
 62
     7
 10
351.1862
 20
251.064100000000000
 11
352.1259
 21
250.721900000000010
  0
LINE
  8
PT4-Wymiarowanie20
  6
CONTINUOUS
 62
     7
 10
358.0626
 20
248.027700000000010
 11
359.3443
 21
248.625000000000000
  0
LINE
  8
PT4-Wymiarowanie20
  6
CONTINUOUS
 62
     7
 10
351.485
 20
250.423300000000010
 11
352.7667
 21
251.020600000000000
  0
LINE
  8
PT4-Wymiarowanie20
  6
CONTINUOUS
 62
     7
 10
359.0457
 20
249.265999999999990
 11
358.3612
 21
247.386699999999990
  0
LINE
  8
PT4-Wymiarowanie20
  6
CONTINUOUS
 62
     7
 10
352.4681
 20
251.661499999999990
 11
351.7836
 21
249.782299999999990
  0
TEXT
  8
PT4-Wymiarowanie20
  6
CONTINUOUS
 62
     7
 10
348.128499999999970
 20
254.831700000000010
 40
2.000000000000000
 50
340.000000000000000
  1
70
  0
LINE
  8
PT4-Wymiarowanie20
  6
CONTINUOUS
 62
     7
 10
352.1259
 20
250.721900000000010
 11
345.5492
 21
253.117099999999990
  0
LINE
  8
PT4-Wymiarowanie20
  6
CONTINUOUS
 62
     7
 10
353.0655
 20
250.379700000000010
 11
352.1259
 21
250.721900000000010
  0
LINE
  8
PT4-Wymiarowanie20
  6
CONTINUOUS
 62
     7
 10
344.6096
 20
253.459300000000010
 11
345.5492
 21
253.117099999999990
  0
LINE
  8
PT4-Wymiarowanie20
  6
CONTINUOUS
 62
     7
 10
351.485
 20
250.423300000000010
 11
352.7667
 21
251.020600000000000
  0
LINE
  8
PT4-Wymiarowanie20
  6
CONTINUOUS
 62
     7
 10
344.9084
 20
252.818500000000000
 11
346.19
 21
253.415799999999990
  0
LINE
  8
PT4-Wymiarowanie20
  6
CONTINUOUS
 62
     7
 10
352.4681
 20
251.661499999999990
 11
351.7836
 21
249.782299999999990
  0
LINE
  8
PT4-Wymiarowanie20
  6
CONTINUOUS
 62
     7
 10
345.8914
 20
254.056800000000010
 11
345.207
 21
252.177500000000010
  0
LINE
  8
PT4-Opis19
  6
CONTINUOUS
 62
     7
 10
333.9639
 20
221.543800000000000
 11
357.6221
 21
221.543800000000000
  0
LINE
  8
PT4-Opis19
  6
CONTINUOUS
 62
     7
 10
357.6221
 20
221.543800000000000
 11
357.6221
 21
229.515199999999990
  0
LINE
  8
PT4-Opis19
  6
CONTINUOUS
 62
     7
 10
357.6221
 20
229.515199999999990
 11
333.9639
 21
229.515199999999990
  0
LINE
  8
PT4-Opis19
  6
CONTINUOUS
 62
     7
 10
333.9639
 20
229.515199999999990
 11
333.9639
 21
221.543800000000000
  0
LINE
  8
PT4-Opis19
  6
CONTINUOUS
 62
     7
 10
345.4149
 20
242.935800000000000
 11
345.4149
 21
229.471399999999990
  0
TEXT
  8
PT3-Wymiarowanie15
  6
CONTINUOUS
 62
     7
 10
166.489299999999990
 20
119.492200000000030
 40
2.000000000000000
 50
339.500000000000000
  1
12,02
  0
LINE
  8
PT3-Wymiarowanie15
  6
CONTINUOUS
 62
     7
 10
112.6964
 20
136.930900000000010
 11
225.3201
 21
94.861800000000017
  0
LINE
  8
PT3-Wymiarowanie15
  6
CONTINUOUS
 62
     7
 10
111.7596
 20
137.280800000000000
 11
112.6964
 21
136.930900000000010
  0
LINE
  8
PT3-Wymiarowanie15
  6
CONTINUOUS
 62
     7
 10
226.2569
 20
94.511900000000026
 11
225.3201
 21
94.861800000000017
  0
LINE
  8
PT3-Wymiarowanie15
  6
CONTINUOUS
 62
     7
 10
113.3397
 20
137.224300000000030
 11
112.0532
 21
136.637499999999990
  0
LINE
  8
PT3-Wymiarowanie15
  6
CONTINUOUS
 62
     7
 10
225.9633
 20
95.155199999999979
 11
224.6768
 21
94.568399999999997
  0
LINE
  8
PT3-Wymiarowanie15
  6
CONTINUOUS
 62
     7
 10
113.0463
 20
137.867700000000010
 11
112.3465
 21
135.994100000000000
  0
LINE
  8
PT3-Wymiarowanie15
  6
CONTINUOUS
 62
     7
 10
225.67
 20
95.798600000000022
 11
224.9702
 21
93.925000000000011
  0
LINE
  8
PT3-Wymiarowanie15
  6
CONTINUOUS
 62
     7
 10
259.085
 20
185.345000000000000
 11
199.709
 21
207.530100000000000
  0
LINE
  8
PT3-Wymiarowanie15
  6
CONTINUOUS
 62
     7
 10
199.709
 20
207.530100000000000
 11
209.3854
 21
200.592700000000010
  0
LINE
  8
PT3-Wymiarowanie15
  6
CONTINUOUS
 62
     7
 10
209.3854
 20
200.592700000000010
 11
211.5456
 21
206.437800000000010
  0
LINE
  8
PT3-Wymiarowanie15
  6
CONTINUOUS
 62
     7
 10
211.5456
 20
206.437800000000010
 11
199.709
 21
207.530100000000000
  0
CIRCLE
  8
PT3-Wymiarowanie15
  6
CONTINUOUS
 62
     7
 10
259.084999999999980
 20
185.345000000000000
 40
2.173800000000000
  0
TEXT
  8
PT4-Opis19
  6
CONTINUOUS
 62
     7
 10
207.667200000000010
 20
208.385600000000010
 40
3.500000000000000
  1
5
  0
TEXT
  8
PT4-Opis19
  6
CONTINUOUS
 62
     7
 10
211.437000000000010
 20
210.605599999999980
 40
1.800000000000000
  1
o
  0
LINE
  8
PT4-Opis19
  6
CONTINUOUS
 62
     7
 10
262.9141
 20
183.914300000000000
 11
290.0205
 21
173.786300000000010
  0
LINE
  8
PT4-Opis19
  6
CONTINUOUS
 62
     7
 10
290.0205
 20
173.786300000000010
 11
282.8686
 21
179.393300000000010
  0
LINE
  8
PT4-Opis19
  6
CONTINUOUS
 62
     7
 10
282.8686
 20
179.393300000000010
 11
281.2134
 21
174.427600000000010
  0
LINE
  8
PT4-Opis19
  6
CONTINUOUS
 62
     7
 10
281.2134
 20
174.427600000000010
 11
290.0205
 21
173.786300000000010
  0
CIRCLE
  8
PT4-Opis19
  6
CONTINUOUS
 62
     7
 10
262.914100000000020
 20
183.914300000000000
 40
2.143800000000000
  0
TEXT
  8
PT4-Opis19
  6
CONTINUOUS
 62
     7
 10
281.664800000000010
 20
182.144700000000000
 40
3.500000000000000
  1
6
  0
TEXT
  8
PT4-Opis19
  6
CONTINUOUS
 62
     7
 10
285.434700000000020
 20
184.364700000000000
 40
1.800000000000000
  1
o
  0
LINE
  8
PT5-Dachy23
  6
CONTINUOUS
 62
     7
 10
195.5589
 20
355.915300000000000
 11
196.082
 21
357.325600000000010
  0
LINE
  8
PT5-Dachy23
  6
CONTINUOUS
 62
     7
 10
343.6576
 20
302.177500000000010
 11
196.082
 21
357.325600000000010
  0
CIRCLE
  8
PT5-Dachy23
  6
CONTINUOUS
 62
     7
 10
200.525900000000010
 20
354.867399999999980
 40
0.809900000000000
  0
CIRCLE
  8
PT5-Dachy23
  6
CONTINUOUS
 62
     7
 10
338.676499999999980
 20
303.194000000000020
 40
0.828800000000000
  0
TEXT
  8
PT5-Wymiarowanie24
  6
CONTINUOUS
 62
     7
 10
168.633900000000010
 20
341.968000000000020
 40
2.000000000000000
 50
69.700000000000003
  1
4,03
  0
TEXT
  8
PT5-Wymiarowanie24
  6
CONTINUOUS
 62
     7
 10
170.076799999999990
 20
348.019099999999980
 40
1.500000000000000
 50
69.700000000000003
  1
5
  0
LINE
  8
PT5-Wymiarowanie24
  6
CONTINUOUS
 62
     7
 10
164.6567
 20
324.360000000000010
 11
178.6824
 21
362.174899999999980
  0
LINE
  8
PT5-Wymiarowanie24
  6
CONTINUOUS
 62
     7
 10
164.309
 20
323.422399999999980
 11
164.6567
 21
324.360000000000010
  0
LINE
  8
PT5-Wymiarowanie24
  6
CONTINUOUS
 62
     7
 10
179.0301
 20
363.112399999999980
 11
178.6824
 21
362.174899999999980
  0
LINE
  8
PT5-Wymiarowanie24
  6
CONTINUOUS
 62
     7
 10
164.3619
 20
325.002600000000030
 11
164.9516
 21
323.717400000000000
  0
LINE
  8
PT5-Wymiarowanie24
  6
CONTINUOUS
 62
     7
 10
178.3875
 20
362.817400000000020
 11
178.9772
 21
361.532300000000020
  0
LINE
  8
PT5-Wymiarowanie24
  6
CONTINUOUS
 62
     7
 10
163.7191
 20
324.707800000000020
 11
165.5943
 21
324.012299999999980
  0
LINE
  8
PT5-Wymiarowanie24
  6
CONTINUOUS
 62
     7
 10
177.7448
 20
362.522600000000010
 11
179.6199
 21
361.827099999999970
  0
LINE
  8
PT5-Wymiarowanie24
  6
CONTINUOUS
 62
     7
 10
202.9521
 20
349.967899999999990
 11
203.9954
 21
352.780700000000020
  0
LINE
  8
PT5-Wymiarowanie24
  6
CONTINUOUS
 62
     7
 10
202.6044
 20
349.030300000000010
 11
202.9521
 21
349.967899999999990
  0
LINE
  8
PT5-Wymiarowanie24
  6
CONTINUOUS
 62
     7
 10
204.3431
 20
353.718300000000000
 11
203.9954
 21
352.780700000000020
  0
LINE
  8
PT5-Wymiarowanie24
  6
CONTINUOUS
 62
     7
 10
202.6573
 20
350.610500000000000
 11
203.247
 21
349.325400000000000
  0
LINE
  8
PT5-Wymiarowanie24
  6
CONTINUOUS
 62
     7
 10
203.7005
 20
353.423299999999980
 11
204.2903
 21
352.138100000000010
  0
LINE
  8
PT5-Wymiarowanie24
  6
CONTINUOUS
 62
     7
 10
203.8897
 20
349.620200000000010
 11
202.0145
 21
350.315699999999990
  0
LINE
  8
PT5-Wymiarowanie24
  6
CONTINUOUS
 62
     7
 10
204.933
 20
352.432900000000020
 11
203.0578
 21
353.128400000000000
  0
TEXT
  8
PT5-Wymiarowanie24
  6
CONTINUOUS
 62
     7
 10
202.152199999999990
 20
351.145400000000000
 40
2.000000000000000
 50
69.700000000000003
  1
30
  0
LINE
  8
PT5-Wymiarowanie24
  6
CONTINUOUS
 62
     7
 10
199.0461
 20
365.287600000000000
 11
203.7322
 21
363.543999999999980
  0
LINE
  8
PT5-Wymiarowanie24
  6
CONTINUOUS
 62
     7
 10
198.1089
 20
365.636300000000010
 11
199.0461
 21
365.287600000000000
  0
LINE
  8
PT5-Wymiarowanie24
  6
CONTINUOUS
 62
     7
 10
204.6695
 20
363.195299999999970
 11
203.7322
 21
363.543999999999980
  0
LINE
  8
PT5-Wymiarowanie24
  6
CONTINUOUS
 62
     7
 10
199.689
 20
365.581799999999990
 11
198.4032
 21
364.993400000000010
  0
LINE
  8
PT5-Wymiarowanie24
  6
CONTINUOUS
 62
     7
 10
204.3751
 20
363.838200000000030
 11
203.0894
 21
363.249799999999990
  0
LINE
  8
PT5-Wymiarowanie24
  6
CONTINUOUS
 62
     7
 10
199.3948
 20
366.224800000000020
 11
198.6974
 21
364.350300000000000
  0
LINE
  8
PT5-Wymiarowanie24
  6
CONTINUOUS
 62
     7
 10
204.0809
 20
364.481200000000000
 11
203.3835
 21
362.606800000000020
  0
TEXT
  8
PT5-Wymiarowanie24
  6
CONTINUOUS
 62
     7
 10
200.646300000000000
 20
366.941599999999990
 40
2.000000000000000
 50
339.600000000000020
  1
50
  0
TEXT
  8
PT5-Wymiarowanie24
  6
CONTINUOUS
 62
     7
 10
270.342499999999970
 20
341.424500000000020
 40
2.000000000000000
 50
339.600000000000020
  1
14,75
  0
LINE
  8
PT5-Wymiarowanie24
  6
CONTINUOUS
 62
     7
 10
203.7322
 20
363.543999999999980
 11
341.9898
 21
312.101999999999980
  0
LINE
  8
PT5-Wymiarowanie24
  6
CONTINUOUS
 62
     7
 10
202.795
 20
363.892699999999990
 11
203.7322
 21
363.543999999999980
  0
LINE
  8
PT5-Wymiarowanie24
  6
CONTINUOUS
 62
     7
 10
342.927
 20
311.753299999999970
 11
341.9898
 21
312.101999999999980
  0
LINE
  8
PT5-Wymiarowanie24
  6
CONTINUOUS
 62
     7
 10
204.3751
 20
363.838200000000030
 11
203.0894
 21
363.249799999999990
  0
LINE
  8
PT5-Wymiarowanie24
  6
CONTINUOUS
 62
     7
 10
342.6327
 20
312.396200000000020
 11
341.3469
 21
311.807799999999990
  0
LINE
  8
PT5-Wymiarowanie24
  6
CONTINUOUS
 62
     7
 10
204.0809
 20
364.481200000000000
 11
203.3835
 21
362.606800000000020
  0
LINE
  8
PT5-Wymiarowanie24
  6
CONTINUOUS
 62
     7
 10
342.3385
 20
313.039199999999990
 11
341.6411
 21
311.164699999999980
  0
LINE
  8
PT5-Wymiarowanie24
  6
CONTINUOUS
 62
     7
 10
341.9898
 20
312.101999999999980
 11
346.6759
 21
310.358400000000020
  0
LINE
  8
PT5-Wymiarowanie24
  6
CONTINUOUS
 62
     7
 10
341.0526
 20
312.450699999999980
 11
341.9898
 21
312.101999999999980
  0
LINE
  8
PT5-Wymiarowanie24
  6
CONTINUOUS
 62
     7
 10
347.6132
 20
310.009700000000010
 11
346.6759
 21
310.358400000000020
  0
LINE
  8
PT5-Wymiarowanie24
  6
CONTINUOUS
 62
     7
 10
342.6327
 20
312.396200000000020
 11
341.3469
 21
311.807799999999990
  0
LINE
  8
PT5-Wymiarowanie24
  6
CONTINUOUS
 62
     7
 10
347.3188
 20
310.652600000000010
 11
346.0331
 21
310.064200000000030
  0
LINE
  8
PT5-Wymiarowanie24
  6
CONTINUOUS
 62
     7
 10
342.3385
 20
313.039199999999990
 11
341.6411
 21
311.164699999999980
  0
LINE
  8
PT5-Wymiarowanie24
  6
CONTINUOUS
 62
     7
 10
347.0247
 20
311.295599999999980
 11
346.3272
 21
309.421200000000000
  0
TEXT
  8
PT5-Wymiarowanie24
  6
CONTINUOUS
 62
     7
 10
343.202200000000000
 20
313.445899999999990
 40
2.000000000000000
 50
339.600000000000020
  1
50
  0
TEXT
  8
PT5-Wymiarowanie24
  6
CONTINUOUS
 62
     7
 10
275.567900000000010
 20
355.350599999999990
 40
2.000000000000000
 50
339.500000000000000
  1
15,75
  0
LINE
  8
PT5-Wymiarowanie24
  6
CONTINUOUS
 62
     7
 10
204.3129
 20
379.332499999999980
 11
351.8582
 21
324.176100000000020
  0
LINE
  8
PT5-Wymiarowanie24
  6
CONTINUOUS
 62
     7
 10
203.3762
 20
379.682700000000010
 11
204.3129
 21
379.332499999999980
  0
LINE
  8
PT5-Wymiarowanie24
  6
CONTINUOUS
 62
     7
 10
352.7949
 20
323.826000000000020
 11
351.8582
 21
324.176100000000020
  0
LINE
  8
PT5-Wymiarowanie24
  6
CONTINUOUS
 62
     7
 10
204.9562
 20
379.625800000000030
 11
203.6696
 21
379.039300000000030
  0
LINE
  8
PT5-Wymiarowanie24
  6
CONTINUOUS
 62
     7
 10
352.5015
 20
324.469299999999980
 11
351.2149
 21
323.882900000000010
  0
LINE
  8
PT5-Wymiarowanie24
  6
CONTINUOUS
 62
     7
 10
204.6631
 20
380.269200000000010
 11
203.9628
 21
378.395899999999980
  0
LINE
  8
PT5-Wymiarowanie24
  6
CONTINUOUS
 62
     7
 10
352.2084
 20
325.112799999999990
 11
351.5081
 21
323.239399999999990
  0
LINE
  8
PT5-Wymiarowanie24
  6
CONTINUOUS
 62
     7
 10
239.6297
 20
296.154699999999990
 11
248.9474
 21
321.092899999999990
  0
LINE
  8
PT5-Wymiarowanie24
  6
CONTINUOUS
 62
     7
 10
248.9474
 20
321.092899999999990
 11
245.6868
 21
316.044700000000030
  0
LINE
  8
PT5-Wymiarowanie24
  6
CONTINUOUS
 62
     7
 10
245.6868
 20
316.044700000000030
 11
248.2195
 21
314.973200000000020
  0
LINE
  8
PT5-Wymiarowanie24
  6
CONTINUOUS
 62
     7
 10
248.2195
 20
314.973200000000020
 11
248.9474
 21
321.092899999999990
  0
CIRCLE
  8
PT5-Wymiarowanie24
  6
CONTINUOUS
 62
     7
 10
239.699299999999990
 20
296.341000000000010
 40
1.218600000000000
  0
TEXT
  8
PT5-Wymiarowanie24
  6
CONTINUOUS
 62
     7
 10
249.972900000000010
 20
319.038299999999990
 40
3.500000000000000
  1
3,5
  0
TEXT
  8
PT5-Wymiarowanie24
  6
CONTINUOUS
 62
     7
 10
255.691000000000000
 20
320.966099999999980
 40
1.800000000000000
  1
o
  0
LINE
  8
PT2-Wymiarowanie8
  6
GESTRICHELT
 62
     7
 10
250.8907
 20
35.675000000000011
 11
250.8907
 21
65.931500000000028
  0
LINE
  8
PT2-Wymiarowanie8
  6
CONTINUOUS
 62
     7
 10
207.0153
 20
82.741800000000012
 11
205.4751
 21
78.620699999999999
  0
LINE
  8
PT2-Wymiarowanie8
  6
GESTRICHELT
 62
     7
 10
141.6907
 20
106.711999999999990
 11
141.6907
 21
35.675000000000011
  0
LINE
  8
PT2-Wymiarowanie8
  6
GESTRICHELT
 62
     7
 10
145.6907
 20
35.675000000000011
 11
145.6907
 21
100.945699999999990
  0
LINE
  8
PT2-Wymiarowanie8
  6
GESTRICHELT
 62
     7
 10
246.8907
 20
63.157500000000027
 11
246.8907
 21
35.675000000000011
  0
LINE
  8
PT2-Wymiarowanie8
  6
CONTINUOUS
 62
     7
 10
209.2907
 20
45.156499999999994
 11
218.2907
 21
45.156499999999994
  0
LINE
  8
PT2-Wymiarowanie8
  6
CONTINUOUS
 62
     7
 10
218.2907
 20
45.153999999999996
 11
218.2907
 21
49.255499999999984
  0
LINE
  8
PT2-Wymiarowanie8
  6
CONTINUOUS
 62
     7
 10
218.2932
 20
49.255499999999984
 11
209.2907
 21
49.256700000000023
  0
LINE
  8
PT2-Wymiarowanie8
  6
CONTINUOUS
 62
     7
 10
209.2907
 20
49.259200000000021
 11
209.2907
 21
45.156499999999994
  0
LINE
  8
PT2-Wymiarowanie8
  6
CONTINUOUS
 62
     7
 10
210.4907
 20
46.353999999999985
 11
210.4907
 21
47.756500000000017
  0
LINE
  8
PT2-Wymiarowanie8
  6
CONTINUOUS
 62
     7
 10
210.4882
 20
47.756500000000017
 11
211.8907
 21
47.756500000000017
  0
LINE
  8
PT2-Wymiarowanie8
  6
CONTINUOUS
 62
     7
 10
211.8907
 20
47.759000000000015
 11
211.8907
 21
46.356499999999983
  0
LINE
  8
PT2-Wymiarowanie8
  6
CONTINUOUS
 62
     7
 10
211.8932
 20
46.356499999999983
 11
210.4907
 21
46.356499999999983
  0
LINE
  8
PT2-Wymiarowanie8
  6
CONTINUOUS
 62
     7
 10
217.0932
 20
46.356499999999983
 11
215.6907
 21
46.356499999999983
  0
LINE
  8
PT2-Wymiarowanie8
  6
CONTINUOUS
 62
     7
 10
215.6907
 20
46.353999999999985
 11
215.6907
 21
47.756500000000017
  0
LINE
  8
PT2-Wymiarowanie8
  6
CONTINUOUS
 62
     7
 10
215.6882
 20
47.755899999999997
 11
217.0907
 21
47.756500000000017
  0
LINE
  8
PT2-Wymiarowanie8
  6
CONTINUOUS
 62
     7
 10
217.0907
 20
47.759000000000015
 11
217.0907
 21
46.356499999999983
  0
LINE
  8
PT2-Wymiarowanie8
  6
CONTINUOUS
 62
     7
 10
214.4932
 20
46.356499999999983
 11
213.0907
 21
46.356499999999983
  0
LINE
  8
PT2-Wymiarowanie8
  6
CONTINUOUS
 62
     7
 10
213.0907
 20
46.353999999999985
 11
213.0907
 21
47.756500000000017
  0
LINE
  8
PT2-Wymiarowanie8
  6
CONTINUOUS
 62
     7
 10
213.0882
 20
47.756199999999978
 11
214.4907
 21
47.756500000000017
  0
LINE
  8
PT2-Wymiarowanie8
  6
CONTINUOUS
 62
     7
 10
214.4907
 20
47.759000000000015
 11
214.4907
 21
46.356499999999983
  0
LINE
  8
PT2-Wymiarowanie8
  6
CONTINUOUS
 62
     7
 10
255.8907
 20
35.675000000000011
 11
255.8907
 21
69.400199999999984
  0
LINE
  8
PT2-Wymiarowanie8
  6
CONTINUOUS
 62
     7
 10
255.8907
 20
69.400199999999984
 11
207.276
 21
35.675000000000011
  0
LINE
  8
PT2-Wymiarowanie8
  6
CONTINUOUS
 62
     7
 10
255.8907
 20
69.400199999999984
 11
136.6907
 21
113.967199999999990
  0
LINE
  8
PT2-Wymiarowanie8
  6
CONTINUOUS
 62
     7
 10
136.6907
 20
113.967199999999990
 11
191.0039
 21
35.675000000000011
  0
LINE
  8
PT2-Wymiarowanie8
  6
CONTINUOUS
 62
     7
 10
136.6907
 20
113.967199999999990
 11
136.6907
 21
35.675000000000011
  0
LINE
  8
PT2-Wymiarowanie8
  6
CONTINUOUS
 62
     7
 10
210.4907
 20
46.353999999999985
 11
211.8907
 21
47.759000000000015
  0
LINE
  8
PT2-Wymiarowanie8
  6
CONTINUOUS
 62
     7
 10
213.0907
 20
46.353999999999985
 11
214.4907
 21
47.759000000000015
  0
LINE
  8
PT2-Wymiarowanie8
  6
CONTINUOUS
 62
     7
 10
215.6907
 20
46.353999999999985
 11
217.0907
 21
47.759000000000015
  0
LINE
  8
PT2-Wymiarowanie8
  6
CONTINUOUS
 62
     7
 10
257.3907
 20
35.675000000000011
 11
257.3907
 21
70.387600000000020
  0
LINE
  8
PT2-Wymiarowanie8
  6
CONTINUOUS
 62
     7
 10
257.4393
 20
70.389599999999973
 11
135.0965
 21
116.164600000000010
  0
LINE
  8
PT2-Wymiarowanie8
  6
CONTINUOUS
 62
     7
 10
135.0965
 20
116.164600000000010
 11
135.189
 21
35.675000000000011
  0
CIRCLE
  8
PT2-Wymiarowanie8
  6
CONTINUOUS
 62
     7
 10
196.524300000000010
 20
92.396999999999991
 40
0.749700000000000
  0
CIRCLE
  8
PT2-Wymiarowanie8
  6
CONTINUOUS
 62
     7
 10
135.940699999999990
 20
100.971799999999970
 40
0.815500000000000
  0
CIRCLE
  8
PT2-Wymiarowanie8
  6
CONTINUOUS
 62
     7
 10
256.640699999999980
 20
56.401400000000024
 40
0.777400000000000
  0
TEXT
  8
PT4-Opis19
  6
CONTINUOUS
 62
     7
 10
173.705999999999990
 20
191.478000000000010
 40
2.500000000000000
  1
Istniejący dach - 
  0
TEXT
  8
PT4-Opis19
  6
CONTINUOUS
 62
     7
 10
173.705999999999990
 20
187.728000000000010
 40
2.500000000000000
  1
konstrukcja bez 
  0
TEXT
  8
PT4-Opis19
  6
CONTINUOUS
 62
     7
 10
173.705999999999990
 20
183.978000000000010
 40
2.500000000000000
  1
zmian
  0
TEXT
  8
PT4-Opis19
  6
CONTINUOUS
 62
     7
 10
266.718399999999970
 20
303.992999999999990
 40
2.500000000000000
  1
Istniejący dach - 
  0
TEXT
  8
PT4-Opis19
  6
CONTINUOUS
 62
     7
 10
266.718399999999970
 20
300.242999999999990
 40
2.500000000000000
  1
konstrukcja bez 
  0
TEXT
  8
PT4-Opis19
  6
CONTINUOUS
 62
     7
 10
266.718399999999970
 20
296.492999999999990
 40
2.500000000000000
  1
zmian
  0
ENDSEC
  0
EOF
